  0
SECTION
  2
HEADER
  9
$ACADVER
  1
AC1009
  9
$INSBASE
 10
0.0
 20
0.0
 30
0.0
  9
$EXTMIN
 10
0.0
 20
-2.960436562073669
 30
0.0
  9
$EXTMAX
 10
159.5420461392716
 20
148.97959906045261
 30
0.0
  9
$LIMMIN
 10
0.0
 20
0.0
  9
$LIMMAX
 10
375.0
 20
270.0
  9
$ORTHOMODE
 70
     0
  9
$REGENMODE
 70
     1
  9
$FILLMODE
 70
     1
  9
$QTEXTMODE
 70
     0
  9
$MIRRTEXT
 70
     0
  9
$DRAGMODE
 70
     2
  9
$LTSCALE
 40
10.0
  9
$OSMODE
 70
    55
  9
$ATTMODE
 70
     1
  9
$TEXTSIZE
 40
2.0
  9
$TRACEWID
 40
0.05
  9
$TEXTSTYLE
  7
STANDARD
  9
$CLAYER
  8
0
  9
$CELTYPE
  6
BYLAYER
  9
$CECOLOR
 62
   256
  9
$DIMSCALE
 40
1.0
  9
$DIMASZ
 40
2.5
  9
$DIMEXO
 40
2.0
  9
$DIMDLI
 40
0.38
  9
$DIMRND
 40
0.0
  9
$DIMDLE
 40
0.0
  9
$DIMEXE
 40
2.0
  9
$DIMTP
 40
0.0
  9
$DIMTM
 40
0.0
  9
$DIMTXT
 40
3.0
  9
$DIMCEN
 40
0.09
  9
$DIMTSZ
 40
0.0
  9
$DIMTOL
 70
     0
  9
$DIMLIM
 70
     0
  9
$DIMTIH
 70
     0
  9
$DIMTOH
 70
     0
  9
$DIMSE1
 70
     0
  9
$DIMSE2
 70
     0
  9
$DIMTAD
 70
     1
  9
$DIMZIN
 70
     0
  9
$DIMBLK
  1

  9
$DIMASO
 70
     1
  9
$DIMSHO
 70
     0
  9
$DIMPOST
  1

  9
$DIMAPOST
  1

  9
$DIMALT
 70
     0
  9
$DIMALTD
 70
     2
  9
$DIMALTF
 40
25.399999999999999
  9
$DIMLFAC
 40
1.0
  9
$DIMTOFL
 70
     0
  9
$DIMTVP
 40
1.6000000000000001
  9
$DIMTIX
 70
     1
  9
$DIMSOXD
 70
     0
  9
$DIMSAH
 70
     0
  9
$DIMBLK1
  1

  9
$DIMBLK2
  1

  9
$DIMSTYLE
  2
STANDARD
  9
$DIMCLRD
 70
     0
  9
$DIMCLRE
 70
     0
  9
$DIMCLRT
 70
     0
  9
$DIMTFAC
 40
1.0
  9
$DIMGAP
 40
0.09
  9
$LUNITS
 70
     2
  9
$LUPREC
 70
     4
  9
$SKETCHINC
 40
0.1
  9
$FILLETRAD
 40
2.5
  9
$AUNITS
 70
     0
  9
$AUPREC
 70
     0
  9
$MENU
  1
E:\r13\win\SUPPORT\ACAD
  9
$ELEVATION
 40
0.0
  9
$PELEVATION
 40
0.0
  9
$THICKNESS
 40
0.0
  9
$LIMCHECK
 70
     0
  9
$BLIPMODE
 70
     0
  9
$CHAMFERA
 40
0.0
  9
$CHAMFERB
 40
0.0
  9
$SKPOLY
 70
     0
  9
$TDCREATE
 40
2448650.5678784722
  9
$TDUPDATE
 40
2456598.4379960648
  9
$TDINDWG
 40
0.0265395949
  9
$TDUSRTIMER
 40
0.0265395949
  9
$USRTIMER
 70
     1
  9
$ANGBASE
 50
0.0
  9
$ANGDIR
 70
     0
  9
$PDMODE
 70
     0
  9
$PDSIZE
 40
0.0
  9
$PLINEWID
 40
0.0
  9
$COORDS
 70
     1
  9
$SPLFRAME
 70
     0
  9
$SPLINETYPE
 70
     6
  9
$SPLINESEGS
 70
     8
  9
$ATTDIA
 70
     0
  9
$ATTREQ
 70
     1
  9
$HANDLING
 70
     1
  9
$HANDSEED
  5
8E6
  9
$SURFTAB1
 70
     6
  9
$SURFTAB2
 70
     6
  9
$SURFTYPE
 70
     6
  9
$SURFU
 70
     6
  9
$SURFV
 70
     6
  9
$UCSNAME
  2

  9
$UCSORG
 10
0.0
 20
0.0
 30
0.0
  9
$UCSXDIR
 10
1.0
 20
0.0
 30
0.0
  9
$UCSYDIR
 10
0.0
 20
1.0
 30
0.0
  9
$PUCSNAME
  2

  9
$PUCSORG
 10
0.0
 20
0.0
 30
0.0
  9
$PUCSXDIR
 10
1.0
 20
0.0
 30
0.0
  9
$PUCSYDIR
 10
0.0
 20
1.0
 30
0.0
  9
$USERI1
 70
     0
  9
$USERI2
 70
     1
  9
$USERI3
 70
     1
  9
$USERI4
 70
     0
  9
$USERI5
 70
     0
  9
$USERR1
 40
0.0
  9
$USERR2
 40
0.0
  9
$USERR3
 40
0.0
  9
$USERR4
 40
0.0
  9
$USERR5
 40
0.0
  9
$WORLDVIEW
 70
     1
  9
$SHADEDGE
 70
     3
  9
$SHADEDIF
 70
    70
  9
$TILEMODE
 70
     1
  9
$MAXACTVP
 70
    16
  9
$PLIMCHECK
 70
     0
  9
$PEXTMIN
 10
1.0000000000000000E+020
 20
1.0000000000000000E+020
 30
1.0000000000000000E+020
  9
$PEXTMAX
 10
-1.0000000000000000E+020
 20
-1.0000000000000000E+020
 30
-1.0000000000000000E+020
  9
$PLIMMIN
 10
0.0
 20
0.0
  9
$PLIMMAX
 10
12.0
 20
9.0
  9
$UNITMODE
 70
     0
  9
$VISRETAIN
 70
     0
  9
$PLINEGEN
 70
     1
  9
$PSLTSCALE
 70
     0
  0
ENDSEC
  0
SECTION
  2
TABLES
  0
TABLE
  2
VPORT
 70
     1
  0
VPORT
  2
*ACTIVE
 70
     0
 10
0.0
 20
0.0
 11
1.0
 21
1.0
 12
187.4942783906524
 22
197.0509055860143
 13
0.0
 23
0.0
 14
10.0
 24
10.0
 15
10.0
 25
10.0
 16
0.0
 26
0.0
 36
1.0
 17
0.0
 27
0.0
 37
0.0
 40
403.57315882993248
 41
1.7807262569832401
 42
50.0
 43
0.0
 44
0.0
 50
0.0
 51
0.0
 71
     0
 72
   500
 73
     1
 74
     0
 75
     0
 76
     0
 77
     0
 78
     2
  0
ENDTAB
  0
TABLE
  2
LTYPE
 70
     4
  0
LTYPE
  2
CONTINUOUS
 70
     0
  3
Solid Line
 72
    65
 73
     0
 40
0.0
  0
LTYPE
  2
CENTER
 70
     0
  3
____ _ ____ _ ____ _ ____ _ ____ _ ____ _ ____
 72
    65
 73
     4
 40
2.0
 49
1.25
 49
-0.25
 49
0.25
 49
-0.25
  0
LTYPE
  2
HIDDEN
 70
     0
  3
_ _ _ _ _ _ _ _ _ _ _ _ _ _ _ _ _ _ _ _ _ _ _
 72
    65
 73
     2
 40
0.375
 49
0.25
 49
-0.125
  0
LTYPE
  2
PHANTOM2
 70
     0
  3
___ _ _ ___ _ _ ___ _ _ ___ _ _
 72
    65
 73
     6
 40
1.25
 49
0.625
 49
-0.125
 49
0.125
 49
-0.125
 49
0.125
 49
-0.125
  0
ENDTAB
  0
TABLE
  2
LAYER
 70
     3
  0
LAYER
  2
0
 70
     0
 62
     7
  6
CONTINUOUS
  0
LAYER
  2
1
 70
     0
 62
     1
  6
CENTER
  0
LAYER
  2
2
 70
     0
 62
     2
  6
HIDDEN
  0
ENDTAB
  0
TABLE
  2
STYLE
 70
     2
  0
STYLE
  2
STANDARD
 70
     0
 40
0.0
 41
1.0
 50
0.0
 71
     0
 42
2.0
  3
TXT
  4
BIGFONT
  0
STYLE
  2
STANDARD1
 70
     0
 40
0.0
 41
1.0
 50
0.0
 71
     0
 42
3.0
  3
txt
  4

  0
ENDTAB
  0
TABLE
  2
VIEW
 70
     1
  0
VIEW
  2
ALL
 70
     0
 40
270.0
 10
220.99159663865549
 20
135.0
 41
0.0
 11
0.0
 21
0.0
 31
1.0
 12
0.0
 22
0.0
 32
0.0
 42
0.0
 43
0.0
 44
0.0
 50
0.0
 71
     0
  0
ENDTAB
  0
TABLE
  2
UCS
 70
     0
  0
ENDTAB
  0
TABLE
  2
APPID
 70
     6
  0
APPID
  2
ACAD
 70
     0
  0
APPID
  2
GENIUS_GENODEF_13
 70
     0
  0
APPID
  2
GENIUS_GENOBJ-N-CEN_13
 70
     0
  0
APPID
  2
GENIUS_GENCEN_19
 70
     0
  0
APPID
  2
ACAD_MLEADERVER
 70
     0
  0
APPID
  2
ACAD_NAV_VCDISPLAY
 70
     0
  0
ENDTAB
  0
TABLE
  2
DIMSTYLE
 70
     1
  0
DIMSTYLE
  2
STANDARD
 70
     0
  3

  4

  5

  6

  7

 40
1.0
 41
0.18
 42
0.0625
 43
0.38
 44
0.18
 45
0.0
 46
0.0
 47
0.0
 48
0.0
140
0.18
141
0.09
142
0.0
143
25.399999999999999
144
1.0
145
0.0
146
1.0
147
0.09
 71
     0
 72
     0
 73
     1
 74
     1
 75
     0
 76
     0
 77
     0
 78
     0
170
     0
171
     2
172
     0
173
     0
174
     0
175
     0
176
     0
177
     0
178
     0
  0
ENDTAB
  0
ENDSEC
  0
SECTION
  2
BLOCKS
  0
BLOCK
  8
0
  2
$MODEL_SPACE
 70
     0
 10
0.0
 20
0.0
 30
0.0
  3
$MODEL_SPACE
  1

  0
ENDBLK
  5
217
  8
0
  0
BLOCK
 67
     1
  8
0
  2
$PAPER_SPACE
 70
     0
 10
0.0
 20
0.0
 30
0.0
  3
$PAPER_SPACE
  1

  0
ENDBLK
  5
215
 67
     1
  8
0
  0
ENDSEC
  0
SECTION
  2
ENTITIES
  0
LINE
  5
6F7
  8
2
 10
149.29204613927149
 20
56.979599213768317
 30
0.0
 11
149.29204613927149
 21
58.479599213768317
 31
0.0
  0
LINE
  5
6F8
  8
2
 10
155.79204613927149
 20
58.479599213768317
 30
0.0
 11
155.79204613927149
 21
56.979599213768317
 31
0.0
  0
LINE
  5
6F9
  8
2
 10
149.29204613927149
 20
58.479599213768317
 30
0.0
 11
155.79204613927149
 21
58.479599213768317
 31
0.0
  0
LINE
  5
6FA
  8
2
 10
155.54204613927149
 20
58.729599213768353
 30
0.0
 11
155.54204613927149
 21
68.979599060452756
 31
0.0
  0
LINE
  5
6FB
  8
2
 10
155.00054613927159
 20
59.271099213768252
 30
0.0
 11
155.00054613927159
 21
73.979599060452756
 31
0.0
  0
LINE
  5
6FC
  8
2
 10
150.08354613927139
 20
59.271099213768217
 30
0.0
 11
150.08354613927139
 21
73.979599060452756
 31
0.0
  0
LINE
  5
6FD
  8
2
 10
149.5420461392716
 20
58.729599213768353
 30
0.0
 11
149.54204613927149
 21
68.979599060452756
 31
0.0
  0
LINE
  5
6FE
  8
2
 10
155.54204613927149
 20
68.979599060452756
 30
0.0
 11
149.54204613927149
 21
68.979599060452756
 31
0.0
  0
LINE
  5
6FF
  8
2
 10
155.00054613927159
 20
73.979599060452756
 30
0.0
 11
150.08354613927139
 21
73.979599060452756
 31
0.0
  0
LINE
  5
700
  8
2
 10
155.00054613927159
 20
73.979599060452713
 30
0.0
 11
152.54204613927149
 21
75.456814892332062
 31
0.0
  0
LINE
  5
701
  8
2
 10
150.08354613927139
 20
73.979599060452784
 30
0.0
 11
152.54204613927149
 21
75.456814892332062
 31
0.0
  0
LINE
  5
702
  8
2
 10
149.54204613927149
 20
68.979599060452756
 30
0.0
 11
150.08354613927139
 21
69.917504572751142
 31
0.0
  0
LINE
  5
703
  8
2
 10
155.54204613927141
 20
68.979599060452756
 30
0.0
 11
155.00054613927139
 21
69.917504572751142
 31
0.0
  0
LINE
  5
704
  8
2
 10
155.7920461392716
 20
58.479599213768317
 30
0.0
 11
155.00054613927159
 21
59.271099213768281
 31
0.0
  0
LINE
  5
705
  8
2
 10
150.08354613927139
 20
59.271099213768252
 30
0.0
 11
149.29204613927141
 21
58.479599213768317
 31
0.0
  0
LINE
  5
706
  8
2
 10
155.00054613927159
 20
59.271099213768252
 30
0.0
 11
150.08354613927139
 21
59.271099213768252
 31
0.0
  0
LINE
  5
707
  8
0
 10
147.72670045274279
 20
88.056463865422074
 30
0.0
 11
146.6566229253304
 21
88.912260257955069
 31
0.0
  0
LINE
  5
708
  8
0
 10
158.42746935321259
 20
88.912260257955026
 30
0.0
 11
157.35739182580039
 21
88.056463865422117
 31
0.0
  0
ARC
  5
709
  8
0
 10
148.54204613927169
 20
81.979599060452728
 30
0.0
 40
3.0
 50
180.0
 51
270.0
  0
ARC
  5
70A
  8
0
 10
156.54204613927149
 20
81.979599060452728
 30
0.0
 40
3.0
 50
270.0
 51
0.0
  0
ARC
  5
70B
  8
0
 10
155.00046921831191
 20
81.979599060452728
 30
0.0
 40
3.0
 50
270.0
 51
0.0
  0
ARC
  5
70C
  8
0
 10
150.08362306023139
 20
81.979599060452756
 30
0.0
 40
3.0
 50
180.0
 51
270.0
  0
ARC
  5
70D
  8
0
 10
150.08362306023139
 20
85.746720195161458
 30
0.0
 40
3.0
 50
90.0
 51
180.0
  0
ARC
  5
70E
  8
0
 10
155.00046921831179
 20
85.746720195161487
 30
0.0
 40
3.0
 50
0.0
 51
90.0
  0
LINE
  5
70F
  8
0
 10
158.00046921831179
 20
85.746720195161487
 30
0.0
 11
158.00046921831191
 21
81.979599060452756
 31
0.0
  0
LINE
  5
710
  8
0
 10
147.08362306023139
 20
85.746720195161458
 30
0.0
 11
147.08362306023139
 21
81.979599060452756
 31
0.0
  0
LINE
  5
711
  8
0
 10
155.00046921831179
 20
88.746720195161487
 30
0.0
 11
150.08362306023139
 21
88.746720195161444
 31
0.0
  0
LINE
  5
712
  8
0
 10
156.54204613927149
 20
78.979599060452756
 30
0.0
 11
148.54204613927169
 21
78.979599060452756
 31
0.0
  0
ARC
  5
713
  8
0
 10
148.54204613927141
 20
86.9795990604525
 30
0.0
 40
3.0
 50
90.0
 51
180.0
  0
ARC
  5
714
  8
0
 10
156.54204613927141
 20
86.979599060452458
 30
0.0
 40
3.0
 50
0.0
 51
90.0
  0
ARC
  5
715
  8
0
 10
158.0420461392716
 20
58.479599060452749
 30
0.0
 40
1.5
 50
270.0
 51
0.0
  0
ARC
  5
716
  8
0
 10
147.04204613927149
 20
58.47959906045277
 30
0.0
 40
1.5
 50
180.0
 51
270.0
  0
LINE
  5
717
  8
0
 10
159.54204613927149
 20
86.979599060452458
 30
0.0
 11
159.5420461392716
 21
58.479599060452749
 31
0.0
  0
LINE
  5
718
  8
0
 10
145.54204613927149
 20
86.9795990604525
 30
0.0
 11
145.54204613927149
 21
58.47959906045277
 31
0.0
  0
LINE
  5
719
  8
0
 10
147.04204613927149
 20
56.97959906045277
 30
0.0
 11
158.0420461392716
 21
56.979599060452763
 31
0.0
  0
LINE
  5
71A
  8
1
 10
152.5420461392716
 20
94.679599060452801
 30
0.0
 11
152.5420461392716
 21
51.979599060452742
 31
0.0
  0
LINE
  5
71B
  8
0
 10
156.54204613927141
 20
89.979599060452472
 30
0.0
 11
148.54204613927141
 21
89.979599060452514
 31
0.0
  0
LINE
  5
71C
  8
2
 10
80.583546139271448
 20
59.271099213768252
 30
0.0
 11
85.500546139271592
 21
59.271099213768252
 31
0.0
  0
LINE
  5
71D
  8
2
 10
85.500546139271592
 20
59.271099213768252
 30
0.0
 11
86.292046139271577
 21
58.479599213768317
 31
0.0
  0
LINE
  5
71E
  8
2
 10
79.792046139271463
 20
58.479599213768317
 30
0.0
 11
80.583546139271448
 21
59.271099213768281
 31
0.0
  0
LINE
  5
71F
  8
2
 10
80.042046139271619
 20
68.979599060452756
 30
0.0
 11
80.583546139271547
 21
69.917504572751142
 31
0.0
  0
LINE
  5
720
  8
2
 10
86.042046139271505
 20
68.979599060452756
 30
0.0
 11
85.500546139271592
 21
69.917504572751142
 31
0.0
  0
LINE
  5
721
  8
2
 10
85.500546139271592
 20
73.979599060452784
 30
0.0
 11
83.042046139271534
 21
75.456814892332062
 31
0.0
  0
LINE
  5
722
  8
2
 10
80.583546139271448
 20
73.979599060452713
 30
0.0
 11
83.042046139271534
 21
75.456814892332062
 31
0.0
  0
LINE
  5
723
  8
2
 10
80.583546139271448
 20
73.979599060452756
 30
0.0
 11
85.500546139271592
 21
73.979599060452756
 31
0.0
  0
LINE
  5
724
  8
2
 10
80.04204613927152
 20
68.979599060452756
 30
0.0
 11
86.042046139271505
 21
68.979599060452756
 31
0.0
  0
LINE
  5
725
  8
2
 10
86.042046139271463
 20
58.729599213768353
 30
0.0
 11
86.042046139271505
 21
68.979599060452756
 31
0.0
  0
LINE
  5
726
  8
2
 10
85.500546139271592
 20
59.271099213768217
 30
0.0
 11
85.500546139271592
 21
73.979599060452756
 31
0.0
  0
LINE
  5
727
  8
2
 10
80.583546139271448
 20
59.271099213768252
 30
0.0
 11
80.583546139271448
 21
73.979599060452756
 31
0.0
  0
LINE
  5
728
  8
2
 10
80.04204613927152
 20
58.729599213768353
 30
0.0
 11
80.04204613927152
 21
68.979599060452756
 31
0.0
  0
ARC
  5
729
  8
0
 10
58.542046139271577
 20
85.761514739723765
 30
0.0
 40
3.0
 50
95.692544602338046
 51
180.0
  0
ARC
  5
72A
  8
0
 10
77.542046139271577
 20
58.479599060452742
 30
0.0
 40
1.5
 50
180.0
 51
270.0
  0
LINE
  5
72B
  8
0
 10
76.042046139271577
 20
58.479599060452742
 30
0.0
 11
76.042046139271577
 21
73.837907887361609
 31
0.0
1001
GENIUS_GENOBJ-N-CEN_13
1002
{
1000
OWNER
1000
GEN
1002
}
1001
GENIUS_GENODEF_13
1002
{
1000
HIER
1070
     0
1002
}
1002
{
1000
MANEDIT
1070
     0
1002
}
1002
{
1000
NOSEL
1070
     0
1002
}
1002
{
1000
BEHIND
1070
     0
1002
}
1002
{
1000
OTHER
1070
     0
1002
}
1002
{
1000
REACTOR
1002
}
1001
GENIUS_GENCEN_19
1002
{
1040
3.0
1002
}
  0
ARC
  5
72C
  8
0
 10
83.042046139271577
 20
-165.1065902053893
 30
0.0
 40
245.2978753954925
 50
93.114160512757678
 51
95.662692344951964
  0
ARC
  5
72D
  8
0
 10
70.042046139271577
 20
73.837907887361624
 30
0.0
 40
6.0
 50
0.0
 51
93.114160512757678
  0
LINE
  5
72F
  8
0
 10
55.542046139271577
 20
85.761514739723779
 30
0.0
 11
55.542046139271577
 21
81.979599060452756
 31
0.0
  0
ARC
  5
730
  8
0
 10
58.542046139271577
 20
81.979599060452756
 30
0.0
 40
3.0
 50
180.0
 51
275.66269234495201
  0
ARC
  5
731
  8
0
 10
88.542046139271505
 20
58.479599060452742
 30
0.0
 40
1.5
 50
270.0
 51
0.0
  0
ARC
  5
732
  8
0
 10
96.042046139271505
 20
73.837907887361624
 30
0.0
 40
6.0
 50
86.885839487242322
 51
180.0
  0
LINE
  5
733
  8
0
 10
90.04204613927152
 20
58.479599060452742
 30
0.0
 11
90.04204613927152
 21
73.837907887361609
 31
0.0
1001
GENIUS_GENOBJ-N-CEN_13
1002
{
1000
OWNER
1000
GEN
1002
}
1001
GENIUS_GENODEF_13
1002
{
1000
HIER
1070
     0
1002
}
1002
{
1000
MANEDIT
1070
     0
1002
}
1002
{
1000
NOSEL
1070
     0
1002
}
1002
{
1000
BEHIND
1070
     0
1002
}
1002
{
1000
OTHER
1070
     0
1002
}
1002
{
1000
REACTOR
1002
}
1001
GENIUS_GENCEN_19
1002
{
1040
3.0
1002
}
  0
ARC
  5
734
  8
0
 10
107.54204613927151
 20
81.979599060452756
 30
0.0
 40
3.0
 50
264.33730765504799
 51
0.0
  0
ARC
  5
735
  8
0
 10
83.042046139271534
 20
-165.1065902053893
 30
0.0
 40
245.2978753954925
 50
84.337307655048036
 51
86.885839487242322
  0
ARC
  5
736
  8
0
 10
107.54204613927151
 20
85.761514739723765
 30
0.0
 40
3.0
 50
0.0
 51
84.307455397661954
  0
LINE
  5
737
  8
0
 10
110.54204613927151
 20
85.761514739723737
 30
0.0
 11
110.54204613927151
 21
81.979599060452756
 31
0.0
  0
ARC
  5
738
  8
0
 10
58.642046139271542
 20
134.5972815391373
 30
0.0
 40
3.1000000000000001
 50
180.00000000000489
 51
262.88156399583983
  0
ARC
  5
739
  8
0
 10
107.4420461392715
 20
134.5972815391373
 30
0.0
 40
3.1000000000000001
 50
277.11843600416017
 51
0.0000000000008142
  0
ARC
  5
73A
  8
0
 10
107.4420461392715
 20
139.3619165817677
 30
0.0
 40
3.1000000000000001
 50
359.9999999999992
 51
82.88156399583977
  0
ARC
  5
73B
  8
0
 10
58.642046139271088
 20
139.36191658176759
 30
0.0
 40
3.1000000000000001
 50
97.118436004160245
 51
180.00000000000489
  0
LINE
  5
73C
  8
1
 10
83.042046139271534
 20
124.9795990604525
 30
0.0
 11
83.042046139271534
 21
148.97959906045261
 31
0.0
  0
ARC
  5
73D
  8
0
 10
83.042046139271534
 20
329.97959906045259
 30
0.0
 40
200.00000000000011
 50
262.88156399583983
 51
277.11843600416017
  0
LINE
  5
73E
  8
1
 10
50.542046139271292
 20
136.97959906045261
 30
0.0
 11
115.54204613927151
 21
136.97959906045261
 31
0.0
  0
LINE
  5
73F
  8
0
 10
55.542046139271058
 20
139.3619165817673
 30
0.0
 11
55.54204613927152
 21
134.5972815391371
 31
0.0
  0
LINE
  5
740
  8
0
 10
110.54204613927151
 20
134.5972815391373
 30
0.0
 11
110.54204613927141
 21
139.3619165817677
 31
0.0
  0
ARC
  5
741
  8
0
 10
83.042046139271534
 20
-56.020400939547407
 30
0.0
 40
200.0
 50
82.88156399583977
 51
97.118436004160245
  0
LINE
  5
742
  8
0
 10
88.542046139271505
 20
56.979599060452742
 30
0.0
 11
77.542046139271577
 21
56.97959906045277
 31
0.0
  0
LINE
  5
743
  8
2
 10
86.29204613927152
 20
58.479599213768317
 30
0.0
 11
79.792046139271505
 21
58.479599213768317
 31
0.0
  0
ARC
  5
744
  8
0
 10
83.042046139271534
 20
-160.0204317142659
 30
0.0
 40
250.0000307747184
 50
84.307455397661954
 51
95.692544602338046
  0
LINE
  5
745
  8
1
 10
83.042046139271534
 20
51.97959906045277
 30
0.0
 11
83.042046139271534
 21
94.979599060452514
 31
0.0
1001
GENIUS_GENOBJ-N-CEN_13
1002
{
1000
OWNER
1000
GEN
1002
}
1001
GENIUS_GENODEF_13
1002
{
1000
HIER
1070
     0
1002
}
1002
{
1000
MANEDIT
1070
     0
1002
}
1002
{
1000
NOSEL
1070
     0
1002
}
1002
{
1000
BEHIND
1070
     0
1002
}
1002
{
1000
OTHER
1070
     0
1002
}
1002
{
1000
REACTOR
1002
}
1001
GENIUS_GENCEN_19
1002
{
1040
3.0
1002
}
  0
LINE
  5
746
  8
2
 10
79.792046139271505
 20
58.479599213768317
 30
0.0
 11
79.792046139271505
 21
56.979599213768317
 31
0.0
  0
LINE
  5
747
  8
2
 10
86.29204613927152
 20
56.979599213768317
 30
0.0
 11
86.29204613927152
 21
58.479599213768317
 31
0.0
  0
TEXT
  5
851
  8
0
 62
     3
 10
0.0
 20
0.0
 30
0.0
 40
10.0
  1
TH55A-M6-B
  7
STANDARD1
  0
ENDSEC
  0
EOF
