  0
SECTION
  2
HEADER
  9
$ACADVER
  1
AC1009
  9
$INSBASE
 10
0.0
 20
0.0
 30
0.0
  9
$EXTMIN
 10
0.0
 20
-2.960436562073669
 30
0.0
  9
$EXTMAX
 10
301.00000000000091
 20
206.0
 30
0.0
  9
$LIMMIN
 10
0.0
 20
0.0
  9
$LIMMAX
 10
375.0
 20
270.0
  9
$ORTHOMODE
 70
     1
  9
$REGENMODE
 70
     1
  9
$FILLMODE
 70
     1
  9
$QTEXTMODE
 70
     0
  9
$MIRRTEXT
 70
     0
  9
$DRAGMODE
 70
     2
  9
$LTSCALE
 40
10.0
  9
$OSMODE
 70
    55
  9
$ATTMODE
 70
     1
  9
$TEXTSIZE
 40
5.0
  9
$TRACEWID
 40
0.05
  9
$TEXTSTYLE
  7
STANDARD
  9
$CLAYER
  8
0
  9
$CELTYPE
  6
BYLAYER
  9
$CECOLOR
 62
   256
  9
$DIMSCALE
 40
1.0
  9
$DIMASZ
 40
3.0
  9
$DIMEXO
 40
2.0
  9
$DIMDLI
 40
0.38
  9
$DIMRND
 40
0.0
  9
$DIMDLE
 40
0.0
  9
$DIMEXE
 40
2.0
  9
$DIMTP
 40
0.0
  9
$DIMTM
 40
0.0
  9
$DIMTXT
 40
3.2000000000000002
  9
$DIMCEN
 40
0.0
  9
$DIMTSZ
 40
0.0
  9
$DIMTOL
 70
     0
  9
$DIMLIM
 70
     0
  9
$DIMTIH
 70
     0
  9
$DIMTOH
 70
     0
  9
$DIMSE1
 70
     0
  9
$DIMSE2
 70
     0
  9
$DIMTAD
 70
     1
  9
$DIMZIN
 70
     0
  9
$DIMBLK
  1

  9
$DIMASO
 70
     1
  9
$DIMSHO
 70
     0
  9
$DIMPOST
  1

  9
$DIMAPOST
  1

  9
$DIMALT
 70
     0
  9
$DIMALTD
 70
     2
  9
$DIMALTF
 40
25.399999999999999
  9
$DIMLFAC
 40
1.0
  9
$DIMTOFL
 70
     1
  9
$DIMTVP
 40
1.6000000000000001
  9
$DIMTIX
 70
     1
  9
$DIMSOXD
 70
     0
  9
$DIMSAH
 70
     0
  9
$DIMBLK1
  1

  9
$DIMBLK2
  1

  9
$DIMSTYLE
  2
STANDARD
  9
$DIMCLRD
 70
     0
  9
$DIMCLRE
 70
     0
  9
$DIMCLRT
 70
     0
  9
$DIMTFAC
 40
1.0
  9
$DIMGAP
 40
0.09
  9
$LUNITS
 70
     2
  9
$LUPREC
 70
     4
  9
$SKETCHINC
 40
0.1
  9
$FILLETRAD
 40
0.0
  9
$AUNITS
 70
     0
  9
$AUPREC
 70
     4
  9
$MENU
  1
E:\r13\win\SUPPORT\ACAD
  9
$ELEVATION
 40
0.0
  9
$PELEVATION
 40
0.0
  9
$THICKNESS
 40
0.0
  9
$LIMCHECK
 70
     0
  9
$BLIPMODE
 70
     0
  9
$CHAMFERA
 40
0.0
  9
$CHAMFERB
 40
0.0
  9
$SKPOLY
 70
     0
  9
$TDCREATE
 40
2449839.7851388892
  9
$TDUPDATE
 40
2456598.4382165279
  9
$TDINDWG
 40
0.000161088
  9
$TDUSRTIMER
 40
0.000161088
  9
$USRTIMER
 70
     1
  9
$ANGBASE
 50
0.0
  9
$ANGDIR
 70
     0
  9
$PDMODE
 70
     0
  9
$PDSIZE
 40
0.0
  9
$PLINEWID
 40
0.0
  9
$COORDS
 70
     1
  9
$SPLFRAME
 70
     0
  9
$SPLINETYPE
 70
     6
  9
$SPLINESEGS
 70
     8
  9
$ATTDIA
 70
     0
  9
$ATTREQ
 70
     1
  9
$HANDLING
 70
     1
  9
$HANDSEED
  5
2A1
  9
$SURFTAB1
 70
     6
  9
$SURFTAB2
 70
     6
  9
$SURFTYPE
 70
     6
  9
$SURFU
 70
     6
  9
$SURFV
 70
     6
  9
$UCSNAME
  2

  9
$UCSORG
 10
0.0
 20
0.0
 30
0.0
  9
$UCSXDIR
 10
1.0
 20
0.0
 30
0.0
  9
$UCSYDIR
 10
0.0
 20
1.0
 30
0.0
  9
$PUCSNAME
  2

  9
$PUCSORG
 10
0.0
 20
0.0
 30
0.0
  9
$PUCSXDIR
 10
1.0
 20
0.0
 30
0.0
  9
$PUCSYDIR
 10
0.0
 20
1.0
 30
0.0
  9
$USERI1
 70
     0
  9
$USERI2
 70
     1
  9
$USERI3
 70
     1
  9
$USERI4
 70
     0
  9
$USERI5
 70
     0
  9
$USERR1
 40
0.0
  9
$USERR2
 40
0.0
  9
$USERR3
 40
0.0
  9
$USERR4
 40
0.0
  9
$USERR5
 40
0.0
  9
$WORLDVIEW
 70
     1
  9
$SHADEDGE
 70
     3
  9
$SHADEDIF
 70
    70
  9
$TILEMODE
 70
     1
  9
$MAXACTVP
 70
    16
  9
$PLIMCHECK
 70
     0
  9
$PEXTMIN
 10
1.0000000000000000E+020
 20
1.0000000000000000E+020
 30
1.0000000000000000E+020
  9
$PEXTMAX
 10
-1.0000000000000000E+020
 20
-1.0000000000000000E+020
 30
-1.0000000000000000E+020
  9
$PLIMMIN
 10
0.0
 20
0.0
  9
$PLIMMAX
 10
12.0
 20
9.0
  9
$UNITMODE
 70
     0
  9
$VISRETAIN
 70
     0
  9
$PLINEGEN
 70
     0
  9
$PSLTSCALE
 70
     0
  0
ENDSEC
  0
SECTION
  2
TABLES
  0
TABLE
  2
VPORT
 70
     1
  0
VPORT
  2
*ACTIVE
 70
     0
 10
0.0
 20
0.0
 11
1.0
 21
1.0
 12
187.4942783906524
 22
197.0509055860143
 13
0.0
 23
0.0
 14
10.0
 24
10.0
 15
10.0
 25
10.0
 16
0.0
 26
0.0
 36
1.0
 17
0.0
 27
0.0
 37
0.0
 40
403.57315882993248
 41
1.7807262569832401
 42
50.0
 43
0.0
 44
0.0
 50
0.0
 51
0.0
 71
     0
 72
   500
 73
     1
 74
     0
 75
     0
 76
     0
 77
     0
 78
     2
  0
ENDTAB
  0
TABLE
  2
LTYPE
 70
     4
  0
LTYPE
  2
CONTINUOUS
 70
     0
  3
Solid Line
 72
    65
 73
     0
 40
0.0
  0
LTYPE
  2
CENTER
 70
     0
  3
____ _ ____ _ ____ _ ____ _ ____ _ ____ _ ____
 72
    65
 73
     4
 40
2.0
 49
1.25
 49
-0.25
 49
0.25
 49
-0.25
  0
LTYPE
  2
HIDDEN
 70
     0
  3
_ _ _ _ _ _ _ _ _ _ _ _ _ _ _ _ _ _ _ _ _ _ _
 72
    65
 73
     2
 40
0.375
 49
0.25
 49
-0.125
  0
LTYPE
  2
PHANTOM2
 70
     0
  3
___ _ _ ___ _ _ ___ _ _ ___ _ _
 72
    65
 73
     6
 40
1.25
 49
0.625
 49
-0.125
 49
0.125
 49
-0.125
 49
0.125
 49
-0.125
  0
ENDTAB
  0
TABLE
  2
LAYER
 70
     3
  0
LAYER
  2
0
 70
     0
 62
     7
  6
CONTINUOUS
  0
LAYER
  2
1
 70
     0
 62
     1
  6
CENTER
  0
LAYER
  2
2
 70
     0
 62
     2
  6
HIDDEN
  0
ENDTAB
  0
TABLE
  2
STYLE
 70
     2
  0
STYLE
  2
STANDARD
 70
     0
 40
0.0
 41
1.0
 50
0.0
 71
     0
 42
5.0
  3
TXT
  4
BIGFONT
  0
STYLE
  2
STANDARD1
 70
     0
 40
0.0
 41
1.0
 50
0.0
 71
     0
 42
3.0
  3
txt
  4

  0
ENDTAB
  0
TABLE
  2
VIEW
 70
     1
  0
VIEW
  2
ALL
 70
     0
 40
270.0
 10
220.99159663865549
 20
135.0
 41
0.0
 11
0.0
 21
0.0
 31
1.0
 12
0.0
 22
0.0
 32
0.0
 42
0.0
 43
0.0
 44
0.0
 50
0.0
 71
     0
  0
ENDTAB
  0
TABLE
  2
UCS
 70
     0
  0
ENDTAB
  0
TABLE
  2
APPID
 70
     3
  0
APPID
  2
ACAD
 70
     0
  0
APPID
  2
ACAD_MLEADERVER
 70
     0
  0
APPID
  2
ACAD_NAV_VCDISPLAY
 70
     0
  0
ENDTAB
  0
TABLE
  2
DIMSTYLE
 70
     1
  0
DIMSTYLE
  2
STANDARD
 70
     0
  3

  4

  5

  6

  7

 40
1.0
 41
0.18
 42
0.0625
 43
0.38
 44
0.18
 45
0.0
 46
0.0
 47
0.0
 48
0.0
140
0.18
141
0.09
142
0.0
143
25.399999999999999
144
1.0
145
0.0
146
1.0
147
0.09
 71
     0
 72
     0
 73
     1
 74
     1
 75
     0
 76
     0
 77
     0
 78
     0
170
     0
171
     2
172
     0
173
     0
174
     0
175
     0
176
     0
177
     0
178
     0
  0
ENDTAB
  0
ENDSEC
  0
SECTION
  2
BLOCKS
  0
BLOCK
  8
0
  2
$MODEL_SPACE
 70
     0
 10
0.0
 20
0.0
 30
0.0
  3
$MODEL_SPACE
  1

  0
ENDBLK
  5
E9
  8
0
  0
BLOCK
 67
     1
  8
0
  2
$PAPER_SPACE
 70
     0
 10
0.0
 20
0.0
 30
0.0
  3
$PAPER_SPACE
  1

  0
ENDBLK
  5
E7
 67
     1
  8
0
  0
BLOCK
  8
0
  2
ELLIPSE
 70
     0
 10
0.0
 20
0.0
 30
0.0
  3
ELLIPSE
  1

  0
CIRCLE
  5
2C
  8
0
 10
0.5
 20
0.5
 30
0.0
 40
0.5
  0
ENDBLK
  5
2D
  8
0
  0
ENDSEC
  0
SECTION
  2
ENTITIES
  0
LINE
  5
39
  8
2
 10
177.0
 20
95.0
 30
0.0
 11
177.0
 21
69.999999999999972
 31
0.0
  0
LINE
  5
3A
  8
2
 10
177.0
 20
95.000000000000028
 30
0.0
 11
183.0
 21
95.000000000000028
 31
0.0
  0
LINE
  5
3B
  8
2
 10
177.0
 20
95.000000000000057
 30
0.0
 11
180.0
 21
96.802581857082757
 31
0.0
  0
ARC
  5
3C
  8
0
 10
213.87909999999991
 20
190.0
 30
0.0
 40
5.6208999999999989
 50
288.22556286244588
 51
71.774437138812516
  0
ARC
  5
3D
  8
0
 10
146.12090000000001
 20
190.0
 30
0.0
 40
5.6208999999999989
 50
108.2255628611875
 51
251.77443713755409
  0
ARC
  5
3E
  8
0
 10
180.0
 20
86.0
 30
0.0
 40
115.0
 50
71.947537092112086
 51
108.0524629078879
  0
ARC
  5
3F
  8
0
 10
180.0
 20
294.0
 30
0.0
 40
115.0
 50
251.9475370920506
 51
288.05246290794952
  0
ARC
  5
40
  8
0
 10
180.0
 20
34.0
 30
0.0
 40
80.0
 50
63.082782497911793
 51
116.91721750208821
  0
ARC
  5
41
  8
0
 10
180.0
 20
-62.601641022269462
 30
0.0
 40
159.99999999999989
 50
78.425254095221774
 51
85.082899664471313
  0
ARC
  5
42
  8
0
 10
213.49999999999989
 20
99.982952343768773
 30
0.0
 40
6.000000000000056
 50
256.54691270751749
 51
63.082803730705429
  0
ARC
  5
43
  8
0
 10
146.5
 20
99.982952343768773
 30
0.0
 40
6.000000000000056
 50
116.91719626929491
 51
281.6426607905492
  0
LINE
  5
44
  8
0
 10
188.0
 20
70.5
 30
0.0
 11
187.5
 21
70.0
 31
0.0
  0
LINE
  5
45
  8
0
 10
172.0
 20
70.5
 30
0.0
 11
172.5
 21
70.0
 31
0.0
  0
LINE
  5
46
  8
0
 10
172.5
 20
70.0
 30
0.0
 11
187.5
 21
70.0
 31
0.0
  0
LINE
  5
47
  8
0
 10
188.0
 20
70.5
 30
0.0
 11
188.0
 21
88.0
 31
0.0
  0
LINE
  5
48
  8
0
 10
189.80000000000089
 20
88.0
 30
0.0
 11
170.19999999999911
 21
88.0
 31
0.0
  0
LINE
  5
49
  8
0
 10
191.00000000000091
 20
89.199999999999065
 30
0.0
 11
191.00000000000489
 21
94.318720945199587
 31
0.0
  0
ARC
  5
4A
  8
0
 10
180.0
 20
91.84253687400232
 30
0.0
 40
12.15746312599765
 50
25.204443986792789
 51
154.79555601320709
  0
ARC
  5
4B
  8
0
 10
193.5
 20
94.318720945199587
 30
0.0
 40
2.499999999995167
 50
85.082899664470943
 51
180.0
  0
ARC
  5
4C
  8
0
 10
189.80000000000089
 20
89.199999999999989
 30
0.0
 40
1.1999999999999991
 50
270.0
 51
359.99999999995572
  0
ARC
  5
4D
  8
0
 10
170.19999999999911
 20
89.199999999999989
 30
0.0
 40
1.1999999999999991
 50
180.00000000004431
 51
270.0
  0
ARC
  5
4E
  8
0
 10
166.49999999999989
 20
94.318720945199587
 30
0.0
 40
2.499999999995167
 50
0.0
 51
94.917100335529028
  0
LINE
  5
4F
  8
0
 10
168.99999999999909
 20
89.199999999999065
 30
0.0
 11
168.99999999999511
 21
94.318720945199587
 31
0.0
  0
LINE
  5
50
  8
0
 10
172.0
 20
70.5
 30
0.0
 11
172.0
 21
88.0
 31
0.0
  0
LINE
  5
51
  8
0
 10
172.0
 20
70.5
 30
0.0
 11
172.5
 21
70.0
 31
0.0
  0
ARC
  5
52
  8
0
 10
180.0
 20
-62.601641022269462
 30
0.0
 40
159.99999999999989
 50
94.917100335528687
 51
101.5747459047782
  0
LINE
  5
53
  8
1
 10
180.0
 20
119.0
 30
0.0
 11
180.0
 21
65.0
 31
0.0
  0
LINE
  5
54
  8
1
 10
135.49999999999969
 20
190.0
 30
0.0
 11
224.50000000000011
 21
190.0
 31
0.0
  0
LINE
  5
55
  8
1
 10
180.0
 20
206.0
 30
0.0
 11
180.0
 21
174.0
 31
0.0
  0
ARC
  5
56
  8
1
 10
180.0
 20
-36.000000000000043
 30
0.0
 40
140.0
 50
71.658370472996751
 51
108.34162952700321
  0
LINE
  5
57
  8
0
 10
282.0
 20
70.5
 30
0.0
 11
282.5
 21
70.0
 31
0.0
  0
LINE
  5
58
  8
0
 10
282.0
 20
70.5
 30
0.0
 11
282.0
 21
88.0
 31
0.0
  0
LINE
  5
59
  8
0
 10
278.99999999999909
 20
89.199999999999065
 30
0.0
 11
279.0
 21
103.9999999999999
 31
0.0
  0
ARC
  5
5A
  8
0
 10
280.19999999999908
 20
89.199999999999989
 30
0.0
 40
1.1999999999999991
 50
180.00000000004431
 51
270.0
  0
ARC
  5
5B
  8
0
 10
299.80000000000092
 20
89.199999999999989
 30
0.0
 40
1.1999999999999991
 50
270.0
 51
359.99999999995572
  0
LINE
  5
5C
  8
0
 10
301.00000000000091
 20
89.199999999999065
 30
0.0
 11
301.0
 21
103.9999999999999
 31
0.0
  0
LINE
  5
5D
  8
0
 10
299.80000000000092
 20
88.0
 30
0.0
 11
280.19999999999908
 21
88.0
 31
0.0
  0
LINE
  5
5E
  8
0
 10
298.0
 20
70.5
 30
0.0
 11
298.0
 21
88.0
 31
0.0
  0
LINE
  5
5F
  8
0
 10
282.5
 20
70.0
 30
0.0
 11
297.5
 21
70.0
 31
0.0
  0
LINE
  5
60
  8
0
 10
282.0
 20
70.5
 30
0.0
 11
282.5
 21
70.0
 31
0.0
  0
LINE
  5
61
  8
0
 10
298.0
 20
70.5
 30
0.0
 11
297.5
 21
70.0
 31
0.0
  0
LINE
  5
62
  8
1
 10
290.0
 20
119.0
 30
0.0
 11
290.0
 21
65.0
 31
0.0
  0
INSERT
  5
63
  8
0
  2
ELLIPSE
 10
278.99999999999937
 20
93.982952343768716
 30
0.0
 41
22.000000000001201
 42
20.01704765623138
 43
22.000000000001201
  0
LINE
  5
64
  8
2
 10
183.0
 20
95.0
 30
0.0
 11
183.0
 21
69.999999999999972
 31
0.0
  0
LINE
  5
65
  8
2
 10
183.0
 20
95.000000000000057
 30
0.0
 11
180.0
 21
96.802581857082757
 31
0.0
  0
LINE
  5
6B
  8
0
 10
172.0
 20
70.5
 30
0.0
 11
188.0
 21
70.5
 31
0.0
  0
LINE
  5
6C
  8
0
 10
282.0
 20
70.5
 30
0.0
 11
298.0
 21
70.5
 31
0.0
  0
LINE
  5
6D
  8
2
 10
293.0
 20
95.000000000000057
 30
0.0
 11
290.0
 21
96.802581857082757
 31
0.0
  0
LINE
  5
6E
  8
2
 10
293.0
 20
95.0
 30
0.0
 11
293.0
 21
69.999999999999972
 31
0.0
  0
LINE
  5
6F
  8
2
 10
287.0
 20
95.000000000000057
 30
0.0
 11
290.0
 21
96.802581857082757
 31
0.0
  0
LINE
  5
70
  8
2
 10
287.0
 20
95.000000000000028
 30
0.0
 11
293.0
 21
95.000000000000028
 31
0.0
  0
LINE
  5
71
  8
2
 10
287.0
 20
95.0
 30
0.0
 11
287.0
 21
69.999999999999972
 31
0.0
  0
LINE
  5
76
  8
2
 10
72.999999999999943
 20
95.0
 30
0.0
 11
72.999999999999943
 21
69.999999999999972
 31
0.0
  0
LINE
  5
77
  8
2
 10
72.999999999999943
 20
95.000000000000028
 30
0.0
 11
66.999999999999943
 21
95.000000000000028
 31
0.0
  0
LINE
  5
78
  8
2
 10
72.999999999999943
 20
95.000000000000057
 30
0.0
 11
69.999999999999943
 21
96.802581857082757
 31
0.0
  0
LINE
  5
79
  8
2
 10
66.999999999999943
 20
95.0
 30
0.0
 11
66.999999999999943
 21
69.999999999999972
 31
0.0
  0
LINE
  5
7A
  8
2
 10
66.999999999999943
 20
95.000000000000057
 30
0.0
 11
69.999999999999943
 21
96.802581857082757
 31
0.0
  0
LINE
  5
7B
  8
0
 10
77.999999999999943
 20
70.5
 30
0.0
 11
61.999999999999943
 21
70.5
 31
0.0
  0
INSERT
  5
7C
  8
0
  2
ELLIPSE
 10
81.000000000000512
 20
93.982952343768716
 30
0.0
 41
-22.000000000001201
 42
20.01704765623138
 43
22.000000000001201
  0
LINE
  5
7D
  8
1
 10
69.999999999999943
 20
119.0
 30
0.0
 11
69.999999999999943
 21
65.0
 31
0.0
  0
LINE
  5
7E
  8
0
 10
61.999999999999943
 20
70.5
 30
0.0
 11
62.499999999999943
 21
70.0
 31
0.0
  0
LINE
  5
7F
  8
0
 10
77.999999999999943
 20
70.5
 30
0.0
 11
77.499999999999943
 21
70.0
 31
0.0
  0
LINE
  5
80
  8
0
 10
77.499999999999943
 20
70.0
 30
0.0
 11
62.499999999999943
 21
70.0
 31
0.0
  0
LINE
  5
81
  8
0
 10
61.999999999999943
 20
70.5
 30
0.0
 11
61.999999999999943
 21
88.0
 31
0.0
  0
LINE
  5
82
  8
0
 10
60.199999999999022
 20
88.0
 30
0.0
 11
79.800000000000864
 21
88.0
 31
0.0
  0
LINE
  5
83
  8
0
 10
58.999999999999027
 20
89.199999999999065
 30
0.0
 11
58.99999999999995
 21
103.9999999999999
 31
0.0
  0
ARC
  5
84
  8
0
 10
60.199999999999022
 20
89.199999999999989
 30
0.0
 40
1.1999999999999991
 50
180.00000000004431
 51
270.00000000000011
  0
ARC
  5
85
  8
0
 10
79.800000000000864
 20
89.199999999999989
 30
0.0
 40
1.1999999999999991
 50
270.00000000000011
 51
359.99999999995572
  0
LINE
  5
86
  8
0
 10
81.000000000000838
 20
89.199999999999065
 30
0.0
 11
80.999999999999943
 21
103.9999999999999
 31
0.0
  0
LINE
  5
87
  8
0
 10
77.999999999999943
 20
70.5
 30
0.0
 11
77.999999999999943
 21
88.0
 31
0.0
  0
LINE
  5
88
  8
0
 10
77.999999999999943
 20
70.5
 30
0.0
 11
77.499999999999943
 21
70.0
 31
0.0
  0
TEXT
  5
20C
  8
0
 62
     3
 10
0.0
 20
0.0
 30
0.0
 40
10.0
  1
TH80
  7
STANDARD1
  0
ENDSEC
  0
EOF
