  0
SECTION
  2
HEADER
  9
$ACADVER
  1
AC1009
  9
$INSBASE
 10
0.0
 20
0.0
 30
0.0
  9
$EXTMIN
 10
0.0
 20
-1.4802182810368341
 30
0.0
  9
$EXTMAX
 10
85.999615011826066
 20
44.386439518020133
 30
0.0
  9
$LIMMIN
 10
0.0
 20
0.0
  9
$LIMMAX
 10
275.0
 20
175.0
  9
$ORTHOMODE
 70
     1
  9
$REGENMODE
 70
     1
  9
$FILLMODE
 70
     1
  9
$QTEXTMODE
 70
     0
  9
$MIRRTEXT
 70
     0
  9
$DRAGMODE
 70
     2
  9
$LTSCALE
 40
5.0
  9
$OSMODE
 70
    55
  9
$ATTMODE
 70
     1
  9
$TEXTSIZE
 40
0.2
  9
$TRACEWID
 40
0.05
  9
$TEXTSTYLE
  7
STANDARD
  9
$CLAYER
  8
0
  9
$CELTYPE
  6
BYLAYER
  9
$CECOLOR
 62
   256
  9
$DIMSCALE
 40
1.0
  9
$DIMASZ
 40
3.0
  9
$DIMEXO
 40
1.0
  9
$DIMDLI
 40
6.0
  9
$DIMRND
 40
0.0
  9
$DIMDLE
 40
0.0
  9
$DIMEXE
 40
1.0
  9
$DIMTP
 40
495.0
  9
$DIMTM
 40
0.0
  9
$DIMTXT
 40
3.0
  9
$DIMCEN
 40
0.0
  9
$DIMTSZ
 40
0.0
  9
$DIMTOL
 70
     0
  9
$DIMLIM
 70
     0
  9
$DIMTIH
 70
     0
  9
$DIMTOH
 70
     0
  9
$DIMSE1
 70
     0
  9
$DIMSE2
 70
     0
  9
$DIMTAD
 70
     1
  9
$DIMZIN
 70
     0
  9
$DIMBLK
  1

  9
$DIMASO
 70
     0
  9
$DIMSHO
 70
     0
  9
$DIMPOST
  1

  9
$DIMAPOST
  1

  9
$DIMALT
 70
     0
  9
$DIMALTD
 70
     2
  9
$DIMALTF
 40
25.399999999999999
  9
$DIMLFAC
 40
1.0
  9
$DIMTOFL
 70
     1
  9
$DIMTVP
 40
0.0
  9
$DIMTIX
 70
     1
  9
$DIMSOXD
 70
     0
  9
$DIMSAH
 70
     0
  9
$DIMBLK1
  1

  9
$DIMBLK2
  1

  9
$DIMSTYLE
  2
STANDARD
  9
$DIMCLRD
 70
     0
  9
$DIMCLRE
 70
     0
  9
$DIMCLRT
 70
     4
  9
$DIMTFAC
 40
1.0
  9
$DIMGAP
 40
1.0
  9
$LUNITS
 70
     2
  9
$LUPREC
 70
     4
  9
$SKETCHINC
 40
0.1
  9
$FILLETRAD
 40
0.0
  9
$AUNITS
 70
     0
  9
$AUPREC
 70
     0
  9
$MENU
  1
E:\r13\win\SUPPORT\ACAD
  9
$ELEVATION
 40
0.0
  9
$PELEVATION
 40
0.0
  9
$THICKNESS
 40
0.0
  9
$LIMCHECK
 70
     0
  9
$BLIPMODE
 70
     0
  9
$CHAMFERA
 40
0.0
  9
$CHAMFERB
 40
0.0
  9
$SKPOLY
 70
     0
  9
$TDCREATE
 40
2450653.5278402781
  9
$TDUPDATE
 40
2456598.438461354
  9
$TDINDWG
 40
0.0411690972
  9
$TDUSRTIMER
 40
0.0411690972
  9
$USRTIMER
 70
     1
  9
$ANGBASE
 50
0.0
  9
$ANGDIR
 70
     0
  9
$PDMODE
 70
     0
  9
$PDSIZE
 40
0.0
  9
$PLINEWID
 40
0.0
  9
$COORDS
 70
     1
  9
$SPLFRAME
 70
     0
  9
$SPLINETYPE
 70
     6
  9
$SPLINESEGS
 70
     8
  9
$ATTDIA
 70
     0
  9
$ATTREQ
 70
     1
  9
$HANDLING
 70
     1
  9
$HANDSEED
  5
2BC
  9
$SURFTAB1
 70
     6
  9
$SURFTAB2
 70
     6
  9
$SURFTYPE
 70
     6
  9
$SURFU
 70
     6
  9
$SURFV
 70
     6
  9
$UCSNAME
  2

  9
$UCSORG
 10
0.0
 20
0.0
 30
0.0
  9
$UCSXDIR
 10
1.0
 20
0.0
 30
0.0
  9
$UCSYDIR
 10
0.0
 20
1.0
 30
0.0
  9
$PUCSNAME
  2

  9
$PUCSORG
 10
0.0
 20
0.0
 30
0.0
  9
$PUCSXDIR
 10
1.0
 20
0.0
 30
0.0
  9
$PUCSYDIR
 10
0.0
 20
1.0
 30
0.0
  9
$USERI1
 70
     4
  9
$USERI2
 70
     1
  9
$USERI3
 70
     1
  9
$USERI4
 70
     0
  9
$USERI5
 70
     0
  9
$USERR1
 40
1.0
  9
$USERR2
 40
3.0
  9
$USERR3
 40
3.0
  9
$USERR4
 40
3.0
  9
$USERR5
 40
10.0
  9
$WORLDVIEW
 70
     1
  9
$SHADEDGE
 70
     3
  9
$SHADEDIF
 70
    70
  9
$TILEMODE
 70
     1
  9
$MAXACTVP
 70
    16
  9
$PLIMCHECK
 70
     0
  9
$PEXTMIN
 10
1.0000000000000000E+020
 20
1.0000000000000000E+020
 30
1.0000000000000000E+020
  9
$PEXTMAX
 10
-1.0000000000000000E+020
 20
-1.0000000000000000E+020
 30
-1.0000000000000000E+020
  9
$PLIMMIN
 10
0.0
 20
0.0
  9
$PLIMMAX
 10
12.0
 20
9.0
  9
$UNITMODE
 70
     0
  9
$VISRETAIN
 70
     0
  9
$PLINEGEN
 70
     0
  9
$PSLTSCALE
 70
     0
  0
ENDSEC
  0
SECTION
  2
TABLES
  0
TABLE
  2
VPORT
 70
     1
  0
VPORT
  2
*ACTIVE
 70
     0
 10
0.0
 20
0.0
 11
1.0
 21
1.0
 12
137.495804153145
 22
127.8359238249443
 13
0.0
 23
0.0
 14
5.0
 24
5.0
 15
10.0
 25
10.0
 16
0.0
 26
0.0
 36
1.0
 17
0.0
 27
0.0
 37
0.0
 40
260.92380389596133
 41
1.7807262569832401
 42
50.0
 43
0.0
 44
0.0
 50
0.0
 51
0.0
 71
     0
 72
   100
 73
     1
 74
     0
 75
     0
 76
     0
 77
     0
 78
     0
  0
ENDTAB
  0
TABLE
  2
LTYPE
 70
     3
  0
LTYPE
  2
CONTINUOUS
 70
     0
  3
Solid Line
 72
    65
 73
     0
 40
0.0
  0
LTYPE
  2
CENTER
 70
     0
  3
____ _ ____ _ ____ _ ____ _ ____ _ ____ _ ____
 72
    65
 73
     4
 40
2.0
 49
1.25
 49
-0.25
 49
0.25
 49
-0.25
  0
LTYPE
  2
PHANTOM2
 70
     0
  3
___ _ _ ___ _ _ ___ _ _ ___ _ _
 72
    65
 73
     6
 40
1.25
 49
0.625
 49
-0.125
 49
0.125
 49
-0.125
 49
0.125
 49
-0.125
  0
ENDTAB
  0
TABLE
  2
LAYER
 70
     3
  0
LAYER
  2
0
 70
     0
 62
     7
  6
CONTINUOUS
  0
LAYER
  2
1
 70
     0
 62
     1
  6
CENTER
  0
LAYER
  2
3
 70
     0
 62
     3
  6
CONTINUOUS
  0
ENDTAB
  0
TABLE
  2
STYLE
 70
     2
  0
STYLE
  2
STANDARD
 70
     0
 40
0.0
 41
1.0
 50
0.0
 71
     0
 42
0.2
  3
simplex
  4
bigfont
  0
STYLE
  2
STANDARD1
 70
     0
 40
0.0
 41
1.0
 50
0.0
 71
     0
 42
3.0
  3
txt
  4

  0
ENDTAB
  0
TABLE
  2
VIEW
 70
     0
  0
ENDTAB
  0
TABLE
  2
UCS
 70
     0
  0
ENDTAB
  0
TABLE
  2
APPID
 70
     3
  0
APPID
  2
ACAD
 70
     0
  0
APPID
  2
ACAD_MLEADERVER
 70
     0
  0
APPID
  2
ACAD_NAV_VCDISPLAY
 70
     0
  0
ENDTAB
  0
TABLE
  2
DIMSTYLE
 70
     1
  0
DIMSTYLE
  2
STANDARD
 70
     0
  3

  4

  5

  6

  7

 40
1.0
 41
0.18
 42
0.0625
 43
0.38
 44
0.18
 45
0.0
 46
0.0
 47
0.0
 48
0.0
140
0.18
141
0.09
142
0.0
143
25.399999999999999
144
1.0
145
0.0
146
1.0
147
0.09
 71
     0
 72
     0
 73
     1
 74
     1
 75
     0
 76
     0
 77
     0
 78
     0
170
     0
171
     2
172
     0
173
     0
174
     0
175
     0
176
     0
177
     0
178
     0
  0
ENDTAB
  0
ENDSEC
  0
SECTION
  2
BLOCKS
  0
BLOCK
  8
0
  2
$MODEL_SPACE
 70
     0
 10
0.0
 20
0.0
 30
0.0
  3
$MODEL_SPACE
  1

  0
ENDBLK
  5
7
  8
0
  0
BLOCK
 67
     1
  8
0
  2
$PAPER_SPACE
 70
     0
 10
0.0
 20
0.0
 30
0.0
  3
$PAPER_SPACE
  1

  0
ENDBLK
  5
A
 67
     1
  8
0
  0
ENDSEC
  0
SECTION
  2
ENTITIES
  0
CIRCLE
  5
11D
  8
0
 10
17.499615011826108
 20
35.636439518020133
 30
0.0
 40
6.25
  0
LINE
  5
11E
  8
1
 10
17.499615011826108
 20
44.386439518020133
 30
0.0
 11
17.499615011826108
 21
26.886439518020129
 31
0.0
  0
LINE
  5
11F
  8
0
 10
44.299615011825964
 20
39.9580749573731
 30
0.0
 11
44.299615011826333
 21
31.49807495737312
 31
0.0
  0
LINE
  5
120
  8
0
 10
52.499615011826087
 20
40.228074957372989
 30
0.0
 11
52.499615011826087
 21
31.22807495737317
 31
0.0
  0
LINE
  5
121
  8
0
 10
50.999615011826108
 20
41.728074957373018
 30
0.0
 11
50.999615011826108
 21
29.72807495737317
 31
0.0
  0
LINE
  5
122
  8
0
 10
42.499615011826087
 20
29.478074957373131
 30
0.0
 11
42.499615011826101
 21
41.978074957373103
 31
0.0
  0
LINE
  5
123
  8
0
 10
46.899615011826107
 20
41.728074957373053
 30
0.0
 11
46.89961501182605
 21
30.028074957373121
 31
0.0
  0
LINE
  5
124
  8
0
 10
16.899615011826111
 20
30.763042345615698
 30
0.0
 11
16.899615011826079
 21
40.509836690424578
 31
0.0
  0
LINE
  5
125
  8
0
 10
18.099615011826131
 20
30.76304234561567
 30
0.0
 11
18.099615011826099
 21
40.509836690424599
 31
0.0
  0
LINE
  5
126
  8
1
 10
26.249615011826108
 20
35.636439518020133
 30
0.0
 11
8.7496150118261085
 21
35.636439518020133
 31
0.0
  0
LINE
  5
127
  8
0
 10
18.099615011826131
 20
30.76304234561567
 30
0.0
 11
16.899615011826111
 21
30.763042345615698
 31
0.0
  0
LINE
  5
129
  8
3
 10
51.94661501182604
 20
30.67507495737317
 30
0.0
 11
46.89961501182605
 21
30.67507495737312
 31
0.0
  0
LINE
  5
12A
  8
0
 10
46.899615011826107
 20
29.72807495737317
 30
0.0
 11
50.999615011826108
 21
29.72807495737317
 31
0.0
  0
LINE
  5
12B
  8
0
 10
44.630985861724803
 20
31.028074957373121
 30
0.0
 11
46.499615011826819
 21
31.028074957373121
 31
0.0
  0
LINE
  5
12C
  8
0
 10
42.749615011826151
 20
29.478074957373131
 30
0.0
 11
42.499615011826101
 21
29.478074957373138
 31
0.0
  0
ARC
  5
12D
  8
0
 10
44.630985861724838
 20
30.22807495737311
 30
0.0
 40
0.8
 50
90.0
 51
134.99999999999591
  0
LINE
  5
12E
  8
0
 10
44.065300436775537
 20
30.7937603823224
 30
0.0
 11
42.749615011826151
 21
29.478074957373131
 31
0.0
  0
ARC
  5
12F
  8
0
 10
46.49961501182684
 20
30.628074957373119
 30
0.0
 40
0.4
 50
0.0
 51
90.0
  0
LINE
  5
130
  8
0
 10
46.899615011826107
 20
30.028074957373121
 30
0.0
 11
46.899615011826107
 21
29.72807495737317
 31
0.0
  0
LINE
  5
131
  8
0
 10
50.999615011826108
 20
29.72807495737317
 30
0.0
 11
52.499615011826087
 21
31.22807495737317
 31
0.0
  0
LINE
  5
132
  8
0
 10
18.099615011826099
 20
40.509836690424599
 30
0.0
 11
16.899615011826079
 21
40.509836690424578
 31
0.0
  0
LINE
  5
133
  8
1
 10
54.999615011826087
 20
35.72807495737311
 30
0.0
 11
39.999615011826087
 21
35.72807495737311
 31
0.0
  0
LINE
  5
134
  8
3
 10
51.946615011825983
 20
40.7810749573731
 30
0.0
 11
46.899615011826107
 21
40.7810749573731
 31
0.0
  0
LINE
  5
135
  8
0
 10
46.899615011826107
 20
41.728074957373053
 30
0.0
 11
50.999615011826108
 21
41.728074957373018
 31
0.0
  0
LINE
  5
136
  8
0
 10
44.630985861724803
 20
40.428074957373092
 30
0.0
 11
46.499615011826819
 21
40.428074957373092
 31
0.0
  0
LINE
  5
137
  8
0
 10
42.749615011826108
 20
41.978074957373117
 30
0.0
 11
42.499615011826101
 21
41.978074957373103
 31
0.0
  0
LINE
  5
138
  8
0
 10
44.065300436775537
 20
40.662389532423838
 30
0.0
 11
42.749615011826108
 21
41.978074957373117
 31
0.0
  0
ARC
  5
139
  8
0
 10
44.630985861724838
 20
41.22807495737311
 30
0.0
 40
0.8
 50
225.00000000000401
 51
270.0
  0
ARC
  5
13A
  8
0
 10
46.49961501182684
 20
40.828074957373133
 30
0.0
 40
0.4
 50
270.0
 51
0.0
  0
LINE
  5
13B
  8
0
 10
46.899615011826107
 20
41.428074957373099
 30
0.0
 11
46.899615011826107
 21
41.728074957373053
 31
0.0
  0
LINE
  5
13C
  8
0
 10
50.999615011826108
 20
41.728074957373053
 30
0.0
 11
52.499615011826087
 21
40.228074957372989
 31
0.0
  0
CIRCLE
  5
13D
  8
0
 10
77.499615011826151
 20
35.72807495737311
 30
0.0
 40
5.9999999999999138
  0
LINE
  5
13E
  8
1
 10
85.999615011826066
 20
35.72807495737311
 30
0.0
 11
68.999615011826236
 21
35.72807495737311
 31
0.0
  0
CIRCLE
  5
13F
  8
3
 10
77.499615011826151
 20
35.72807495737311
 30
0.0
 40
5.0529999999999973
  0
CIRCLE
  5
140
  8
0
 10
77.499615011826151
 20
35.72807495737311
 30
0.0
 40
4.4999999999999432
  0
LINE
  5
141
  8
1
 10
77.49961501182608
 20
44.228074957373018
 30
0.0
 11
77.499615011826094
 21
27.228074957373199
 31
0.0
  0
TEXT
  5
228
  8
0
 62
     3
 10
0.0
 20
0.0
 30
0.0
 40
5.0
  1
THP12
  7
STANDARD1
  0
ENDSEC
  0
EOF
