  0
SECTION
  2
HEADER
  9
$ACADVER
  1
AC1009
  9
$INSBASE
 10
0.0
 20
0.0
 30
0.0
  9
$EXTMIN
 10
0.0
 20
-1.4802182810368341
 30
0.0
  9
$EXTMAX
 10
153.49056126624421
 20
82.416198208729739
 30
0.0
  9
$LIMMIN
 10
0.0
 20
0.0
  9
$LIMMAX
 10
275.0
 20
175.0
  9
$ORTHOMODE
 70
     0
  9
$REGENMODE
 70
     1
  9
$FILLMODE
 70
     1
  9
$QTEXTMODE
 70
     0
  9
$MIRRTEXT
 70
     0
  9
$DRAGMODE
 70
     2
  9
$LTSCALE
 40
5.0
  9
$OSMODE
 70
    55
  9
$ATTMODE
 70
     1
  9
$TEXTSIZE
 40
0.2
  9
$TRACEWID
 40
0.05
  9
$TEXTSTYLE
  7
STANDARD
  9
$CLAYER
  8
0
  9
$CELTYPE
  6
BYLAYER
  9
$CECOLOR
 62
   256
  9
$DIMSCALE
 40
1.0
  9
$DIMASZ
 40
3.0
  9
$DIMEXO
 40
1.0
  9
$DIMDLI
 40
6.0
  9
$DIMRND
 40
0.0
  9
$DIMDLE
 40
0.0
  9
$DIMEXE
 40
1.0
  9
$DIMTP
 40
495.0
  9
$DIMTM
 40
0.0
  9
$DIMTXT
 40
3.0
  9
$DIMCEN
 40
0.0
  9
$DIMTSZ
 40
0.0
  9
$DIMTOL
 70
     0
  9
$DIMLIM
 70
     0
  9
$DIMTIH
 70
     0
  9
$DIMTOH
 70
     0
  9
$DIMSE1
 70
     0
  9
$DIMSE2
 70
     0
  9
$DIMTAD
 70
     1
  9
$DIMZIN
 70
     0
  9
$DIMBLK
  1

  9
$DIMASO
 70
     0
  9
$DIMSHO
 70
     0
  9
$DIMPOST
  1

  9
$DIMAPOST
  1

  9
$DIMALT
 70
     0
  9
$DIMALTD
 70
     2
  9
$DIMALTF
 40
25.399999999999999
  9
$DIMLFAC
 40
1.0
  9
$DIMTOFL
 70
     1
  9
$DIMTVP
 40
0.0
  9
$DIMTIX
 70
     1
  9
$DIMSOXD
 70
     0
  9
$DIMSAH
 70
     0
  9
$DIMBLK1
  1

  9
$DIMBLK2
  1

  9
$DIMSTYLE
  2
STANDARD
  9
$DIMCLRD
 70
     0
  9
$DIMCLRE
 70
     0
  9
$DIMCLRT
 70
     4
  9
$DIMTFAC
 40
1.0
  9
$DIMGAP
 40
1.0
  9
$LUNITS
 70
     2
  9
$LUPREC
 70
     4
  9
$SKETCHINC
 40
0.1
  9
$FILLETRAD
 40
0.0
  9
$AUNITS
 70
     0
  9
$AUPREC
 70
     0
  9
$MENU
  1
E:\r13\win\SUPPORT\ACAD
  9
$ELEVATION
 40
0.0
  9
$PELEVATION
 40
0.0
  9
$THICKNESS
 40
0.0
  9
$LIMCHECK
 70
     0
  9
$BLIPMODE
 70
     0
  9
$CHAMFERA
 40
0.0
  9
$CHAMFERB
 40
0.0
  9
$SKPOLY
 70
     0
  9
$TDCREATE
 40
2450653.5278402781
  9
$TDUPDATE
 40
2456598.438514085
  9
$TDINDWG
 40
0.044104537
  9
$TDUSRTIMER
 40
0.044104537
  9
$USRTIMER
 70
     1
  9
$ANGBASE
 50
0.0
  9
$ANGDIR
 70
     0
  9
$PDMODE
 70
     0
  9
$PDSIZE
 40
0.0
  9
$PLINEWID
 40
0.0
  9
$COORDS
 70
     1
  9
$SPLFRAME
 70
     0
  9
$SPLINETYPE
 70
     6
  9
$SPLINESEGS
 70
     8
  9
$ATTDIA
 70
     0
  9
$ATTREQ
 70
     1
  9
$HANDLING
 70
     1
  9
$HANDSEED
  5
319
  9
$SURFTAB1
 70
     6
  9
$SURFTAB2
 70
     6
  9
$SURFTYPE
 70
     6
  9
$SURFU
 70
     6
  9
$SURFV
 70
     6
  9
$UCSNAME
  2

  9
$UCSORG
 10
0.0
 20
0.0
 30
0.0
  9
$UCSXDIR
 10
1.0
 20
0.0
 30
0.0
  9
$UCSYDIR
 10
0.0
 20
1.0
 30
0.0
  9
$PUCSNAME
  2

  9
$PUCSORG
 10
0.0
 20
0.0
 30
0.0
  9
$PUCSXDIR
 10
1.0
 20
0.0
 30
0.0
  9
$PUCSYDIR
 10
0.0
 20
1.0
 30
0.0
  9
$USERI1
 70
     4
  9
$USERI2
 70
     1
  9
$USERI3
 70
     1
  9
$USERI4
 70
     0
  9
$USERI5
 70
     0
  9
$USERR1
 40
1.0
  9
$USERR2
 40
3.0
  9
$USERR3
 40
3.0
  9
$USERR4
 40
3.0
  9
$USERR5
 40
10.0
  9
$WORLDVIEW
 70
     1
  9
$SHADEDGE
 70
     3
  9
$SHADEDIF
 70
    70
  9
$TILEMODE
 70
     1
  9
$MAXACTVP
 70
    16
  9
$PLIMCHECK
 70
     0
  9
$PEXTMIN
 10
1.0000000000000000E+020
 20
1.0000000000000000E+020
 30
1.0000000000000000E+020
  9
$PEXTMAX
 10
-1.0000000000000000E+020
 20
-1.0000000000000000E+020
 30
-1.0000000000000000E+020
  9
$PLIMMIN
 10
0.0
 20
0.0
  9
$PLIMMAX
 10
12.0
 20
9.0
  9
$UNITMODE
 70
     0
  9
$VISRETAIN
 70
     0
  9
$PLINEGEN
 70
     0
  9
$PSLTSCALE
 70
     0
  0
ENDSEC
  0
SECTION
  2
TABLES
  0
TABLE
  2
VPORT
 70
     1
  0
VPORT
  2
*ACTIVE
 70
     0
 10
0.0
 20
0.0
 11
1.0
 21
1.0
 12
137.495804153145
 22
127.8359238249443
 13
0.0
 23
0.0
 14
5.0
 24
5.0
 15
10.0
 25
10.0
 16
0.0
 26
0.0
 36
1.0
 17
0.0
 27
0.0
 37
0.0
 40
260.92380389596133
 41
1.7807262569832401
 42
50.0
 43
0.0
 44
0.0
 50
0.0
 51
0.0
 71
     0
 72
   100
 73
     1
 74
     0
 75
     0
 76
     0
 77
     0
 78
     0
  0
ENDTAB
  0
TABLE
  2
LTYPE
 70
     3
  0
LTYPE
  2
CONTINUOUS
 70
     0
  3
Solid Line
 72
    65
 73
     0
 40
0.0
  0
LTYPE
  2
CENTER
 70
     0
  3
____ _ ____ _ ____ _ ____ _ ____ _ ____ _ ____
 72
    65
 73
     4
 40
2.0
 49
1.25
 49
-0.25
 49
0.25
 49
-0.25
  0
LTYPE
  2
PHANTOM2
 70
     0
  3
___ _ _ ___ _ _ ___ _ _ ___ _ _
 72
    65
 73
     6
 40
1.25
 49
0.625
 49
-0.125
 49
0.125
 49
-0.125
 49
0.125
 49
-0.125
  0
ENDTAB
  0
TABLE
  2
LAYER
 70
     3
  0
LAYER
  2
0
 70
     0
 62
     7
  6
CONTINUOUS
  0
LAYER
  2
1
 70
     0
 62
     1
  6
CENTER
  0
LAYER
  2
3
 70
     0
 62
     3
  6
CONTINUOUS
  0
ENDTAB
  0
TABLE
  2
STYLE
 70
     2
  0
STYLE
  2
STANDARD
 70
     0
 40
0.0
 41
1.0
 50
0.0
 71
     0
 42
0.2
  3
simplex
  4
bigfont
  0
STYLE
  2
STANDARD1
 70
     0
 40
0.0
 41
1.0
 50
0.0
 71
     0
 42
3.0
  3
txt
  4

  0
ENDTAB
  0
TABLE
  2
VIEW
 70
     0
  0
ENDTAB
  0
TABLE
  2
UCS
 70
     0
  0
ENDTAB
  0
TABLE
  2
APPID
 70
     3
  0
APPID
  2
ACAD
 70
     0
  0
APPID
  2
ACAD_MLEADERVER
 70
     0
  0
APPID
  2
ACAD_NAV_VCDISPLAY
 70
     0
  0
ENDTAB
  0
TABLE
  2
DIMSTYLE
 70
     1
  0
DIMSTYLE
  2
STANDARD
 70
     0
  3

  4

  5

  6

  7

 40
1.0
 41
0.18
 42
0.0625
 43
0.38
 44
0.18
 45
0.0
 46
0.0
 47
0.0
 48
0.0
140
0.18
141
0.09
142
0.0
143
25.399999999999999
144
1.0
145
0.0
146
1.0
147
0.09
 71
     0
 72
     0
 73
     1
 74
     1
 75
     0
 76
     0
 77
     0
 78
     0
170
     0
171
     2
172
     0
173
     0
174
     0
175
     0
176
     0
177
     0
178
     0
  0
ENDTAB
  0
ENDSEC
  0
SECTION
  2
BLOCKS
  0
BLOCK
  8
0
  2
$MODEL_SPACE
 70
     0
 10
0.0
 20
0.0
 30
0.0
  3
$MODEL_SPACE
  1

  0
ENDBLK
  5
7
  8
0
  0
BLOCK
 67
     1
  8
0
  2
$PAPER_SPACE
 70
     0
 10
0.0
 20
0.0
 30
0.0
  3
$PAPER_SPACE
  1

  0
ENDBLK
  5
A
 67
     1
  8
0
  0
ENDSEC
  0
SECTION
  2
ENTITIES
  0
CIRCLE
  5
179
  8
0
 10
50.490561266244207
 20
71.166198208729739
 30
0.0
 40
8.25
  0
LINE
  5
17A
  8
1
 10
50.490561266244207
 20
82.416198208729739
 30
0.0
 11
50.490561266244207
 21
59.916198208729739
 31
0.0
  0
LINE
  5
17B
  8
0
 10
49.590561266244208
 20
64.024769780186887
 30
0.0
 11
49.590561266244208
 21
78.307626637272577
 31
0.0
  0
LINE
  5
17C
  8
0
 10
51.390561266244219
 20
64.024769780186915
 30
0.0
 11
51.390561266244191
 21
78.307626637272577
 31
0.0
  0
LINE
  5
17D
  8
0
 10
92.490561266244256
 20
65.407833648082615
 30
0.0
 11
92.4905612662442
 21
77.107833648082604
 31
0.0
  0
LINE
  5
17E
  8
0
 10
102.4905612662442
 20
77.257833648082567
 30
0.0
 11
102.4905612662442
 21
65.257833648082624
 31
0.0
  0
LINE
  5
17F
  8
0
 10
90.490561266244185
 20
79.507833648082624
 30
0.0
 11
90.490561266244242
 21
63.007833648082617
 31
0.0
  0
LINE
  5
180
  8
0
 10
100.4905612662442
 20
63.257833648082631
 30
0.0
 11
100.4905612662442
 21
79.257833648082624
 31
0.0
  0
LINE
  5
181
  8
0
 10
95.990561266244214
 20
79.257833648082624
 30
0.0
 11
95.990561266244214
 21
63.257833648082631
 31
0.0
  0
LINE
  5
183
  8
1
 10
61.740561266244207
 20
71.166198208729739
 30
0.0
 11
39.240561266244207
 21
71.166198208729739
 31
0.0
  0
LINE
  5
184
  8
0
 10
51.390561266244191
 20
64.024769780186915
 30
0.0
 11
49.590561266244208
 21
64.024769780186887
 31
0.0
  0
LINE
  5
185
  8
3
 10
101.5730612662442
 20
64.340333648082606
 30
0.0
 11
95.990561266244214
 21
64.340333648082606
 31
0.0
  0
LINE
  5
186
  8
0
 10
100.4905612662442
 20
63.257833648082631
 30
0.0
 11
95.990561266244214
 21
63.257833648082631
 31
0.0
  0
LINE
  5
187
  8
0
 10
92.25624669119351
 20
64.523519073031878
 30
0.0
 11
90.740561266244256
 21
63.007833648082617
 31
0.0
  0
LINE
  5
188
  8
0
 10
90.740561266244256
 20
63.007833648082617
 30
0.0
 11
90.490561266244242
 21
63.007833648082617
 31
0.0
  0
LINE
  5
189
  8
0
 10
95.190561266244245
 20
64.757833648082624
 30
0.0
 11
92.821932116142719
 21
64.757833648082624
 31
0.0
  0
ARC
  5
18A
  8
0
 10
92.821932116142719
 20
63.957833648082612
 30
0.0
 40
0.8
 50
90.0
 51
135.0
  0
ARC
  5
18B
  8
0
 10
95.190561266244245
 20
63.957833648082612
 30
0.0
 40
0.8
 50
0.0
 51
90.0
  0
LINE
  5
18C
  8
0
 10
102.4905612662442
 20
65.257833648082624
 30
0.0
 11
100.4905612662442
 21
63.257833648082631
 31
0.0
  0
LINE
  5
18D
  8
0
 10
51.390561266244191
 20
78.307626637272577
 30
0.0
 11
49.590561266244208
 21
78.307626637272577
 31
0.0
  0
LINE
  5
18E
  8
1
 10
105.1964978055321
 20
71.257833648082624
 30
0.0
 11
87.490561266244214
 21
71.257833648082624
 31
0.0
  0
LINE
  5
18F
  8
3
 10
101.5730612662442
 20
78.175333648082642
 30
0.0
 11
95.990561266244214
 21
78.175333648082642
 31
0.0
  0
LINE
  5
190
  8
0
 10
100.4905612662442
 20
79.257833648082624
 30
0.0
 11
95.990561266244214
 21
79.257833648082624
 31
0.0
  0
LINE
  5
191
  8
0
 10
92.256246691193454
 20
77.99214822313337
 30
0.0
 11
90.740561266244185
 21
79.507833648082624
 31
0.0
  0
LINE
  5
192
  8
0
 10
95.190561266244245
 20
77.757833648082624
 30
0.0
 11
92.821932116142719
 21
77.757833648082624
 31
0.0
  0
ARC
  5
193
  8
0
 10
92.821932116142662
 20
78.557833648082635
 30
0.0
 40
0.8
 50
224.9999999999994
 51
270.0
  0
ARC
  5
194
  8
0
 10
95.190561266244245
 20
78.557833648082635
 30
0.0
 40
0.8
 50
270.0
 51
0.0
  0
LINE
  5
195
  8
0
 10
90.740561266244185
 20
79.507833648082624
 30
0.0
 11
90.490561266244185
 21
79.507833648082624
 31
0.0
  0
LINE
  5
196
  8
0
 10
100.4905612662442
 20
79.257833648082624
 30
0.0
 11
102.4905612662442
 21
77.257833648082624
 31
0.0
  0
CIRCLE
  5
197
  8
3
 10
142.49056126624421
 20
71.257833648082624
 30
0.0
 40
6.9175000000000031
  0
CIRCLE
  5
198
  8
0
 10
142.49056126624421
 20
71.257833648082624
 30
0.0
 40
8.0
  0
CIRCLE
  5
199
  8
0
 10
142.49056126624421
 20
71.257833648082624
 30
0.0
 40
6.0
  0
LINE
  5
19A
  8
1
 10
142.49056126624421
 20
82.257833648082595
 30
0.0
 11
142.49056126624421
 21
60.257833648082617
 31
0.0
  0
LINE
  5
19B
  8
1
 10
153.49056126624421
 20
71.257833648082624
 30
0.0
 11
131.49056126624421
 21
71.257833648082624
 31
0.0
  0
TEXT
  5
285
  8
0
 62
     3
 10
0.0
 20
0.0
 30
0.0
 40
5.0
  1
THP16
  7
STANDARD1
  0
ENDSEC
  0
EOF
