  0
SECTION
  2
HEADER
  9
$ACADVER
  1
AC1009
  9
$INSBASE
 10
0.0
 20
0.0
 30
0.0
  9
$EXTMIN
 10
0.0
 20
-1.4802182810368341
 30
0.0
  9
$EXTMAX
 10
77.36802081812823
 20
43.627838784427411
 30
0.0
  9
$LIMMIN
 10
0.0
 20
0.0
  9
$LIMMAX
 10
275.0
 20
175.0
  9
$ORTHOMODE
 70
     0
  9
$REGENMODE
 70
     1
  9
$FILLMODE
 70
     1
  9
$QTEXTMODE
 70
     0
  9
$MIRRTEXT
 70
     0
  9
$DRAGMODE
 70
     2
  9
$LTSCALE
 40
5.0
  9
$OSMODE
 70
    55
  9
$ATTMODE
 70
     1
  9
$TEXTSIZE
 40
0.2
  9
$TRACEWID
 40
0.05
  9
$TEXTSTYLE
  7
STANDARD
  9
$CLAYER
  8
0
  9
$CELTYPE
  6
BYLAYER
  9
$CECOLOR
 62
   256
  9
$DIMSCALE
 40
1.0
  9
$DIMASZ
 40
3.0
  9
$DIMEXO
 40
1.0
  9
$DIMDLI
 40
6.0
  9
$DIMRND
 40
0.0
  9
$DIMDLE
 40
0.0
  9
$DIMEXE
 40
1.0
  9
$DIMTP
 40
495.0
  9
$DIMTM
 40
0.0
  9
$DIMTXT
 40
3.0
  9
$DIMCEN
 40
0.0
  9
$DIMTSZ
 40
0.0
  9
$DIMTOL
 70
     0
  9
$DIMLIM
 70
     0
  9
$DIMTIH
 70
     0
  9
$DIMTOH
 70
     0
  9
$DIMSE1
 70
     0
  9
$DIMSE2
 70
     0
  9
$DIMTAD
 70
     1
  9
$DIMZIN
 70
     0
  9
$DIMBLK
  1

  9
$DIMASO
 70
     0
  9
$DIMSHO
 70
     0
  9
$DIMPOST
  1

  9
$DIMAPOST
  1

  9
$DIMALT
 70
     0
  9
$DIMALTD
 70
     2
  9
$DIMALTF
 40
25.399999999999999
  9
$DIMLFAC
 40
1.0
  9
$DIMTOFL
 70
     1
  9
$DIMTVP
 40
0.0
  9
$DIMTIX
 70
     1
  9
$DIMSOXD
 70
     0
  9
$DIMSAH
 70
     0
  9
$DIMBLK1
  1

  9
$DIMBLK2
  1

  9
$DIMSTYLE
  2
STANDARD
  9
$DIMCLRD
 70
     0
  9
$DIMCLRE
 70
     0
  9
$DIMCLRT
 70
     4
  9
$DIMTFAC
 40
1.0
  9
$DIMGAP
 40
1.0
  9
$LUNITS
 70
     2
  9
$LUPREC
 70
     4
  9
$SKETCHINC
 40
0.1
  9
$FILLETRAD
 40
0.0
  9
$AUNITS
 70
     0
  9
$AUPREC
 70
     0
  9
$MENU
  1
E:\r13\win\SUPPORT\ACAD
  9
$ELEVATION
 40
0.0
  9
$PELEVATION
 40
0.0
  9
$THICKNESS
 40
0.0
  9
$LIMCHECK
 70
     0
  9
$BLIPMODE
 70
     0
  9
$CHAMFERA
 40
0.0
  9
$CHAMFERB
 40
0.0
  9
$SKPOLY
 70
     0
  9
$TDCREATE
 40
2450653.5278402781
  9
$TDUPDATE
 40
2456598.4385861228
  9
$TDINDWG
 40
0.036808044
  9
$TDUSRTIMER
 40
0.036808044
  9
$USRTIMER
 70
     1
  9
$ANGBASE
 50
0.0
  9
$ANGDIR
 70
     0
  9
$PDMODE
 70
     0
  9
$PDSIZE
 40
0.0
  9
$PLINEWID
 40
0.0
  9
$COORDS
 70
     1
  9
$SPLFRAME
 70
     0
  9
$SPLINETYPE
 70
     6
  9
$SPLINESEGS
 70
     8
  9
$ATTDIA
 70
     0
  9
$ATTREQ
 70
     1
  9
$HANDLING
 70
     1
  9
$HANDSEED
  5
23F
  9
$SURFTAB1
 70
     6
  9
$SURFTAB2
 70
     6
  9
$SURFTYPE
 70
     6
  9
$SURFU
 70
     6
  9
$SURFV
 70
     6
  9
$UCSNAME
  2

  9
$UCSORG
 10
0.0
 20
0.0
 30
0.0
  9
$UCSXDIR
 10
1.0
 20
0.0
 30
0.0
  9
$UCSYDIR
 10
0.0
 20
1.0
 30
0.0
  9
$PUCSNAME
  2

  9
$PUCSORG
 10
0.0
 20
0.0
 30
0.0
  9
$PUCSXDIR
 10
1.0
 20
0.0
 30
0.0
  9
$PUCSYDIR
 10
0.0
 20
1.0
 30
0.0
  9
$USERI1
 70
     4
  9
$USERI2
 70
     1
  9
$USERI3
 70
     1
  9
$USERI4
 70
     0
  9
$USERI5
 70
     0
  9
$USERR1
 40
1.0
  9
$USERR2
 40
3.0
  9
$USERR3
 40
3.0
  9
$USERR4
 40
3.0
  9
$USERR5
 40
10.0
  9
$WORLDVIEW
 70
     1
  9
$SHADEDGE
 70
     3
  9
$SHADEDIF
 70
    70
  9
$TILEMODE
 70
     1
  9
$MAXACTVP
 70
    16
  9
$PLIMCHECK
 70
     0
  9
$PEXTMIN
 10
1.0000000000000000E+020
 20
1.0000000000000000E+020
 30
1.0000000000000000E+020
  9
$PEXTMAX
 10
-1.0000000000000000E+020
 20
-1.0000000000000000E+020
 30
-1.0000000000000000E+020
  9
$PLIMMIN
 10
0.0
 20
0.0
  9
$PLIMMAX
 10
12.0
 20
9.0
  9
$UNITMODE
 70
     0
  9
$VISRETAIN
 70
     0
  9
$PLINEGEN
 70
     0
  9
$PSLTSCALE
 70
     0
  0
ENDSEC
  0
SECTION
  2
TABLES
  0
TABLE
  2
VPORT
 70
     1
  0
VPORT
  2
*ACTIVE
 70
     0
 10
0.0
 20
0.0
 11
1.0
 21
1.0
 12
137.495804153145
 22
127.8359238249443
 13
0.0
 23
0.0
 14
5.0
 24
5.0
 15
10.0
 25
10.0
 16
0.0
 26
0.0
 36
1.0
 17
0.0
 27
0.0
 37
0.0
 40
260.92380389596133
 41
1.7807262569832401
 42
50.0
 43
0.0
 44
0.0
 50
0.0
 51
0.0
 71
     0
 72
   100
 73
     1
 74
     0
 75
     0
 76
     0
 77
     0
 78
     0
  0
ENDTAB
  0
TABLE
  2
LTYPE
 70
     3
  0
LTYPE
  2
CONTINUOUS
 70
     0
  3
Solid Line
 72
    65
 73
     0
 40
0.0
  0
LTYPE
  2
CENTER
 70
     0
  3
____ _ ____ _ ____ _ ____ _ ____ _ ____ _ ____
 72
    65
 73
     4
 40
2.0
 49
1.25
 49
-0.25
 49
0.25
 49
-0.25
  0
LTYPE
  2
PHANTOM2
 70
     0
  3
___ _ _ ___ _ _ ___ _ _ ___ _ _
 72
    65
 73
     6
 40
1.25
 49
0.625
 49
-0.125
 49
0.125
 49
-0.125
 49
0.125
 49
-0.125
  0
ENDTAB
  0
TABLE
  2
LAYER
 70
     3
  0
LAYER
  2
0
 70
     0
 62
     7
  6
CONTINUOUS
  0
LAYER
  2
1
 70
     0
 62
     1
  6
CENTER
  0
LAYER
  2
3
 70
     0
 62
     3
  6
CONTINUOUS
  0
ENDTAB
  0
TABLE
  2
STYLE
 70
     2
  0
STYLE
  2
STANDARD
 70
     0
 40
0.0
 41
1.0
 50
0.0
 71
     0
 42
0.2
  3
simplex
  4
bigfont
  0
STYLE
  2
STANDARD1
 70
     0
 40
0.0
 41
1.0
 50
0.0
 71
     0
 42
3.0
  3
txt
  4

  0
ENDTAB
  0
TABLE
  2
VIEW
 70
     0
  0
ENDTAB
  0
TABLE
  2
UCS
 70
     0
  0
ENDTAB
  0
TABLE
  2
APPID
 70
     3
  0
APPID
  2
ACAD
 70
     0
  0
APPID
  2
ACAD_MLEADERVER
 70
     0
  0
APPID
  2
ACAD_NAV_VCDISPLAY
 70
     0
  0
ENDTAB
  0
TABLE
  2
DIMSTYLE
 70
     1
  0
DIMSTYLE
  2
STANDARD
 70
     0
  3

  4

  5

  6

  7

 40
1.0
 41
0.18
 42
0.0625
 43
0.38
 44
0.18
 45
0.0
 46
0.0
 47
0.0
 48
0.0
140
0.18
141
0.09
142
0.0
143
25.399999999999999
144
1.0
145
0.0
146
1.0
147
0.09
 71
     0
 72
     0
 73
     1
 74
     1
 75
     0
 76
     0
 77
     0
 78
     0
170
     0
171
     2
172
     0
173
     0
174
     0
175
     0
176
     0
177
     0
178
     0
  0
ENDTAB
  0
ENDSEC
  0
SECTION
  2
BLOCKS
  0
BLOCK
  8
0
  2
$MODEL_SPACE
 70
     0
 10
0.0
 20
0.0
 30
0.0
  3
$MODEL_SPACE
  1

  0
ENDBLK
  5
7
  8
0
  0
BLOCK
 67
     1
  8
0
  2
$PAPER_SPACE
 70
     0
 10
0.0
 20
0.0
 30
0.0
  3
$PAPER_SPACE
  1

  0
ENDBLK
  5
A
 67
     1
  8
0
  0
ENDSEC
  0
SECTION
  2
ENTITIES
  0
LINE
  5
98
  8
1
 10
53.36802081812823
 20
36.877838784427418
 30
0.0
 11
42.368020818128841
 21
36.877838784427411
 31
0.0
  0
LINE
  5
99
  8
1
 10
24.868020818128851
 20
43.627838784427411
 30
0.0
 11
24.868020818128851
 21
30.127838784427411
 31
0.0
  0
CIRCLE
  5
9A
  8
0
 10
24.868020818128851
 20
36.877838784427411
 30
0.0
 40
4.25
  0
LINE
  5
9B
  8
0
 10
44.868020818129352
 20
32.627838784427411
 30
0.0
 11
44.86802081812835
 21
41.127838784427396
 31
0.0
  0
LINE
  5
9C
  8
0
 10
46.1180208181284
 20
33.952838784427392
 30
0.0
 11
46.1180208181284
 21
39.802838784427088
 31
0.0
  0
LINE
  5
9D
  8
0
 10
49.86802081812823
 20
40.877838784427411
 30
0.0
 11
49.86802081812823
 21
32.877838784427411
 31
0.0
  0
LINE
  5
9E
  8
0
 10
48.018020818128228
 20
32.877838784428889
 30
0.0
 11
48.018020818128228
 21
40.877838784427411
 31
0.0
  0
LINE
  5
9F
  8
0
 10
50.86802081812823
 20
39.877838784427411
 30
0.0
 11
50.86802081812823
 21
33.877838784427411
 31
0.0
  0
LINE
  5
A0
  8
0
 10
24.268020818128839
 20
32.909211817831043
 30
0.0
 11
24.268020818128861
 21
40.846465751024809
 31
0.0
  0
LINE
  5
A1
  8
0
 10
25.46802081812886
 20
32.909211817831029
 30
0.0
 11
25.468020818128831
 21
40.846465751024809
 31
0.0
  0
LINE
  5
A2
  8
0
 10
25.46802081812886
 20
32.909211817831029
 30
0.0
 11
24.268020818128839
 21
32.909211817831043
 31
0.0
  0
LINE
  5
A4
  8
0
 10
46.283706243077688
 20
33.627838784427411
 30
0.0
 11
47.618020818128251
 21
33.627838784427411
 31
0.0
  0
LINE
  5
A5
  8
0
 10
45.11802081812867
 20
32.627838784427411
 30
0.0
 11
46.000863530602999
 21
33.510681496901988
 31
0.0
  0
LINE
  5
A6
  8
0
 10
44.868020818129352
 20
32.627838784427411
 30
0.0
 11
45.11802081812867
 21
32.627838784427411
 31
0.0
  0
ARC
  5
A7
  8
0
 10
46.283706243077688
 20
33.227838784427412
 30
0.0
 40
0.4
 50
90.0
 51
135.00000000000739
  0
LINE
  5
A8
  8
0
 10
50.86802081812823
 20
33.877838784427411
 30
0.0
 11
49.86802081812823
 21
32.877838784427411
 31
0.0
  0
LINE
  5
A9
  8
3
 10
50.54452081812812
 20
33.554338784427301
 30
0.0
 11
48.018020818128228
 21
33.554338784427301
 31
0.0
  0
ARC
  5
AA
  8
0
 10
47.618020818128251
 20
33.227838784427412
 30
0.0
 40
0.4
 50
0.0
 51
90.0
  0
LINE
  5
AB
  8
0
 10
49.86802081812823
 20
32.877838784427411
 30
0.0
 11
48.018020818128228
 21
32.877838784427411
 31
0.0
  0
LINE
  5
AC
  8
1
 10
31.618020818128851
 20
36.877838784427411
 30
0.0
 11
18.118020818128851
 21
36.877838784427411
 31
0.0
  0
LINE
  5
AD
  8
0
 10
25.468020818128831
 20
40.846465751024809
 30
0.0
 11
24.268020818128861
 21
40.846465751024809
 31
0.0
  0
LINE
  5
AE
  8
0
 10
46.283706243077688
 20
40.127838784427411
 30
0.0
 11
47.618020818128251
 21
40.127838784427411
 31
0.0
  0
LINE
  5
AF
  8
0
 10
45.11802081812835
 20
41.127838784427411
 30
0.0
 11
46.000863530603048
 21
40.244996071952748
 31
0.0
  0
ARC
  5
B0
  8
0
 10
46.283706243077688
 20
40.527838784427367
 30
0.0
 40
0.4
 50
225.00000000000151
 51
269.9999999999846
  0
LINE
  5
B1
  8
0
 10
44.868020818128372
 20
41.127838784427411
 30
0.0
 11
45.11802081812835
 21
41.127838784427411
 31
0.0
  0
LINE
  5
B2
  8
0
 10
49.86802081812823
 20
40.877838784427396
 30
0.0
 11
50.86802081812823
 21
39.877838784427411
 31
0.0
  0
LINE
  5
B3
  8
3
 10
50.54452081812812
 20
40.201338784427513
 30
0.0
 11
48.018020818128228
 21
40.201338784427513
 31
0.0
  0
ARC
  5
B4
  8
0
 10
47.618020818128251
 20
40.527838784427423
 30
0.0
 40
0.4
 50
270.0
 51
0.0
  0
LINE
  5
B5
  8
0
 10
48.018020818128228
 20
40.877838784427411
 30
0.0
 11
49.86802081812823
 21
40.877838784427396
 31
0.0
  0
LINE
  5
B6
  8
1
 10
70.86802081812823
 20
30.377838784427411
 30
0.0
 11
70.86802081812823
 21
43.377838784427411
 31
0.0
  0
CIRCLE
  5
B7
  8
0
 10
70.86802081812823
 20
36.877838784427411
 30
0.0
 40
4.0
  0
CIRCLE
  5
B8
  8
3
 10
70.86802081812823
 20
36.877838784427411
 30
0.0
 40
3.3235000000001089
  0
CIRCLE
  5
B9
  8
0
 10
70.86802081812823
 20
36.877838784427411
 30
0.0
 40
3.0
  0
LINE
  5
BA
  8
1
 10
77.36802081812823
 20
36.877838784427411
 30
0.0
 11
64.36802081812823
 21
36.877838784427411
 31
0.0
  0
TEXT
  5
1AB
  8
0
 62
     3
 10
0.0
 20
0.0
 30
0.0
 40
5.0
  1
THP8-SUS
  7
STANDARD1
  0
ENDSEC
  0
EOF
