  0
SECTION
  2
HEADER
  9
$ACADVER
  1
AC1009
  9
$INSBASE
 10
0.0
 20
0.0
 30
0.0
  9
$EXTMIN
 10
0.0
 20
-2.960436562073669
 30
0.0
  9
$EXTMAX
 10
107.752996183994
 20
110.8265697310399
 30
0.0
  9
$LIMMIN
 10
0.0
 20
0.0
  9
$LIMMAX
 10
187.5
 20
135.0
  9
$ORTHOMODE
 70
     1
  9
$REGENMODE
 70
     1
  9
$FILLMODE
 70
     1
  9
$QTEXTMODE
 70
     0
  9
$MIRRTEXT
 70
     0
  9
$DRAGMODE
 70
     2
  9
$LTSCALE
 40
5.0
  9
$OSMODE
 70
    37
  9
$ATTMODE
 70
     1
  9
$TEXTSIZE
 40
0.2
  9
$TRACEWID
 40
0.05
  9
$TEXTSTYLE
  7
STANDARD
  9
$CLAYER
  8
0
  9
$CELTYPE
  6
BYLAYER
  9
$CECOLOR
 62
   256
  9
$DIMSCALE
 40
0.5
  9
$DIMASZ
 40
3.0
  9
$DIMEXO
 40
2.0
  9
$DIMDLI
 40
0.38
  9
$DIMRND
 40
0.0
  9
$DIMDLE
 40
0.0
  9
$DIMEXE
 40
2.0
  9
$DIMTP
 40
0.0
  9
$DIMTM
 40
0.0
  9
$DIMTXT
 40
3.2000000000000002
  9
$DIMCEN
 40
0.0
  9
$DIMTSZ
 40
0.0
  9
$DIMTOL
 70
     0
  9
$DIMLIM
 70
     0
  9
$DIMTIH
 70
     0
  9
$DIMTOH
 70
     0
  9
$DIMSE1
 70
     0
  9
$DIMSE2
 70
     0
  9
$DIMTAD
 70
     1
  9
$DIMZIN
 70
     8
  9
$DIMBLK
  1

  9
$DIMASO
 70
     1
  9
$DIMSHO
 70
     0
  9
$DIMPOST
  1

  9
$DIMAPOST
  1

  9
$DIMALT
 70
     0
  9
$DIMALTD
 70
     2
  9
$DIMALTF
 40
25.399999999999999
  9
$DIMLFAC
 40
1.0
  9
$DIMTOFL
 70
     1
  9
$DIMTVP
 40
1.6000000000000001
  9
$DIMTIX
 70
     1
  9
$DIMSOXD
 70
     0
  9
$DIMSAH
 70
     0
  9
$DIMBLK1
  1

  9
$DIMBLK2
  1

  9
$DIMSTYLE
  2
STANDARD
  9
$DIMCLRD
 70
     0
  9
$DIMCLRE
 70
     0
  9
$DIMCLRT
 70
     0
  9
$DIMTFAC
 40
1.0
  9
$DIMGAP
 40
1.0
  9
$LUNITS
 70
     2
  9
$LUPREC
 70
     1
  9
$SKETCHINC
 40
0.1
  9
$FILLETRAD
 40
1.5
  9
$AUNITS
 70
     0
  9
$AUPREC
 70
     1
  9
$MENU
  1
E:\r13\win\SUPPORT\ACAD
  9
$ELEVATION
 40
0.0
  9
$PELEVATION
 40
0.0
  9
$THICKNESS
 40
0.0
  9
$LIMCHECK
 70
     0
  9
$BLIPMODE
 70
     0
  9
$CHAMFERA
 40
1.0
  9
$CHAMFERB
 40
1.0
  9
$SKPOLY
 70
     0
  9
$TDCREATE
 40
2449839.7895949078
  9
$TDUPDATE
 40
2457534.479296864
  9
$TDINDWG
 40
0.3006407292
  9
$TDUSRTIMER
 40
0.3006407292
  9
$USRTIMER
 70
     1
  9
$ANGBASE
 50
0.0
  9
$ANGDIR
 70
     0
  9
$PDMODE
 70
     0
  9
$PDSIZE
 40
0.0
  9
$PLINEWID
 40
0.0
  9
$COORDS
 70
     1
  9
$SPLFRAME
 70
     0
  9
$SPLINETYPE
 70
     6
  9
$SPLINESEGS
 70
     8
  9
$ATTDIA
 70
     0
  9
$ATTREQ
 70
     1
  9
$HANDLING
 70
     1
  9
$HANDSEED
  5
D421
  9
$SURFTAB1
 70
     6
  9
$SURFTAB2
 70
     6
  9
$SURFTYPE
 70
     6
  9
$SURFU
 70
     6
  9
$SURFV
 70
     6
  9
$UCSNAME
  2

  9
$UCSORG
 10
0.0
 20
0.0
 30
0.0
  9
$UCSXDIR
 10
1.0
 20
0.0
 30
0.0
  9
$UCSYDIR
 10
0.0
 20
1.0
 30
0.0
  9
$PUCSNAME
  2

  9
$PUCSORG
 10
0.0
 20
0.0
 30
0.0
  9
$PUCSXDIR
 10
1.0
 20
0.0
 30
0.0
  9
$PUCSYDIR
 10
0.0
 20
1.0
 30
0.0
  9
$USERI1
 70
     0
  9
$USERI2
 70
     1
  9
$USERI3
 70
     1
  9
$USERI4
 70
     0
  9
$USERI5
 70
     0
  9
$USERR1
 40
0.0
  9
$USERR2
 40
0.0
  9
$USERR3
 40
0.0
  9
$USERR4
 40
0.0
  9
$USERR5
 40
0.0
  9
$WORLDVIEW
 70
     1
  9
$SHADEDGE
 70
     3
  9
$SHADEDIF
 70
    70
  9
$TILEMODE
 70
     1
  9
$MAXACTVP
 70
    16
  9
$PLIMCHECK
 70
     0
  9
$PEXTMIN
 10
1.0000000000000000E+020
 20
1.0000000000000000E+020
 30
1.0000000000000000E+020
  9
$PEXTMAX
 10
-1.0000000000000000E+020
 20
-1.0000000000000000E+020
 30
-1.0000000000000000E+020
  9
$PLIMMIN
 10
0.0
 20
0.0
  9
$PLIMMAX
 10
12.0
 20
9.0
  9
$UNITMODE
 70
     0
  9
$VISRETAIN
 70
     0
  9
$PLINEGEN
 70
     0
  9
$PSLTSCALE
 70
     0
  0
ENDSEC
  0
SECTION
  2
TABLES
  0
TABLE
  2
VPORT
 70
     1
  0
VPORT
  2
*ACTIVE
 70
     0
 10
0.0
 20
0.0
 11
1.0
 21
1.0
 12
172.54273504273499
 22
95.0
 13
0.0
 23
0.0
 14
5.0
 24
5.0
 15
5.0
 25
5.0
 16
0.0
 26
0.0
 36
1.0
 17
0.0
 27
0.0
 37
0.0
 40
190.0
 41
1.816239316239316
 42
50.0
 43
0.0
 44
0.0
 50
0.0
 51
0.0
 71
     0
 72
   500
 73
     1
 74
     0
 75
     0
 76
     0
 77
     0
 78
     2
  0
ENDTAB
  0
TABLE
  2
LTYPE
 70
     4
  0
LTYPE
  2
CONTINUOUS
 70
     0
  3
Solid Line
 72
    65
 73
     0
 40
0.0
  0
LTYPE
  2
CENTER
 70
     0
  3
____ _ ____ _ ____ _ ____ _ ____ _ ____ _ ____
 72
    65
 73
     4
 40
2.0
 49
1.25
 49
-0.25
 49
0.25
 49
-0.25
  0
LTYPE
  2
HIDDEN
 70
     0
  3
_ _ _ _ _ _ _ _ _ _ _ _ _ _ _ _ _ _ _ _ _ _ _
 72
    65
 73
     2
 40
0.375
 49
0.25
 49
-0.125
  0
LTYPE
  2
PHANTOM2
 70
     0
  3
___ _ _ ___ _ _ ___ _ _ ___ _ _
 72
    65
 73
     6
 40
1.25
 49
0.625
 49
-0.125
 49
0.125
 49
-0.125
 49
0.125
 49
-0.125
  0
ENDTAB
  0
TABLE
  2
LAYER
 70
     4
  0
LAYER
  2
0
 70
     0
 62
     7
  6
CONTINUOUS
  0
LAYER
  2
1
 70
     0
 62
     1
  6
CENTER
  0
LAYER
  2
2
 70
     0
 62
     2
  6
HIDDEN
  0
LAYER
  2
DEFPOINTS
 70
     0
 62
     7
  6
CONTINUOUS
  0
ENDTAB
  0
TABLE
  2
STYLE
 70
     2
  0
STYLE
  2
STANDARD
 70
     0
 40
0.0
 41
1.0
 50
0.0
 71
     0
 42
0.2
  3
TXT
  4
BIGFONT
  0
STYLE
  2
STANDARD1
 70
     0
 40
0.0
 41
1.0
 50
0.0
 71
     0
 42
3.0
  3
txt
  4

  0
ENDTAB
  0
TABLE
  2
VIEW
 70
     2
  0
VIEW
  2
ALL
 70
     0
 40
135.0
 10
110.4957983193277
 20
67.5
 41
0.0
 11
0.0
 21
0.0
 31
1.0
 12
0.0
 22
0.0
 32
0.0
 42
0.0
 43
0.0
 44
0.0
 50
0.0
 71
     0
  0
VIEW
  2
OLE1
 70
     0
 40
167.61635794673921
 10
902.4035316351866
 20
-84.898870369570844
 41
190.6608896488849
 11
0.0
 21
0.0
 31
1.0
 12
0.0
 22
0.0
 32
0.0
 42
50.0
 43
0.0
 44
0.0
 50
0.0
 71
     0
  0
ENDTAB
  0
TABLE
  2
UCS
 70
     0
  0
ENDTAB
  0
TABLE
  2
APPID
 70
    42
  0
APPID
  2
ACAD
 70
     0
  0
APPID
  2
GENIUS_GENODEF_13
 70
     0
  0
APPID
  2
GENIUS_GENFIL_13
 70
     0
  0
APPID
  2
GENIUS_GENOBJ-N-CHA_13
 70
     0
  0
APPID
  2
ACAD_MLEADERVER
 70
     0
  0
APPID
  2
ACAD_EXEMPT_FROM_CAD_STANDARDS
 70
     0
  0
APPID
  2
ACAD_DSTYLE_DIMRADIAL_EXTENSION
 70
     0
  0
APPID
  2
ACAD_DSTYLE_DIMJAG
 70
     0
  0
APPID
  2
ACAD_DSTYLE_DIMTALN
 70
     0
  0
APPID
  2
ACAD_NAV_VCDISPLAY
 70
     0
  0
APPID
  2
GENIUS_GENOREF_13
 70
     0
  0
APPID
  2
DCO15
 70
     0
  0
APPID
  2
GENIUS_GENOENT_13
 70
     0
  0
APPID
  2
GENIUS_GENBH_13
 70
     0
  0
APPID
  2
GENIUS_GENOBJ_13
 70
     0
  0
APPID
  2
GENIUS_GENOLIS_13
 70
     0
  0
APPID
  2
GENIUS_GENOBJ-NBEHI-BHF_13
 70
     0
  0
APPID
  2
GENIUS_GENOBJ-NBEHI-BHB_13
 70
     0
  0
APPID
  2
GENIUS_GENOBJ-F-PART_13
 70
     0
  0
APPID
  2
GENIUS_GEFSTDP_13
 70
     0
  0
APPID
  2
GENIUS_GENOBJ-N-RSSYM_13
 70
     0
  0
APPID
  2
GENIUS_GENSYMENT_13
 70
     0
  0
APPID
  2
GENIUS_GENOBJ-N-TIT_13
 70
     0
  0
APPID
  2
GENIUS_GENTITLE_13
 70
     0
  0
APPID
  2
GENIUS_GENZVEED_13
 70
     0
  0
APPID
  2
GENIUS_GENOBJ-N-LEADER_13
 70
     0
  0
APPID
  2
GENIUS_GENOBJ-N-FIL_13
 70
     0
  0
APPID
  2
GENIUS_GENOBJ-N-SEC_13
 70
     0
  0
APPID
  2
GENIUS_GENOBJ-N-CRS_13
 70
     0
  0
APPID
  2
GENIUS_GENOBJ-N-ZOO_13
 70
     0
  0
APPID
  2
GENIUS_GENZOO_13
 70
     0
  0
APPID
  2
GENIUS_GENOBJ-F-TOL_13
 70
     0
  0
APPID
  2
_CALL_MAC$
 70
     0
  0
APPID
  2
ASM_BASE
 70
     0
  0
APPID
  2
ASM_EXPLO_VER_2_00
 70
     0
  0
APPID
  2
ASM_CADM_VER_12_00
 70
     0
  0
APPID
  2
ASM_BASEFORO
 70
     0
  0
APPID
  2
ASM_BASETRAVI
 70
     0
  0
APPID
  2
ASM_BASETRAVI1
 70
     0
  0
APPID
  2
ASM_GRUPPI
 70
     0
  0
APPID
  2
ASM_CADM_ALBERO
 70
     0
  0
APPID
  2
ASM_GOLE
 70
     0
  0
ENDTAB
  0
TABLE
  2
DIMSTYLE
 70
     1
  0
DIMSTYLE
  2
STANDARD
 70
     0
  3

  4

  5

  6

  7

 40
1.0
 41
0.18
 42
0.0625
 43
0.38
 44
0.18
 45
0.0
 46
0.0
 47
0.0
 48
0.0
140
0.18
141
0.09
142
0.0
143
25.399999999999999
144
1.0
145
0.0
146
1.0
147
0.09
 71
     0
 72
     0
 73
     1
 74
     1
 75
     0
 76
     0
 77
     0
 78
     0
170
     0
171
     2
172
     0
173
     0
174
     0
175
     0
176
     0
177
     0
178
     0
  0
ENDTAB
  0
ENDSEC
  0
SECTION
  2
BLOCKS
  0
BLOCK
  8
0
  2
$MODEL_SPACE
 70
     0
 10
0.0
 20
0.0
 30
0.0
  3
$MODEL_SPACE
  1

  0
ENDBLK
  5
3C9
  8
0
  0
BLOCK
 67
     1
  8
0
  2
$PAPER_SPACE
 70
     0
 10
0.0
 20
0.0
 30
0.0
  3
$PAPER_SPACE
  1

  0
ENDBLK
  5
3C7
 67
     1
  8
0
  0
ENDSEC
  0
SECTION
  2
ENTITIES
  0
TEXT
  5
BE37
  8
0
 62
     3
 10
0.0
 20
0.0
 30
0.0
 40
10.0
  1
TRIK32-M6-CL
  7
STANDARD1
  0
LINE
  5
CC4D
  8
2
 10
91.752996183994014
 20
94.949775828437794
 30
0.0
 11
93.172411820796725
 21
92.49127582843785
 31
0.0
  0
LINE
  5
CC4E
  8
2
 10
93.172411820796725
 20
97.408275828437823
 30
0.0
 11
91.752996183994014
 21
94.949775828437794
 31
0.0
  0
LINE
  5
CC4F
  8
2
 10
93.172411820796725
 20
92.49127582843785
 30
0.0
 11
93.172411820796725
 21
97.408275828437823
 31
0.0
  0
LINE
  5
CC50
  8
2
 10
104.211496183994
 20
97.408275828437823
 30
0.0
 11
93.172411820796725
 21
97.408275828437823
 31
0.0
  0
LINE
  5
CC51
  8
2
 10
93.172411820796725
 20
92.49127582843785
 30
0.0
 11
104.211496183994
 21
92.491275828437793
 31
0.0
  0
LINE
  5
CC52
  8
2
 10
104.211496183994
 20
92.491275828437793
 30
0.0
 11
104.211496183994
 21
97.408275828437823
 31
0.0
  0
LINE
  5
CC53
  8
2
 10
104.211496183994
 20
92.491275828437793
 30
0.0
 11
104.752996183994
 21
91.949775828437808
 31
0.0
  0
LINE
  5
CC54
  8
2
 10
104.752996183994
 20
97.949775828437808
 30
0.0
 11
104.211496183994
 21
97.408275828437823
 31
0.0
  0
LINE
  5
CC5A
  8
2
 10
104.752996183994
 20
91.949775828437808
 30
0.0
 11
94.752996183994014
 21
91.949775828437808
 31
0.0
  0
LINE
  5
CC5B
  8
2
 10
93.752996183994014
 20
92.49127582843785
 30
0.0
 11
94.752996183994014
 21
91.949775828437808
 31
0.0
  0
LINE
  5
CC5C
  8
2
 10
94.752996183994014
 20
91.949775828437808
 30
0.0
 11
94.752996183994014
 21
97.949775828437808
 31
0.0
  0
LINE
  5
CC5D
  8
2
 10
104.752996183994
 20
97.949775828437808
 30
0.0
 11
94.752996183994014
 21
97.949775828437808
 31
0.0
  0
LINE
  5
CC5E
  8
2
 10
93.752996183994014
 20
97.408275828437823
 30
0.0
 11
94.752996183994014
 21
97.949775828437808
 31
0.0
  0
LINE
  5
CC5F
  8
1
 10
107.752996183994
 20
94.949775828437794
 30
0.0
 11
78.752996183994043
 21
94.949775828437794
 31
0.0
  0
LINE
  5
CC60
  8
0
 10
93.252996183993986
 20
81.916238655744749
 30
0.0
 11
93.252996183994014
 21
107.9833130011308
 31
0.0
  0
POLYLINE
  5
CC61
  8
0
 66
     1
 10
0.0
 20
0.0
 30
0.0
  0
VERTEX
  5
D279
  8
0
 10
92.90079147085936
 20
109.44777080928721
 30
0.0
  0
VERTEX
  5
D27A
  8
0
 10
92.769859806517474
 20
109.66789878747331
 30
0.0
  0
VERTEX
  5
D27B
  8
0
 10
92.625078943052955
 20
109.868017840351
 30
0.0
  0
VERTEX
  5
D27C
  8
0
 10
92.571848202860281
 20
109.9329034155605
 30
0.0
  0
SEQEND
  5
D27D
  8
0
  0
POLYLINE
  5
CC65
  8
0
 66
     1
 10
0.0
 20
0.0
 30
0.0
  0
VERTEX
  5
D27E
  8
0
 10
92.571848202860281
 20
109.9329034155605
 30
0.0
  0
VERTEX
  5
D27F
  8
0
 10
92.463348915600903
 20
110.0533331737972
 30
0.0
  0
VERTEX
  5
D280
  8
0
 10
92.290751534757845
 20
110.2174754606752
 30
0.0
  0
VERTEX
  5
D281
  8
0
 10
92.07262532095811
 20
110.3859621028665
 30
0.0
  0
VERTEX
  5
D282
  8
0
 10
91.842380000424924
 20
110.5256095824428
 30
0.0
  0
VERTEX
  5
D283
  8
0
 10
91.593598164132231
 20
110.6399854402988
 30
0.0
  0
VERTEX
  5
D284
  8
0
 10
91.331057460762935
 20
110.72577175427951
 30
0.0
  0
VERTEX
  5
D285
  8
0
 10
91.158030727848853
 20
110.76541062509079
 30
0.0
  0
VERTEX
  5
D286
  8
0
 10
90.974539600173316
 20
110.7947828898796
 30
0.0
  0
VERTEX
  5
D287
  8
0
 10
90.776977256863375
 20
110.8141817266691
 30
0.0
  0
VERTEX
  5
D288
  8
0
 10
90.666904488897302
 20
110.82055900121721
 30
0.0
  0
VERTEX
  5
D289
  8
0
 10
90.550313936394474
 20
110.8246383593779
 30
0.0
  0
VERTEX
  5
D28A
  8
0
 10
90.444980656055691
 20
110.82639740482649
 30
0.0
  0
VERTEX
  5
D28B
  8
0
 10
90.334006560501606
 20
110.8265697310399
 30
0.0
  0
VERTEX
  5
D28C
  8
0
 10
90.227885137731931
 20
110.82514832035309
 30
0.0
  0
VERTEX
  5
D28D
  8
0
 10
90.123116397656702
 20
110.8220135686954
 30
0.0
  0
VERTEX
  5
D28E
  8
0
 10
89.95036423421854
 20
110.81204681613509
 30
0.0
  0
VERTEX
  5
D28F
  8
0
 10
89.787929473318428
 20
110.79560552831499
 30
0.0
  0
VERTEX
  5
D290
  8
0
 10
89.539058483380998
 20
110.7533285538651
 30
0.0
  0
VERTEX
  5
D291
  8
0
 10
89.307097078810614
 20
110.6913256101202
 30
0.0
  0
VERTEX
  5
D292
  8
0
 10
89.080755185850023
 20
110.6062526760944
 30
0.0
  0
VERTEX
  5
D293
  8
0
 10
88.864452625557306
 20
110.4987229590139
 30
0.0
  0
VERTEX
  5
D294
  8
0
 10
88.744882605930201
 20
110.42679726481801
 30
0.0
  0
SEQEND
  5
D295
  8
0
  0
POLYLINE
  5
CC66
  8
0
 66
     1
 10
0.0
 20
0.0
 30
0.0
  0
VERTEX
  5
D296
  8
0
 10
88.744882605930385
 20
79.472754392057666
 30
0.0
  0
VERTEX
  5
D297
  8
0
 10
88.968880046251087
 20
79.345469765755709
 30
0.0
  0
VERTEX
  5
D298
  8
0
 10
89.203750289108939
 20
79.243844946635548
 30
0.0
  0
VERTEX
  5
D299
  8
0
 10
89.456932966169092
 20
79.165460340928192
 30
0.0
  0
VERTEX
  5
D29A
  8
0
 10
89.728429802964428
 20
79.112028914356316
 30
0.0
  0
VERTEX
  5
D29B
  8
0
 10
89.868703781386586
 20
79.094799943115575
 30
0.0
  0
VERTEX
  5
D29C
  8
0
 10
90.019790731803511
 20
79.082682326101875
 30
0.0
  0
VERTEX
  5
D29D
  8
0
 10
90.132397915061205
 20
79.077182036325055
 30
0.0
  0
VERTEX
  5
D29E
  8
0
 10
90.254213305443358
 20
79.073897909049336
 30
0.0
  0
VERTEX
  5
D29F
  8
0
 10
90.45471579533924
 20
79.073249185042201
 30
0.0
  0
VERTEX
  5
D2A0
  8
0
 10
90.646880070344807
 20
79.078106464401415
 30
0.0
  0
VERTEX
  5
D2A1
  8
0
 10
90.865248555631837
 20
79.092646578316433
 30
0.0
  0
VERTEX
  5
D2A2
  8
0
 10
91.068587044055946
 20
79.118311453379775
 30
0.0
  0
VERTEX
  5
D2A3
  8
0
 10
91.333647074028676
 20
79.174431991540771
 30
0.0
  0
VERTEX
  5
D2A4
  8
0
 10
91.581903244210167
 20
79.255051012911565
 30
0.0
  0
VERTEX
  5
D2A5
  8
0
 10
91.824588214249474
 20
79.36456746608458
 30
0.0
  0
VERTEX
  5
D2A6
  8
0
 10
92.055563108705002
 20
79.501991664869891
 30
0.0
  0
VERTEX
  5
D2A7
  8
0
 10
92.238029457929855
 20
79.637708071312844
 30
0.0
  0
VERTEX
  5
D2A8
  8
0
 10
92.411500085280366
 20
79.793634616745479
 30
0.0
  0
VERTEX
  5
D2A9
  8
0
 10
92.570548228058641
 20
79.965114429375674
 30
0.0
  0
SEQEND
  5
D2AA
  8
0
  0
POLYLINE
  5
CC6A
  8
0
 66
     1
 10
0.0
 20
0.0
 30
0.0
  0
VERTEX
  5
D2AB
  8
0
 10
92.570548228058641
 20
79.965114429375674
 30
0.0
  0
VERTEX
  5
D2AC
  8
0
 10
92.578858764778118
 20
79.974970784388645
 30
0.0
  0
VERTEX
  5
D2AD
  8
0
 10
92.733830157324036
 20
80.178205099554205
 30
0.0
  0
VERTEX
  5
D2AE
  8
0
 10
92.900791470859218
 20
80.451780847588225
 30
0.0
  0
SEQEND
  5
D2AF
  8
0
  0
LINE
  5
CC6B
  8
0
 10
104.752996183994
 20
89.949775828437794
 30
0.0
 11
104.752996183994
 21
99.949775828437794
 31
0.0
  0
LINE
  5
CC6C
  8
0
 10
104.752996183994
 20
99.949775828437794
 30
0.0
 11
104.452996183994
 21
99.949775828437794
 31
0.0
  0
LINE
  5
CC6D
  8
0
 10
104.452996183994
 20
89.949775828437794
 30
0.0
 11
104.752996183994
 21
89.949775828437794
 31
0.0
  0
LINE
  5
CC6E
  8
0
 10
104.452996183994
 20
88.416442495104505
 30
0.0
 11
104.452996183994
 21
101.4831091617711
 31
0.0
  0
LINE
  5
CC6F
  8
0
 10
104.452996183994
 20
101.4831091617711
 30
0.0
 11
103.98632951732731
 21
101.94977582843779
 31
0.0
  0
LINE
  5
CC70
  8
0
 10
103.98632951732731
 20
87.949775828437808
 30
0.0
 11
104.452996183994
 21
88.416442495104505
 31
0.0
  0
LINE
  5
CC71
  8
0
 10
103.98632951732731
 20
87.949775828437808
 30
0.0
 11
103.98632951732731
 21
101.94977582843779
 31
0.0
  0
LINE
  5
CC72
  8
0
 10
103.98632951732731
 20
101.94977582843779
 30
0.0
 11
94.65299618399402
 21
101.94977582843779
 31
0.0
  0
LINE
  5
CC73
  8
0
 10
94.65299618399402
 20
87.949775828437808
 30
0.0
 11
103.98632951732731
 21
87.949775828437808
 31
0.0
  0
ARC
  5
CC75
  8
0
 10
94.65299618399402
 20
103.3497758284378
 30
0.0
 40
1.4000000000000039
 50
180.0
 51
270.0
  0
ARC
  5
CC76
  8
0
 10
94.65299618399402
 20
86.549775828437816
 30
0.0
 40
1.4000000000000019
 50
90.0
 51
180.0
  0
ARC
  5
CC77
  8
0
 10
113.7529961839941
 20
94.949775828437794
 30
0.0
 40
32.000000000000071
 50
161.49247107427581
 51
198.50752892572399
  0
ARC
  5
CC79
  8
0
 10
86.13428438496635
 20
104.1949033863601
 30
0.0
 40
2.874999999999921
 50
140.25747293995749
 51
161.4924739346973
  0
ARC
  5
CC7A
  8
0
 10
86.13428438496635
 20
85.704648270515477
 30
0.0
 40
2.874999999999917
 50
198.50752606529929
 51
219.74252706004239
  0
POLYLINE
  5
CC7C
  8
0
 66
     1
 10
0.0
 20
0.0
 30
0.0
  0
VERTEX
  5
D2B0
  8
0
 10
93.252996183993986
 20
81.916238655744749
 30
0.0
  0
VERTEX
  5
D2B1
  8
0
 10
93.250684959490656
 20
81.787584961831229
 30
0.0
  0
VERTEX
  5
D2B2
  8
0
 10
93.229574798250127
 20
81.512638168878027
 30
0.0
  0
VERTEX
  5
D2B3
  8
0
 10
93.184115672771497
 20
81.234476407648629
 30
0.0
  0
VERTEX
  5
D2B4
  8
0
 10
93.109209822804445
 20
80.94795823868931
 30
0.0
  0
VERTEX
  5
D2B5
  8
0
 10
93.003038642015838
 20
80.663180214663925
 30
0.0
  0
VERTEX
  5
D2B6
  8
0
 10
92.900791470865414
 20
80.451780847586008
 30
0.0
  0
SEQEND
  5
D2B7
  8
0
  0
POLYLINE
  5
CC7E
  8
0
 66
     1
 10
0.0
 20
0.0
 30
0.0
  0
VERTEX
  5
D2B8
  8
0
 10
92.900791470866096
 20
109.44777080928959
 30
0.0
  0
VERTEX
  5
D2B9
  8
0
 10
93.029682807478466
 20
109.1729004108895
 30
0.0
  0
VERTEX
  5
D2BA
  8
0
 10
93.127587468848276
 20
108.8910739995468
 30
0.0
  0
VERTEX
  5
D2BB
  8
0
 10
93.196836072004004
 20
108.601139619855
 30
0.0
  0
VERTEX
  5
D2BC
  8
0
 10
93.237675542401178
 20
108.31112760010819
 30
0.0
  0
VERTEX
  5
D2BD
  8
0
 10
93.252996183994014
 20
107.9833130011308
 30
0.0
  0
SEQEND
  5
D2BE
  8
0
  0
LINE
  5
CC7F
  8
0
 10
87.415029622781589
 20
102.5545522027401
 30
0.0
 11
92.900791470868825
 21
102.55455220274131
 31
0.0
  0
LINE
  5
CC80
  8
0
 10
87.415029622766298
 20
87.344999454134225
 30
0.0
 11
92.900791470864021
 21
87.344999454134225
 31
0.0
  0
POLYLINE
  5
CC83
  8
0
 66
     1
 10
0.0
 20
0.0
 30
0.0
  0
VERTEX
  5
D2BF
  8
0
 10
87.415029622781589
 20
102.5545522027401
 30
0.0
  0
VERTEX
  5
D2C0
  8
0
 10
86.787356640430886
 20
102.61947289370831
 30
0.0
  0
VERTEX
  5
D2C1
  8
0
 10
86.203373245700647
 20
102.7175516750341
 30
0.0
  0
VERTEX
  5
D2C2
  8
0
 10
85.832924165907883
 20
102.8061541003562
 30
0.0
  0
VERTEX
  5
D2C3
  8
0
 10
85.488082046360461
 20
102.9141653294717
 30
0.0
  0
VERTEX
  5
D2C4
  8
0
 10
85.172161046998582
 20
103.04293380771379
 30
0.0
  0
VERTEX
  5
D2C5
  8
0
 10
84.868957840045084
 20
103.2056809599909
 30
0.0
  0
VERTEX
  5
D2C6
  8
0
 10
84.605865644622071
 20
103.39552035124851
 30
0.0
  0
VERTEX
  5
D2C7
  8
0
 10
84.382005002294846
 20
103.6197772480264
 30
0.0
  0
VERTEX
  5
D2C8
  8
0
 10
84.208869899891937
 20
103.8743315977364
 30
0.0
  0
VERTEX
  5
D2C9
  8
0
 10
84.092647058339281
 20
104.152227238839
 30
0.0
  0
VERTEX
  5
D2CA
  8
0
 10
84.031143860892684
 20
104.45768378930789
 30
0.0
  0
VERTEX
  5
D2CB
  8
0
 10
84.027214383047294
 20
104.80167747018621
 30
0.0
  0
VERTEX
  5
D2CC
  8
0
 10
84.083891457300453
 20
105.1698742866901
 30
0.0
  0
VERTEX
  5
D2CD
  8
0
 10
84.179938005835339
 20
105.50194843198651
 30
0.0
  0
VERTEX
  5
D2CE
  8
0
 10
84.317674934554447
 20
105.846249684537
 30
0.0
  0
VERTEX
  5
D2CF
  8
0
 10
84.499820117190268
 20
106.2090611065192
 30
0.0
  0
VERTEX
  5
D2D0
  8
0
 10
84.720364840625422
 20
106.5790306158115
 30
0.0
  0
VERTEX
  5
D2D1
  8
0
 10
84.946841473702108
 20
106.9126198489831
 30
0.0
  0
VERTEX
  5
D2D2
  8
0
 10
85.199416765212135
 20
107.2484197854416
 30
0.0
  0
VERTEX
  5
D2D3
  8
0
 10
85.475570004905222
 20
107.5843497173725
 30
0.0
  0
VERTEX
  5
D2D4
  8
0
 10
85.943731391366114
 20
108.1002066583748
 30
0.0
  0
VERTEX
  5
D2D5
  8
0
 10
86.457372767294956
 20
108.6096590178483
 30
0.0
  0
VERTEX
  5
D2D6
  8
0
 10
86.922693015479894
 20
109.0325345732809
 30
0.0
  0
VERTEX
  5
D2D7
  8
0
 10
87.415029622766326
 20
109.44777080928959
 30
0.0
  0
VERTEX
  5
D2D8
  8
0
 10
88.033512867248163
 20
109.9305093813626
 30
0.0
  0
SEQEND
  5
D2D9
  8
0
  0
POLYLINE
  5
CC84
  8
0
 66
     1
 10
0.0
 20
0.0
 30
0.0
  0
VERTEX
  5
D2DA
  8
0
 10
88.744882605930385
 20
110.42679726481791
 30
0.0
  0
VERTEX
  5
D2DB
  8
0
 10
88.494682984627531
 20
110.2607292176091
 30
0.0
  0
VERTEX
  5
D2DC
  8
0
 10
88.230255070157455
 20
110.0748296323912
 30
0.0
  0
VERTEX
  5
D2DD
  8
0
 10
88.033512867247964
 20
109.9305093813624
 30
0.0
  0
SEQEND
  5
D2DE
  8
0
  0
POLYLINE
  5
CC86
  8
0
 66
     1
 10
0.0
 20
0.0
 30
0.0
  0
VERTEX
  5
D2DF
  8
0
 10
88.034809368781353
 20
79.968075823336562
 30
0.0
  0
VERTEX
  5
D2E0
  8
0
 10
87.415029622788907
 20
80.451780847567605
 30
0.0
  0
VERTEX
  5
D2E1
  8
0
 10
86.787363094468589
 20
80.986713438138466
 30
0.0
  0
VERTEX
  5
D2E2
  8
0
 10
86.203385156786766
 20
81.535499380716786
 30
0.0
  0
VERTEX
  5
D2E3
  8
0
 10
85.832939340407762
 20
81.916365560348424
 30
0.0
  0
VERTEX
  5
D2E4
  8
0
 10
85.488099801619654
 20
82.300623928024393
 30
0.0
  0
VERTEX
  5
D2E5
  8
0
 10
85.172180574059965
 20
82.685832459795975
 30
0.0
  0
VERTEX
  5
D2E6
  8
0
 10
84.868974358173745
 20
83.097543417025477
 30
0.0
  0
VERTEX
  5
D2E7
  8
0
 10
84.605879117154274
 20
83.505535699844145
 30
0.0
  0
VERTEX
  5
D2E8
  8
0
 10
84.382015349759087
 20
83.91684957746493
 30
0.0
  0
VERTEX
  5
D2E9
  8
0
 10
84.208877151866645
 20
84.316940784887436
 30
0.0
  0
VERTEX
  5
D2EA
  8
0
 10
84.092651365272289
 20
84.692911833881809
 30
0.0
  0
VERTEX
  5
D2EB
  8
0
 10
84.031145387365356
 20
85.050403702595318
 30
0.0
  0
VERTEX
  5
D2EC
  8
0
 10
84.02721328396683
 20
85.397716127258107
 30
0.0
  0
VERTEX
  5
D2ED
  8
0
 10
84.083888077159784
 20
85.717974422743524
 30
0.0
  0
VERTEX
  5
D2EE
  8
0
 10
84.179932743315916
 20
85.968948584577845
 30
0.0
  0
VERTEX
  5
D2EF
  8
0
 10
84.317667927774707
 20
86.197329623332934
 30
0.0
  0
VERTEX
  5
D2F0
  8
0
 10
84.499811510224248
 20
86.407540589022304
 30
0.0
  0
VERTEX
  5
D2F1
  8
0
 10
84.720354812060904
 20
86.593889381272461
 30
0.0
  0
VERTEX
  5
D2F2
  8
0
 10
84.946829473450805
 20
86.740289943620681
 30
0.0
  0
VERTEX
  5
D2F3
  8
0
 10
85.199402747255647
 20
86.869086122454803
 30
0.0
  0
VERTEX
  5
D2F4
  8
0
 10
85.475553939312164
 20
86.980920203904489
 30
0.0
  0
VERTEX
  5
D2F5
  8
0
 10
85.943712133192804
 20
87.122510541966633
 30
0.0
  0
VERTEX
  5
D2F6
  8
0
 10
86.457350288102162
 20
87.230033133560653
 30
0.0
  0
VERTEX
  5
D2F7
  8
0
 10
86.922681049562954
 20
87.297133208559615
 30
0.0
  0
VERTEX
  5
D2F8
  8
0
 10
87.415029622766298
 20
87.344999454134225
 30
0.0
  0
SEQEND
  5
D2F9
  8
0
  0
ARC
  5
CC88
  8
0
 10
102.37782978220331
 20
99.210678698730561
 30
0.0
 40
23.999999999999151
 50
219.74252706004239
 51
233.29994972110629
  0
ARC
  5
CC89
  8
0
 10
102.37782978220299
 20
90.688872958145353
 30
0.0
 40
23.999999999998771
 50
126.70391077177641
 51
140.25747293995749
  0
POLYLINE
  5
CC8B
  8
0
 66
     1
 10
0.0
 20
0.0
 30
0.0
  0
VERTEX
  5
D2FA
  8
0
 10
88.034809368781353
 20
79.968075823336562
 30
0.0
  0
VERTEX
  5
D2FB
  8
0
 10
88.253088147162629
 20
79.808291376509672
 30
0.0
  0
VERTEX
  5
D2FC
  8
0
 10
88.521067153730485
 20
79.620828378434865
 30
0.0
  0
VERTEX
  5
D2FD
  8
0
 10
88.744882605930385
 20
79.472754392057666
 30
0.0
  0
SEQEND
  5
D2FE
  8
0
  0
POLYLINE
  5
CC8D
  8
0
 66
     1
 10
0.0
 20
0.0
 30
0.0
  0
VERTEX
  5
D2FF
  8
0
 10
92.900791470864021
 20
87.344999454134225
 30
0.0
  0
VERTEX
  5
D300
  8
0
 10
93.02968613548461
 20
87.315248320315632
 30
0.0
  0
VERTEX
  5
D301
  8
0
 10
93.127592360361689
 20
87.276814310687101
 30
0.0
  0
VERTEX
  5
D302
  8
0
 10
93.196840927439411
 20
87.228480600901847
 30
0.0
  0
VERTEX
  5
D303
  8
0
 10
93.237678838568087
 20
87.170731587724461
 30
0.0
  0
VERTEX
  5
D304
  8
0
 10
93.252996183994014
 20
87.093454956429881
 30
0.0
  0
SEQEND
  5
D305
  8
0
  0
POLYLINE
  5
CC8E
  8
0
 66
     1
 10
0.0
 20
0.0
 30
0.0
  0
VERTEX
  5
D306
  8
0
 10
93.252996183994028
 20
102.80609670044559
 30
0.0
  0
VERTEX
  5
D307
  8
0
 10
93.250684208102015
 20
102.77419035040511
 30
0.0
  0
VERTEX
  5
D308
  8
0
 10
93.229667669020756
 20
102.71293002566109
 30
0.0
  0
VERTEX
  5
D309
  8
0
 10
93.184110948662337
 20
102.6596145535467
 30
0.0
  0
VERTEX
  5
D30A
  8
0
 10
93.109603904872671
 20
102.61395338617621
 30
0.0
  0
VERTEX
  5
D30B
  8
0
 10
93.003028315460895
 20
102.5767646306268
 30
0.0
  0
VERTEX
  5
D30C
  8
0
 10
92.900791470868825
 20
102.55455220274131
 30
0.0
  0
SEQEND
  5
D30D
  8
0
  0
LINE
  5
CC91
  8
2
 10
104.211496183994
 20
40.614749185042193
 30
0.0
 11
93.172411820796739
 21
40.614749185042193
 31
0.0
  0
LINE
  5
CC92
  8
2
 10
93.172411820796739
 20
45.531749185042202
 30
0.0
 11
104.211496183994
 21
45.531749185042202
 31
0.0
  0
LINE
  5
CC93
  8
2
 10
91.752996183994014
 20
43.073249185042201
 30
0.0
 11
93.172411820796739
 21
45.531749185042202
 31
0.0
  0
LINE
  5
CC94
  8
2
 10
93.172411820796739
 20
40.614749185042193
 30
0.0
 11
91.752996183994014
 21
43.073249185042201
 31
0.0
  0
LINE
  5
CC95
  8
2
 10
93.172411820796739
 20
45.531749185042202
 30
0.0
 11
93.172411820796739
 21
40.614749185042193
 31
0.0
  0
LINE
  5
CC96
  8
2
 10
104.211496183994
 20
45.531749185042202
 30
0.0
 11
104.752996183994
 21
46.073249185042201
 31
0.0
  0
LINE
  5
CC97
  8
2
 10
104.752996183994
 20
40.073249185042187
 30
0.0
 11
104.211496183994
 21
40.614749185042193
 31
0.0
  0
LINE
  5
CC98
  8
2
 10
104.211496183994
 20
45.531749185042202
 30
0.0
 11
104.211496183994
 21
40.614749185042193
 31
0.0
  0
LINE
  5
CC9B
  8
2
 10
104.752996183994
 20
46.073249185042201
 30
0.0
 11
94.752996183994014
 21
46.073249185042201
 31
0.0
  0
LINE
  5
CC9C
  8
2
 10
93.752996183994014
 20
45.531749185042202
 30
0.0
 11
94.752996183994014
 21
46.073249185042201
 31
0.0
  0
LINE
  5
CC9D
  8
2
 10
94.752996183994014
 20
46.073249185042201
 30
0.0
 11
94.752996183994014
 21
40.073249185042187
 31
0.0
  0
LINE
  5
CC9E
  8
2
 10
104.752996183994
 20
40.073249185042187
 30
0.0
 11
94.752996183994014
 21
40.073249185042187
 31
0.0
  0
LINE
  5
CC9F
  8
2
 10
93.752996183994014
 20
40.614749185042193
 30
0.0
 11
94.752996183994014
 21
40.073249185042187
 31
0.0
  0
LINE
  5
CCA0
  8
1
 10
107.752996183994
 20
43.073249185042201
 30
0.0
 11
78.752996183994043
 21
43.073249185042201
 31
0.0
  0
LINE
  5
CCA1
  8
0
 10
104.752996183994
 20
38.073249185042201
 30
0.0
 11
104.452996183994
 21
38.073249185042201
 31
0.0
  0
LINE
  5
CCA2
  8
0
 10
104.452996183994
 20
48.073249185042201
 30
0.0
 11
104.752996183994
 21
48.073249185042201
 31
0.0
  0
LINE
  5
CCA3
  8
0
 10
104.752996183994
 20
48.073249185042201
 30
0.0
 11
104.752996183994
 21
38.073249185042201
 31
0.0
  0
LINE
  5
CCA4
  8
0
 10
104.452996183994
 20
36.539915851708869
 30
0.0
 11
103.98632951732731
 21
36.073249185042201
 31
0.0
  0
LINE
  5
CCA5
  8
0
 10
103.98632951732731
 20
50.073249185042201
 30
0.0
 11
104.452996183994
 21
49.606582518375532
 31
0.0
  0
LINE
  5
CCA6
  8
0
 10
104.452996183994
 20
49.606582518375532
 30
0.0
 11
104.452996183994
 21
36.539915851708869
 31
0.0
  0
LINE
  5
CCA7
  8
0
 10
103.98632951732731
 20
36.073249185042201
 30
0.0
 11
94.652996183994034
 21
36.073249185042201
 31
0.0
  0
LINE
  5
CCA8
  8
0
 10
94.652996183994034
 20
50.073249185042201
 30
0.0
 11
103.98632951732731
 21
50.073249185042201
 31
0.0
  0
LINE
  5
CCA9
  8
0
 10
103.98632951732731
 20
50.073249185042201
 30
0.0
 11
103.98632951732731
 21
36.073249185042201
 31
0.0
  0
POLYLINE
  5
CCAA
  8
0
 66
     1
 10
0.0
 20
0.0
 30
0.0
  0
VERTEX
  5
D30E
  8
0
 10
88.744882605930457
 20
56.807225890038737
 30
0.0
  0
VERTEX
  5
D30F
  8
0
 10
89.048038491213447
 20
57.122008410269622
 30
0.0
  0
VERTEX
  5
D310
  8
0
 10
89.373706535984127
 20
57.397303295212041
 30
0.0
  0
VERTEX
  5
D311
  8
0
 10
89.728429802964911
 20
57.624660262947707
 30
0.0
  0
VERTEX
  5
D312
  8
0
 10
89.869280521042356
 20
57.694192726698347
 30
0.0
  0
VERTEX
  5
D313
  8
0
 10
90.01979073180388
 20
57.75250157082597
 30
0.0
  0
VERTEX
  5
D314
  8
0
 10
90.133715764325416
 20
57.78456218876179
 30
0.0
  0
VERTEX
  5
D315
  8
0
 10
90.254213305443614
 20
57.805930586505589
 30
0.0
  0
VERTEX
  5
D316
  8
0
 10
90.454715795339553
 20
57.810542967480309
 30
0.0
  0
VERTEX
  5
D317
  8
0
 10
90.646880070345105
 20
57.778600025442529
 30
0.0
  0
VERTEX
  5
D318
  8
0
 10
90.868027307726024
 20
57.702681156806108
 30
0.0
  0
VERTEX
  5
D319
  8
0
 10
91.068587044056585
 20
57.601967525571737
 30
0.0
  0
VERTEX
  5
D31A
  8
0
 10
91.42380032521595
 20
57.365340548594943
 30
0.0
  0
VERTEX
  5
D31B
  8
0
 10
91.751010197286746
 20
57.080850423931679
 30
0.0
  0
VERTEX
  5
D31C
  8
0
 10
92.055563108705897
 20
56.75640779693849
 30
0.0
  0
VERTEX
  5
D31D
  8
0
 10
92.299784836963127
 20
56.451202480288593
 30
0.0
  0
VERTEX
  5
D31E
  8
0
 10
92.527435788547095
 20
56.119646345522149
 30
0.0
  0
VERTEX
  5
D31F
  8
0
 10
92.733833490985134
 20
55.765622217742397
 30
0.0
  0
VERTEX
  5
D320
  8
0
 10
92.900791470868853
 20
55.423472108020412
 30
0.0
  0
SEQEND
  5
D321
  8
0
  0
ARC
  5
CCAB
  8
0
 10
90.377996183994014
 20
56.198249185042201
 30
0.0
 40
2.8750000000000009
 50
0.0
 51
124.6136273444031
  0
ARC
  5
CCAC
  8
0
 10
94.652996183994034
 20
34.673249185042202
 30
0.0
 40
1.4000000000000039
 50
90.0
 51
180.0
  0
ARC
  5
CCAD
  8
0
 10
94.652996183994034
 20
51.473249185042206
 30
0.0
 40
1.4000000000000019
 50
180.0
 51
270.0
  0
LINE
  5
CCAF
  8
0
 10
92.040537954542231
 20
30.000000005040629
 30
0.0
 11
88.714511350561281
 21
29.999999994959371
 31
0.0
  0
POLYLINE
  5
CCB0
  8
0
 66
     1
 10
0.0
 20
0.0
 30
0.0
  0
VERTEX
  5
D322
  8
0
 10
92.040537954542231
 20
30.000000005040629
 30
0.0
  0
VERTEX
  5
D323
  8
0
 10
92.055563108705243
 20
30.000060761281901
 30
0.0
  0
VERTEX
  5
D324
  8
0
 10
92.299784164128326
 20
30.020510442134128
 30
0.0
  0
VERTEX
  5
D325
  8
0
 10
92.527434544400137
 20
30.07968745327328
 30
0.0
  0
VERTEX
  5
D326
  8
0
 10
92.733831823226126
 20
30.180518507156979
 30
0.0
  0
VERTEX
  5
D327
  8
0
 10
92.900791470859076
 20
30.312208193307491
 30
0.0
  0
SEQEND
  5
D328
  8
0
  0
ARC
  5
CCB2
  8
0
 10
113.7529961839942
 20
43.073249185042172
 30
0.0
 40
32.000000000000199
 50
161.492471074278
 51
198.50752892572191
  0
ARC
  5
CCB3
  8
0
 10
86.13428438496635
 20
33.82812162711987
 30
0.0
 40
2.874999999999921
 50
198.50752606530199
 51
219.74252706004279
  0
ARC
  5
CCB4
  8
0
 10
86.13428438496635
 20
52.318376742964531
 30
0.0
 40
2.874999999999917
 50
140.25747293995721
 51
161.49247393469909
  0
POLYLINE
  5
CCB7
  8
0
 66
     1
 10
0.0
 20
0.0
 30
0.0
  0
VERTEX
  5
D329
  8
0
 10
93.252996183994014
 20
53.58723260504307
 30
0.0
  0
VERTEX
  5
D32A
  8
0
 10
93.250684208102015
 20
53.754234221400303
 30
0.0
  0
VERTEX
  5
D32B
  8
0
 10
93.229572225713071
 20
54.107164275962838
 30
0.0
  0
VERTEX
  5
D32C
  8
0
 10
93.184110948662351
 20
54.4590613334381
 30
0.0
  0
VERTEX
  5
D32D
  8
0
 10
93.109202487776756
 20
54.816354565746892
 30
0.0
  0
VERTEX
  5
D32E
  8
0
 10
93.003028315460938
 20
55.166572273368899
 30
0.0
  0
VERTEX
  5
D32F
  8
0
 10
92.900791470868853
 20
55.423472108020412
 30
0.0
  0
SEQEND
  5
D330
  8
0
  0
POLYLINE
  5
CCB8
  8
0
 66
     1
 10
0.0
 20
0.0
 30
0.0
  0
VERTEX
  5
D331
  8
0
 10
87.415029622781617
 20
55.423472108035469
 30
0.0
  0
VERTEX
  5
D332
  8
0
 10
87.698526954415556
 20
55.704969366255412
 30
0.0
  0
VERTEX
  5
D333
  8
0
 10
87.976976315656998
 20
55.987047403435632
 30
0.0
  0
VERTEX
  5
D334
  8
0
 10
88.25396262877797
 20
56.274337100760746
 30
0.0
  0
VERTEX
  5
D335
  8
0
 10
88.521105596953191
 20
56.559696349153761
 30
0.0
  0
VERTEX
  5
D336
  8
0
 10
88.744882605930457
 20
56.807225890038737
 30
0.0
  0
SEQEND
  5
D337
  8
0
  0
POLYLINE
  5
CCB9
  8
0
 66
     1
 10
0.0
 20
0.0
 30
0.0
  0
VERTEX
  5
D338
  8
0
 10
87.415029622781617
 20
55.423472108035469
 30
0.0
  0
VERTEX
  5
D339
  8
0
 10
86.904357179143105
 20
54.89630994574437
 30
0.0
  0
VERTEX
  5
D33A
  8
0
 10
86.419951127287547
 20
54.344086934436888
 30
0.0
  0
VERTEX
  5
D33B
  8
0
 10
85.966594439672917
 20
53.769279329960298
 30
0.0
  0
VERTEX
  5
D33C
  8
0
 10
85.549070088757276
 20
53.174363388161829
 30
0.0
  0
VERTEX
  5
D33D
  8
0
 10
85.172161046998596
 20
52.56181536488883
 30
0.0
  0
VERTEX
  5
D33E
  8
0
 10
84.865979365845021
 20
51.98566450890884
 30
0.0
  0
VERTEX
  5
D33F
  8
0
 10
84.600095577247771
 20
51.396010813592127
 30
0.0
  0
VERTEX
  5
D340
  8
0
 10
84.379421736749237
 20
50.798398643344733
 30
0.0
  0
VERTEX
  5
D341
  8
0
 10
84.208869899891965
 20
50.198372362572677
 30
0.0
  0
VERTEX
  5
D342
  8
0
 10
84.092053324912854
 20
49.594228015959381
 30
0.0
  0
VERTEX
  5
D343
  8
0
 10
84.031651607820663
 20
48.993118512013652
 30
0.0
  0
VERTEX
  5
D344
  8
0
 10
84.028614426116278
 20
48.403199067855653
 30
0.0
  0
VERTEX
  5
D345
  8
0
 10
84.083891457300453
 20
47.832624900605552
 30
0.0
  0
VERTEX
  5
D346
  8
0
 10
84.181531409489594
 20
47.346191148644557
 30
0.0
  0
VERTEX
  5
D347
  8
0
 10
84.322227104220985
 20
46.877856136240389
 30
0.0
  0
VERTEX
  5
D348
  8
0
 10
84.502873321323307
 20
46.430657759967502
 30
0.0
  0
VERTEX
  5
D349
  8
0
 10
84.72036484062545
 20
46.007633916400309
 30
0.0
  0
VERTEX
  5
D34A
  8
0
 10
84.998893725855169
 20
45.57121741677318
 30
0.0
  0
VERTEX
  5
D34B
  8
0
 10
85.315965091756595
 20
45.162205380671701
 30
0.0
  0
VERTEX
  5
D34C
  8
0
 10
85.667472807710155
 20
44.780708056631141
 30
0.0
  0
VERTEX
  5
D34D
  8
0
 10
86.049310743096157
 20
44.42683569318676
 30
0.0
  0
VERTEX
  5
D34E
  8
0
 10
86.457372767294999
 20
44.100698538873807
 30
0.0
  0
VERTEX
  5
D34F
  8
0
 10
86.923411609100185
 20
43.778614516842978
 30
0.0
  0
VERTEX
  5
D350
  8
0
 10
87.415029622766326
 20
43.48406725379968
 30
0.0
  0
SEQEND
  5
D351
  8
0
  0
POLYLINE
  5
CCBA
  8
0
 66
     1
 10
0.0
 20
0.0
 30
0.0
  0
VERTEX
  5
D352
  8
0
 10
87.415029622785923
 20
30.312208193298162
 30
0.0
  0
VERTEX
  5
D353
  8
0
 10
87.698521846313724
 20
30.201475939603881
 30
0.0
  0
VERTEX
  5
D354
  8
0
 10
87.976966315675838
 20
30.113008737905751
 30
0.0
  0
VERTEX
  5
D355
  8
0
 10
88.253947741977228
 20
30.04744119213208
 30
0.0
  0
VERTEX
  5
D356
  8
0
 10
88.521086364693133
 20
30.00913701389436
 30
0.0
  0
VERTEX
  5
D357
  8
0
 10
88.714510458612835
 20
30.00000003709328
 30
0.0
  0
SEQEND
  5
D358
  8
0
  0
POLYLINE
  5
CCBB
  8
0
 66
     1
 10
0.0
 20
0.0
 30
0.0
  0
VERTEX
  5
D359
  8
0
 10
87.415029622785923
 20
30.312208193298162
 30
0.0
  0
VERTEX
  5
D35A
  8
0
 10
86.787359868372846
 20
30.583571603129268
 30
0.0
  0
VERTEX
  5
D35B
  8
0
 10
86.203379202945015
 20
30.843789708451791
 30
0.0
  0
VERTEX
  5
D35C
  8
0
 10
85.832931755323955
 20
31.012530030503601
 30
0.0
  0
VERTEX
  5
D35D
  8
0
 10
85.488090926521764
 20
31.172023304148809
 30
0.0
  0
VERTEX
  5
D35E
  8
0
 10
85.172170813308739
 20
31.3200810836321
 30
0.0
  0
VERTEX
  5
D35F
  8
0
 10
84.868966101458341
 20
31.46382041320107
 30
0.0
  0
VERTEX
  5
D360
  8
0
 10
84.605872382801167
 20
31.589770992138678
 30
0.0
  0
VERTEX
  5
D361
  8
0
 10
84.382010177492759
 20
31.697768273947929
 30
0.0
  0
VERTEX
  5
D362
  8
0
 10
84.208873526902153
 20
31.781793818143711
 30
0.0
  0
VERTEX
  5
D363
  8
0
 10
84.092649212407466
 20
31.83841738325156
 30
0.0
  0
VERTEX
  5
D364
  8
0
 10
84.031144624333251
 20
31.8684596028512
 30
0.0
  0
VERTEX
  5
D365
  8
0
 10
84.021346392530916
 20
31.873249185041999
 30
0.0
  0
SEQEND
  5
D366
  8
0
  0
ARC
  5
CCBC
  8
0
 10
102.37782978220351
 20
38.812346314749249
 30
0.0
 40
23.999999999999449
 50
124.6136245780984
 51
140.25747293995721
  0
ARC
  5
CCBD
  8
0
 10
102.3778297820905
 20
47.334152055240111
 30
0.0
 40
23.999999999851831
 50
219.74252706003739
 51
220.10604177406529
  0
POLYLINE
  5
CCC0
  8
0
 66
     1
 10
0.0
 20
0.0
 30
0.0
  0
VERTEX
  5
D367
  8
0
 10
92.900791470866125
 20
43.48406725379968
 30
0.0
  0
VERTEX
  5
D368
  8
0
 10
93.030162395507276
 20
43.678057526567642
 30
0.0
  0
VERTEX
  5
D369
  8
0
 10
93.127587468848333
 20
43.884206802488649
 30
0.0
  0
VERTEX
  5
D36A
  8
0
 10
93.196996895720076
 20
44.108178553674207
 30
0.0
  0
VERTEX
  5
D36B
  8
0
 10
93.237675542401234
 20
44.341527072135413
 30
0.0
  0
VERTEX
  5
D36C
  8
0
 10
93.252996183994014
 20
44.6200309304825
 30
0.0
  0
SEQEND
  5
D36D
  8
0
  0
LINE
  5
CCC1
  8
0
 10
93.252996183994014
 20
56.198249185042201
 30
0.0
 11
93.252996183994014
 21
31.012484019601029
 31
0.0
  0
POLYLINE
  5
CCC2
  8
0
 66
     1
 10
0.0
 20
0.0
 30
0.0
  0
VERTEX
  5
D36E
  8
0
 10
93.252996183994014
 20
31.012484019601029
 30
0.0
  0
VERTEX
  5
D36F
  8
0
 10
93.25068458381611
 20
30.956619478879031
 30
0.0
  0
VERTEX
  5
D370
  8
0
 10
93.229573512041995
 20
30.833326522028589
 30
0.0
  0
VERTEX
  5
D371
  8
0
 10
93.184113310862983
 20
30.703432272527468
 30
0.0
  0
VERTEX
  5
D372
  8
0
 10
93.109206155584005
 20
30.56446050945425
 30
0.0
  0
VERTEX
  5
D373
  8
0
 10
93.003033479242845
 20
30.421427660567812
 30
0.0
  0
VERTEX
  5
D374
  8
0
 10
92.900791470864249
 20
30.31220819330651
 30
0.0
  0
SEQEND
  5
D375
  8
0
  0
LINE
  5
CCC7
  8
0
 10
87.415029622766326
 20
43.48406725379968
 30
0.0
 11
92.900791470866125
 21
43.48406725379968
 31
0.0
  0
LINE
  5
CCD1
  8
1
 10
26.876795047757671
 20
43.073249185042201
 30
0.0
 11
64.876792757446339
 21
43.073249185042201
 31
0.0
  0
LINE
  5
CCD2
  8
1
 10
45.876793902602003
 20
24.073250330197862
 30
0.0
 11
45.876793902602003
 21
62.073248039886543
 31
0.0
  0
POLYLINE
  5
CCD3
  8
0
 66
     1
 10
0.0
 20
0.0
 30
0.0
  0
VERTEX
  5
D376
  8
0
 10
37.565869895960759
 20
30.000238412395639
 30
0.0
  0
VERTEX
  5
D377
  8
0
 10
37.186034267807372
 20
30.02856797842049
 30
0.0
  0
VERTEX
  5
D378
  8
0
 10
36.828891882368403
 20
30.09656696565251
 30
0.0
  0
VERTEX
  5
D379
  8
0
 10
36.510757507930812
 20
30.192877930341211
 30
0.0
  0
VERTEX
  5
D37A
  8
0
 10
36.407605695070231
 20
30.232477183607241
 30
0.0
  0
VERTEX
  5
D37B
  8
0
 10
36.318676455633863
 20
30.269889456334109
 30
0.0
  0
VERTEX
  5
D37C
  8
0
 10
36.268687721700871
 20
30.29235124744039
 30
0.0
  0
VERTEX
  5
D37D
  8
0
 10
36.234919102930803
 20
30.30810341536387
 30
0.0
  0
VERTEX
  5
D37E
  8
0
 10
36.222970001274803
 20
30.31379449128255
 30
0.0
  0
SEQEND
  5
D37F
  8
0
  0
ARC
  5
CCD4
  8
0
 10
45.875169537590921
 20
43.071812019555281
 30
0.0
 40
15.997873831874511
 50
187.10091569629139
 51
232.89032594375709
  0
POLYLINE
  5
CCD5
  8
0
 66
     1
 10
0.0
 20
0.0
 30
0.0
  0
VERTEX
  5
D380
  8
0
 10
30.0
 20
41.094197473361319
 30
0.0
  0
VERTEX
  5
D381
  8
0
 10
30.004556162344329
 20
41.147126929856611
 30
0.0
  0
VERTEX
  5
D382
  8
0
 10
30.01467679453555
 20
41.239333382442702
 30
0.0
  0
VERTEX
  5
D383
  8
0
 10
30.030964202724821
 20
41.354269926713073
 30
0.0
  0
VERTEX
  5
D384
  8
0
 10
30.092807189005271
 20
41.645642090669831
 30
0.0
  0
VERTEX
  5
D385
  8
0
 10
30.191273365559201
 20
41.959445851255303
 30
0.0
  0
VERTEX
  5
D386
  8
0
 10
30.32784677202585
 20
42.276585463262172
 30
0.0
  0
VERTEX
  5
D387
  8
0
 10
30.399772466221862
 20
42.412283252692511
 30
0.0
  0
SEQEND
  5
D388
  8
0
  0
POLYLINE
  5
CCD6
  8
0
 66
     1
 10
0.0
 20
0.0
 30
0.0
  0
VERTEX
  5
D389
  8
0
 10
61.353815338982152
 20
42.412283252692198
 30
0.0
  0
VERTEX
  5
D38A
  8
0
 10
61.519199029203151
 20
42.069171166436611
 30
0.0
  0
VERTEX
  5
D38B
  8
0
 10
61.638881371548109
 20
41.725877294262283
 30
0.0
  0
VERTEX
  5
D38C
  8
0
 10
61.714540816683503
 20
41.402209361837961
 30
0.0
  0
VERTEX
  5
D38D
  8
0
 10
61.731822763814527
 20
41.29307764482121
 30
0.0
  0
VERTEX
  5
D38E
  8
0
 10
61.743887404937929
 20
41.197356527966647
 30
0.0
  0
VERTEX
  5
D38F
  8
0
 10
61.74942929019187
 20
41.142834118924483
 30
0.0
  0
VERTEX
  5
D390
  8
0
 10
61.752671821990468
 20
41.105713553257161
 30
0.0
  0
VERTEX
  5
D391
  8
0
 10
61.75332054599761
 20
41.097530334305922
 30
0.0
  0
SEQEND
  5
D392
  8
0
  0
ARC
  5
CCD7
  8
0
 10
45.881694930346207
 20
43.06891710427044
 30
0.0
 40
15.993588261556321
 50
307.10657004591218
 51
352.91965427919268
  0
POLYLINE
  5
CCD8
  8
0
 66
     1
 10
0.0
 20
0.0
 30
0.0
  0
VERTEX
  5
D393
  8
0
 10
55.530617802162169
 20
30.31379449043645
 30
0.0
  0
VERTEX
  5
D394
  8
0
 10
55.529098939510497
 20
30.313067725745331
 30
0.0
  0
VERTEX
  5
D395
  8
0
 10
55.480979411873143
 20
30.290547307550749
 30
0.0
  0
VERTEX
  5
D396
  8
0
 10
55.396060463866093
 20
30.253206629834342
 30
0.0
  0
VERTEX
  5
D397
  8
0
 10
55.288372659843439
 20
30.209841728145818
 30
0.0
  0
VERTEX
  5
D398
  8
0
 10
55.005103075211188
 20
30.117711458933321
 30
0.0
  0
VERTEX
  5
D399
  8
0
 10
54.684095127312268
 20
30.046084654898671
 30
0.0
  0
VERTEX
  5
D39A
  8
0
 10
54.341144333655159
 20
30.005794564787141
 30
0.0
  0
VERTEX
  5
D39B
  8
0
 10
54.18771790924302
 20
30.000238412395468
 30
0.0
  0
SEQEND
  5
D39C
  8
0
  0
POLYLINE
  5
CCD9
  8
0
 66
     1
 10
0.0
 20
0.0
 30
0.0
  0
VERTEX
  5
D39D
  8
0
 10
38.710696472863113
 20
56.807225890038737
 30
0.0
  0
VERTEX
  5
D39E
  8
0
 10
38.925148410795487
 20
57.122008410269622
 30
0.0
  0
VERTEX
  5
D39F
  8
0
 10
39.162608453889618
 20
57.397303295212041
 30
0.0
  0
VERTEX
  5
D3A0
  8
0
 10
39.405083383191823
 20
57.624660262947707
 30
0.0
  0
VERTEX
  5
D3A1
  8
0
 10
39.490953248921407
 20
57.694192726698347
 30
0.0
  0
VERTEX
  5
D3A2
  8
0
 10
39.567817847234323
 20
57.75250157082597
 30
0.0
  0
VERTEX
  5
D3A3
  8
0
 10
39.612264695913268
 20
57.78456218876179
 30
0.0
  0
VERTEX
  5
D3A4
  8
0
 10
39.642790782884681
 20
57.805930586505589
 30
0.0
  0
VERTEX
  5
D3A5
  8
0
 10
39.653693946275382
 20
57.813433271558416
 30
0.0
  0
SEQEND
  5
D3A6
  8
0
  0
ARC
  5
CCDA
  8
0
 10
45.8767938951517
 20
43.073234689628983
 30
0.0
 40
16.000013350257529
 50
67.11122783502627
 51
112.88877201404161
  0
POLYLINE
  5
CCDB
  8
0
 66
     1
 10
0.0
 20
0.0
 30
0.0
  0
VERTEX
  5
D3A7
  8
0
 10
52.099893882857877
 20
57.813433255165037
 30
0.0
  0
VERTEX
  5
D3A8
  8
0
 10
52.101283574672323
 20
57.812480671408878
 30
0.0
  0
VERTEX
  5
D3A9
  8
0
 10
52.144849441166521
 20
57.782066101241433
 30
0.0
  0
VERTEX
  5
D3AA
  8
0
 10
52.219651531387463
 20
57.72719079299516
 30
0.0
  0
VERTEX
  5
D3AB
  8
0
 10
52.311055290902679
 20
57.655608522983073
 30
0.0
  0
VERTEX
  5
D3AC
  8
0
 10
52.532484987961482
 20
57.456345147752252
 30
0.0
  0
VERTEX
  5
D3AD
  8
0
 10
52.755025265040551
 20
57.214145954476592
 30
0.0
  0
VERTEX
  5
D3AE
  8
0
 10
52.961396287527229
 20
56.937273676692612
 30
0.0
  0
VERTEX
  5
D3AF
  8
0
 10
53.042891332341178
 20
56.807225890038609
 30
0.0
  0
SEQEND
  5
D3B0
  8
0
  0
POLYLINE
  5
CCDC
  8
0
 66
     1
 10
0.0
 20
0.0
 30
0.0
  0
VERTEX
  5
D3B1
  8
0
 10
38.272017528299671
 20
55.423472108035469
 30
0.0
  0
VERTEX
  5
D3B2
  8
0
 10
38.206073385497909
 20
54.760506918768769
 30
0.0
  0
VERTEX
  5
D3B3
  8
0
 10
38.105789211941783
 20
54.059351440354263
 30
0.0
  0
VERTEX
  5
D3B4
  8
0
 10
37.966523795321173
 20
53.324842109993718
 30
0.0
  0
VERTEX
  5
D3B5
  8
0
 10
37.783635923326017
 20
52.56181536488883
 30
0.0
  0
VERTEX
  5
D3B6
  8
0
 10
37.618578451688222
 20
51.98566450890884
 30
0.0
  0
VERTEX
  5
D3B7
  8
0
 10
37.42510748789789
 20
51.396010813592127
 30
0.0
  0
VERTEX
  5
D3B8
  8
0
 10
37.203051294315912
 20
50.798398643344733
 30
0.0
  0
VERTEX
  5
D3B9
  8
0
 10
36.95223813330341
 20
50.198372362572677
 30
0.0
  0
VERTEX
  5
D3BA
  8
0
 10
36.669102615240547
 20
49.594228015959381
 30
0.0
  0
VERTEX
  5
D3BB
  8
0
 10
36.356071689609173
 20
48.993118512013652
 30
0.0
  0
VERTEX
  5
D3BC
  8
0
 10
36.017238313586518
 20
48.403199067855653
 30
0.0
  0
VERTEX
  5
D3BD
  8
0
 10
35.65669544434968
 20
47.832624900605552
 30
0.0
  0
VERTEX
  5
D3BE
  8
0
 10
35.20572567697684
 20
47.187918487197379
 30
0.0
  0
VERTEX
  5
D3BF
  8
0
 10
34.7329848389017
 20
46.577187845786192
 30
0.0
  0
VERTEX
  5
D3C0
  8
0
 10
34.247539115228278
 20
46.007633916400309
 30
0.0
  0
VERTEX
  5
D3C1
  8
0
 10
33.740221944758218
 20
45.466390932708869
 30
0.0
  0
VERTEX
  5
D3C2
  8
0
 10
33.22859197713035
 20
44.968010489110348
 30
0.0
  0
VERTEX
  5
D3C3
  8
0
 10
32.718778478042282
 20
44.512707914775191
 30
0.0
  0
VERTEX
  5
D3C4
  8
0
 10
32.21691071319146
 20
44.100698538873807
 30
0.0
  0
VERTEX
  5
D3C5
  8
0
 10
31.793411176890292
 20
43.778614516842978
 30
0.0
  0
VERTEX
  5
D3C6
  8
0
 10
31.378798921750221
 20
43.48406725379968
 30
0.0
  0
SEQEND
  5
D3C7
  8
0
  0
POLYLINE
  5
CCDD
  8
0
 66
     1
 10
0.0
 20
0.0
 30
0.0
  0
VERTEX
  5
D3C8
  8
0
 10
53.042891332340901
 20
56.807225890038737
 30
0.0
  0
VERTEX
  5
D3C9
  8
0
 10
53.189129248501608
 20
56.531036526257942
 30
0.0
  0
VERTEX
  5
D3CA
  8
0
 10
53.305041869080242
 20
56.24945599242858
 30
0.0
  0
VERTEX
  5
D3CB
  8
0
 10
53.393029678730613
 20
55.960642326658643
 30
0.0
  0
VERTEX
  5
D3CC
  8
0
 10
53.452615414154927
 20
55.669887782928612
 30
0.0
  0
VERTEX
  5
D3CD
  8
0
 10
53.481570276905579
 20
55.423472108020412
 30
0.0
  0
SEQEND
  5
D3CE
  8
0
  0
POLYLINE
  5
CCDF
  8
0
 66
     1
 10
0.0
 20
0.0
 30
0.0
  0
VERTEX
  5
D3CF
  8
0
 10
38.272017528299671
 20
55.423472108035469
 30
0.0
  0
VERTEX
  5
D3D0
  8
0
 10
38.306577104165228
 20
55.704354565797082
 30
0.0
  0
VERTEX
  5
D3D1
  8
0
 10
38.367378937363583
 20
55.987047403435632
 30
0.0
  0
VERTEX
  5
D3D2
  8
0
 10
38.457225367251567
 20
56.273464124225342
 30
0.0
  0
VERTEX
  5
D3D3
  8
0
 10
38.578058423903833
 20
56.559696349153761
 30
0.0
  0
VERTEX
  5
D3D4
  8
0
 10
38.710696472863113
 20
56.807225890038737
 30
0.0
  0
SEQEND
  5
D3D5
  8
0
  0
POLYLINE
  5
CCE0
  8
0
 66
     1
 10
0.0
 20
0.0
 30
0.0
  0
VERTEX
  5
D3D6
  8
0
 10
30.399772466221862
 20
42.412283252692212
 30
0.0
  0
VERTEX
  5
D3D7
  8
0
 10
30.565840513430661
 20
42.677023684974138
 30
0.0
  0
VERTEX
  5
D3D8
  8
0
 10
30.751740098648611
 20
42.918197225929042
 30
0.0
  0
VERTEX
  5
D3D9
  8
0
 10
30.957866165340189
 20
43.138803737194493
 30
0.0
  0
VERTEX
  5
D3DA
  8
0
 10
31.179874118763848
 20
43.335783769640067
 30
0.0
  0
VERTEX
  5
D3DB
  8
0
 10
31.378798921750221
 20
43.48406725379968
 30
0.0
  0
SEQEND
  5
D3DC
  8
0
  0
POLYLINE
  5
CCE2
  8
0
 66
     1
 10
0.0
 20
0.0
 30
0.0
  0
VERTEX
  5
D3DD
  8
0
 10
38.983575296036243
 20
30.312208193298162
 30
0.0
  0
VERTEX
  5
D3DE
  8
0
 10
38.72304899602824
 20
30.201698236925701
 30
0.0
  0
VERTEX
  5
D3DF
  8
0
 10
38.447834284951227
 20
30.113008737905751
 30
0.0
  0
VERTEX
  5
D3E0
  8
0
 10
38.154873055230951
 20
30.047609732311042
 30
0.0
  0
VERTEX
  5
D3E1
  8
0
 10
37.846578912964283
 20
30.00913701389436
 30
0.0
  0
VERTEX
  5
D3E2
  8
0
 10
37.565869895960759
 20
30.000238412395639
 30
0.0
  0
SEQEND
  5
D3E3
  8
0
  0
POLYLINE
  5
CCE3
  8
0
 66
     1
 10
0.0
 20
0.0
 30
0.0
  0
VERTEX
  5
D3E4
  8
0
 10
38.983575296036243
 20
30.312208193298162
 30
0.0
  0
VERTEX
  5
D3E5
  8
0
 10
39.583431032435783
 20
30.583571603129268
 30
0.0
  0
VERTEX
  5
D3E6
  8
0
 10
40.230297959368613
 20
30.843789708451791
 30
0.0
  0
VERTEX
  5
D3E7
  8
0
 10
40.943121559489327
 20
31.093569326236729
 30
0.0
  0
VERTEX
  5
D3E8
  8
0
 10
41.706016481460267
 20
31.3200810836321
 30
0.0
  0
VERTEX
  5
D3E9
  8
0
 10
42.280473435840968
 20
31.46382041320107
 30
0.0
  0
VERTEX
  5
D3EA
  8
0
 10
42.878303901441313
 20
31.589770992138678
 30
0.0
  0
VERTEX
  5
D3EB
  8
0
 10
43.513873404329161
 20
31.697768273947929
 30
0.0
  0
VERTEX
  5
D3EC
  8
0
 10
44.168517678855551
 20
31.781793818143711
 30
0.0
  0
VERTEX
  5
D3ED
  8
0
 10
44.822383134066172
 20
31.83841738325156
 30
0.0
  0
VERTEX
  5
D3EE
  8
0
 10
45.485330379378638
 20
31.8684596028512
 30
0.0
  0
VERTEX
  5
D3EF
  8
0
 10
46.176635373840377
 20
31.870375165540601
 30
0.0
  0
VERTEX
  5
D3F0
  8
0
 10
46.865089522528713
 20
31.842697258398829
 30
0.0
  0
VERTEX
  5
D3F1
  8
0
 10
47.44813703974858
 20
31.795873960709649
 30
0.0
  0
VERTEX
  5
D3F2
  8
0
 10
48.02081860707051
 20
31.72894715348966
 30
0.0
  0
VERTEX
  5
D3F3
  8
0
 10
48.593840342308788
 20
31.640842940123729
 30
0.0
  0
VERTEX
  5
D3F4
  8
0
 10
49.150158079379707
 20
31.53482914895989
 30
0.0
  0
VERTEX
  5
D3F5
  8
0
 10
49.864458874217512
 20
31.368330923931481
 30
0.0
  0
VERTEX
  5
D3F6
  8
0
 10
50.542505679783631
 20
31.17786069962396
 30
0.0
  0
VERTEX
  5
D3F7
  8
0
 10
51.199951820597562
 20
30.961777888136051
 30
0.0
  0
VERTEX
  5
D3F8
  8
0
 10
51.81692570233804
 20
30.7297236726777
 30
0.0
  0
VERTEX
  5
D3F9
  8
0
 10
52.30690550407968
 20
30.52431279122937
 30
0.0
  0
VERTEX
  5
D3FA
  8
0
 10
52.770012509150263
 20
30.3122081933065
 30
0.0
  0
SEQEND
  5
D3FB
  8
0
  0
POLYLINE
  5
CCE4
  8
0
 66
     1
 10
0.0
 20
0.0
 30
0.0
  0
VERTEX
  5
D3FC
  8
0
 10
54.18771790924324
 20
30.000238412395639
 30
0.0
  0
VERTEX
  5
D3FD
  8
0
 10
53.875411945873743
 20
30.01168734389438
 30
0.0
  0
VERTEX
  5
D3FE
  8
0
 10
53.5735997400771
 20
30.052094336768711
 30
0.0
  0
VERTEX
  5
D3FF
  8
0
 10
53.279485863735083
 20
30.120301491273079
 30
0.0
  0
VERTEX
  5
D400
  8
0
 10
52.997892174887049
 20
30.21407600255742
 30
0.0
  0
VERTEX
  5
D401
  8
0
 10
52.770012509150263
 20
30.3122081933065
 30
0.0
  0
SEQEND
  5
D402
  8
0
  0
POLYLINE
  5
CCE6
  8
0
 66
     1
 10
0.0
 20
0.0
 30
0.0
  0
VERTEX
  5
D403
  8
0
 10
60.374788883472199
 20
43.484067253787039
 30
0.0
  0
VERTEX
  5
D404
  8
0
 10
60.600752491100423
 20
43.313703117712301
 30
0.0
  0
VERTEX
  5
D405
  8
0
 10
60.815163662237069
 20
43.119709100471887
 30
0.0
  0
VERTEX
  5
D406
  8
0
 10
61.018278354530139
 20
42.898702016739868
 30
0.0
  0
VERTEX
  5
D407
  8
0
 10
61.205741352604939
 20
42.650954219017997
 30
0.0
  0
VERTEX
  5
D408
  8
0
 10
61.353815338982152
 20
42.412283252692198
 30
0.0
  0
SEQEND
  5
D409
  8
0
  0
POLYLINE
  5
CCE7
  8
0
 66
     1
 10
0.0
 20
0.0
 30
0.0
  0
VERTEX
  5
D40A
  8
0
 10
60.374788883472199
 20
43.484067253787039
 30
0.0
  0
VERTEX
  5
D40B
  8
0
 10
59.833622263692583
 20
43.87265464067027
 30
0.0
  0
VERTEX
  5
D40C
  8
0
 10
59.276552229553943
 20
44.310075380825062
 30
0.0
  0
VERTEX
  5
D40D
  8
0
 10
58.710087619317328
 20
44.797930638056151
 30
0.0
  0
VERTEX
  5
D40E
  8
0
 10
58.140737271243843
 20
45.337821576168331
 30
0.0
  0
VERTEX
  5
D40F
  8
0
 10
57.724303584476843
 20
45.76884025352765
 30
0.0
  0
VERTEX
  5
D410
  8
0
 10
57.310382676002462
 20
46.231217308447249
 30
0.0
  0
VERTEX
  5
D411
  8
0
 10
56.903861983875913
 20
46.72232933363027
 30
0.0
  0
VERTEX
  5
D412
  8
0
 10
56.509628946152361
 20
47.239552921779783
 30
0.0
  0
VERTEX
  5
D413
  8
0
 10
56.12799054751963
 20
47.78682787748977
 30
0.0
  0
VERTEX
  5
D414
  8
0
 10
55.763927998782378
 20
48.358475917782428
 30
0.0
  0
VERTEX
  5
D415
  8
0
 10
55.42245751426605
 20
48.94687480685991
 30
0.0
  0
VERTEX
  5
D416
  8
0
 10
55.108595308296287
 20
49.544402308924418
 30
0.0
  0
VERTEX
  5
D417
  8
0
 10
54.775746508960701
 20
50.257307068159648
 30
0.0
  0
VERTEX
  5
D418
  8
0
 10
54.483207130892538
 20
50.972078525720519
 30
0.0
  0
VERTEX
  5
D419
  8
0
 10
54.23268034976735
 20
51.677264586133887
 30
0.0
  0
VERTEX
  5
D41A
  8
0
 10
54.017608048933418
 20
52.387234142222461
 30
0.0
  0
VERTEX
  5
D41B
  8
0
 10
53.841812061860878
 20
53.079507681238518
 30
0.0
  0
VERTEX
  5
D41C
  8
0
 10
53.702414280669473
 20
53.748669428185437
 30
0.0
  0
VERTEX
  5
D41D
  8
0
 10
53.596536597479137
 20
54.389303608066498
 30
0.0
  0
VERTEX
  5
D41E
  8
0
 10
53.529350980993968
 20
54.917120878103148
 30
0.0
  0
VERTEX
  5
D41F
  8
0
 10
53.481570276905579
 20
55.423472108020412
 30
0.0
  0
SEQEND
  5
D420
  8
0
  0
LINE
  5
D1EC
  8
0
 10
88.714510458612835
 20
30.00000003709328
 30
0.0
 11
88.714511350561281
 21
29.999999994959371
 31
0.0
  0
ENDSEC
  0
EOF
