  0
SECTION
  2
HEADER
  9
$ACADVER
  1
AC1009
  9
$INSBASE
 10
0.0
 20
0.0
 30
0.0
  9
$EXTMIN
 10
0.0
 20
-2.960436562073669
 30
0.0
  9
$EXTMAX
 10
149.6923095702233
 20
136.03385493689521
 30
0.0
  9
$LIMMIN
 10
0.0
 20
0.0
  9
$LIMMAX
 10
187.5
 20
135.0
  9
$ORTHOMODE
 70
     1
  9
$REGENMODE
 70
     1
  9
$FILLMODE
 70
     1
  9
$QTEXTMODE
 70
     0
  9
$MIRRTEXT
 70
     0
  9
$DRAGMODE
 70
     2
  9
$LTSCALE
 40
5.0
  9
$OSMODE
 70
    37
  9
$ATTMODE
 70
     1
  9
$TEXTSIZE
 40
0.2
  9
$TRACEWID
 40
0.05
  9
$TEXTSTYLE
  7
STANDARD
  9
$CLAYER
  8
0
  9
$CELTYPE
  6
BYLAYER
  9
$CECOLOR
 62
   256
  9
$DIMSCALE
 40
0.5
  9
$DIMASZ
 40
3.0
  9
$DIMEXO
 40
2.0
  9
$DIMDLI
 40
0.38
  9
$DIMRND
 40
0.0
  9
$DIMDLE
 40
0.0
  9
$DIMEXE
 40
2.0
  9
$DIMTP
 40
0.0
  9
$DIMTM
 40
0.0
  9
$DIMTXT
 40
3.2000000000000002
  9
$DIMCEN
 40
0.0
  9
$DIMTSZ
 40
0.0
  9
$DIMTOL
 70
     0
  9
$DIMLIM
 70
     0
  9
$DIMTIH
 70
     0
  9
$DIMTOH
 70
     0
  9
$DIMSE1
 70
     0
  9
$DIMSE2
 70
     0
  9
$DIMTAD
 70
     1
  9
$DIMZIN
 70
     8
  9
$DIMBLK
  1

  9
$DIMASO
 70
     1
  9
$DIMSHO
 70
     0
  9
$DIMPOST
  1

  9
$DIMAPOST
  1

  9
$DIMALT
 70
     0
  9
$DIMALTD
 70
     2
  9
$DIMALTF
 40
25.399999999999999
  9
$DIMLFAC
 40
1.0
  9
$DIMTOFL
 70
     1
  9
$DIMTVP
 40
1.6000000000000001
  9
$DIMTIX
 70
     1
  9
$DIMSOXD
 70
     0
  9
$DIMSAH
 70
     0
  9
$DIMBLK1
  1

  9
$DIMBLK2
  1

  9
$DIMSTYLE
  2
STANDARD
  9
$DIMCLRD
 70
     0
  9
$DIMCLRE
 70
     0
  9
$DIMCLRT
 70
     0
  9
$DIMTFAC
 40
1.0
  9
$DIMGAP
 40
1.0
  9
$LUNITS
 70
     2
  9
$LUPREC
 70
     1
  9
$SKETCHINC
 40
0.1
  9
$FILLETRAD
 40
1.5
  9
$AUNITS
 70
     0
  9
$AUPREC
 70
     1
  9
$MENU
  1
E:\r13\win\SUPPORT\ACAD
  9
$ELEVATION
 40
0.0
  9
$PELEVATION
 40
0.0
  9
$THICKNESS
 40
0.0
  9
$LIMCHECK
 70
     0
  9
$BLIPMODE
 70
     0
  9
$CHAMFERA
 40
1.0
  9
$CHAMFERB
 40
1.0
  9
$SKPOLY
 70
     0
  9
$TDCREATE
 40
2449839.7895949078
  9
$TDUPDATE
 40
2457534.4793321989
  9
$TDINDWG
 40
0.3457391898
  9
$TDUSRTIMER
 40
0.3457391898
  9
$USRTIMER
 70
     1
  9
$ANGBASE
 50
0.0
  9
$ANGDIR
 70
     0
  9
$PDMODE
 70
     0
  9
$PDSIZE
 40
0.0
  9
$PLINEWID
 40
0.0
  9
$COORDS
 70
     1
  9
$SPLFRAME
 70
     0
  9
$SPLINETYPE
 70
     6
  9
$SPLINESEGS
 70
     8
  9
$ATTDIA
 70
     0
  9
$ATTREQ
 70
     1
  9
$HANDLING
 70
     1
  9
$HANDSEED
  5
DF3C
  9
$SURFTAB1
 70
     6
  9
$SURFTAB2
 70
     6
  9
$SURFTYPE
 70
     6
  9
$SURFU
 70
     6
  9
$SURFV
 70
     6
  9
$UCSNAME
  2

  9
$UCSORG
 10
0.0
 20
0.0
 30
0.0
  9
$UCSXDIR
 10
1.0
 20
0.0
 30
0.0
  9
$UCSYDIR
 10
0.0
 20
1.0
 30
0.0
  9
$PUCSNAME
  2

  9
$PUCSORG
 10
0.0
 20
0.0
 30
0.0
  9
$PUCSXDIR
 10
1.0
 20
0.0
 30
0.0
  9
$PUCSYDIR
 10
0.0
 20
1.0
 30
0.0
  9
$USERI1
 70
     0
  9
$USERI2
 70
     1
  9
$USERI3
 70
     1
  9
$USERI4
 70
     0
  9
$USERI5
 70
     0
  9
$USERR1
 40
0.0
  9
$USERR2
 40
0.0
  9
$USERR3
 40
0.0
  9
$USERR4
 40
0.0
  9
$USERR5
 40
0.0
  9
$WORLDVIEW
 70
     1
  9
$SHADEDGE
 70
     3
  9
$SHADEDIF
 70
    70
  9
$TILEMODE
 70
     1
  9
$MAXACTVP
 70
    16
  9
$PLIMCHECK
 70
     0
  9
$PEXTMIN
 10
1.0000000000000000E+020
 20
1.0000000000000000E+020
 30
1.0000000000000000E+020
  9
$PEXTMAX
 10
-1.0000000000000000E+020
 20
-1.0000000000000000E+020
 30
-1.0000000000000000E+020
  9
$PLIMMIN
 10
0.0
 20
0.0
  9
$PLIMMAX
 10
12.0
 20
9.0
  9
$UNITMODE
 70
     0
  9
$VISRETAIN
 70
     0
  9
$PLINEGEN
 70
     0
  9
$PSLTSCALE
 70
     0
  0
ENDSEC
  0
SECTION
  2
TABLES
  0
TABLE
  2
VPORT
 70
     1
  0
VPORT
  2
*ACTIVE
 70
     0
 10
0.0
 20
0.0
 11
1.0
 21
1.0
 12
172.54273504273499
 22
95.0
 13
0.0
 23
0.0
 14
5.0
 24
5.0
 15
5.0
 25
5.0
 16
0.0
 26
0.0
 36
1.0
 17
0.0
 27
0.0
 37
0.0
 40
190.0
 41
1.816239316239316
 42
50.0
 43
0.0
 44
0.0
 50
0.0
 51
0.0
 71
     0
 72
   500
 73
     1
 74
     0
 75
     0
 76
     0
 77
     0
 78
     2
  0
ENDTAB
  0
TABLE
  2
LTYPE
 70
     4
  0
LTYPE
  2
CONTINUOUS
 70
     0
  3
Solid Line
 72
    65
 73
     0
 40
0.0
  0
LTYPE
  2
CENTER
 70
     0
  3
____ _ ____ _ ____ _ ____ _ ____ _ ____ _ ____
 72
    65
 73
     4
 40
2.0
 49
1.25
 49
-0.25
 49
0.25
 49
-0.25
  0
LTYPE
  2
HIDDEN
 70
     0
  3
_ _ _ _ _ _ _ _ _ _ _ _ _ _ _ _ _ _ _ _ _ _ _
 72
    65
 73
     2
 40
0.375
 49
0.25
 49
-0.125
  0
LTYPE
  2
PHANTOM2
 70
     0
  3
___ _ _ ___ _ _ ___ _ _ ___ _ _
 72
    65
 73
     6
 40
1.25
 49
0.625
 49
-0.125
 49
0.125
 49
-0.125
 49
0.125
 49
-0.125
  0
ENDTAB
  0
TABLE
  2
LAYER
 70
     5
  0
LAYER
  2
0
 70
     0
 62
     7
  6
CONTINUOUS
  0
LAYER
  2
1
 70
     0
 62
     1
  6
CENTER
  0
LAYER
  2
2
 70
     0
 62
     2
  6
HIDDEN
  0
LAYER
  2
DEFPOINTS
 70
     0
 62
     7
  6
CONTINUOUS
  0
LAYER
  2
3
 70
     0
 62
     3
  6
CONTINUOUS
  0
ENDTAB
  0
TABLE
  2
STYLE
 70
     2
  0
STYLE
  2
STANDARD
 70
     0
 40
0.0
 41
1.0
 50
0.0
 71
     0
 42
0.2
  3
TXT
  4
BIGFONT
  0
STYLE
  2
STANDARD1
 70
     0
 40
0.0
 41
1.0
 50
0.0
 71
     0
 42
3.0
  3
txt
  4

  0
ENDTAB
  0
TABLE
  2
VIEW
 70
     2
  0
VIEW
  2
ALL
 70
     0
 40
135.0
 10
110.4957983193277
 20
67.5
 41
0.0
 11
0.0
 21
0.0
 31
1.0
 12
0.0
 22
0.0
 32
0.0
 42
0.0
 43
0.0
 44
0.0
 50
0.0
 71
     0
  0
VIEW
  2
OLE1
 70
     0
 40
167.61635794673921
 10
902.4035316351866
 20
-84.898870369570844
 41
190.6608896488849
 11
0.0
 21
0.0
 31
1.0
 12
0.0
 22
0.0
 32
0.0
 42
50.0
 43
0.0
 44
0.0
 50
0.0
 71
     0
  0
ENDTAB
  0
TABLE
  2
UCS
 70
     0
  0
ENDTAB
  0
TABLE
  2
APPID
 70
    43
  0
APPID
  2
ACAD
 70
     0
  0
APPID
  2
GENIUS_GENODEF_13
 70
     0
  0
APPID
  2
GENIUS_GENFIL_13
 70
     0
  0
APPID
  2
GENIUS_GENOBJ-N-CHA_13
 70
     0
  0
APPID
  2
ACAD_MLEADERVER
 70
     0
  0
APPID
  2
ACAD_EXEMPT_FROM_CAD_STANDARDS
 70
     0
  0
APPID
  2
ACAD_DSTYLE_DIMRADIAL_EXTENSION
 70
     0
  0
APPID
  2
ACAD_DSTYLE_DIMJAG
 70
     0
  0
APPID
  2
ACAD_DSTYLE_DIMTALN
 70
     0
  0
APPID
  2
ACAD_NAV_VCDISPLAY
 70
     0
  0
APPID
  2
GENIUS_GENOREF_13
 70
     0
  0
APPID
  2
DCO15
 70
     0
  0
APPID
  2
GENIUS_GENOENT_13
 70
     0
  0
APPID
  2
GENIUS_GENBH_13
 70
     0
  0
APPID
  2
GENIUS_GENOBJ_13
 70
     0
  0
APPID
  2
GENIUS_GENOLIS_13
 70
     0
  0
APPID
  2
GENIUS_GENOBJ-NBEHI-BHF_13
 70
     0
  0
APPID
  2
GENIUS_GENOBJ-NBEHI-BHB_13
 70
     0
  0
APPID
  2
GENIUS_GENOBJ-F-PART_13
 70
     0
  0
APPID
  2
GENIUS_GEFSTDP_13
 70
     0
  0
APPID
  2
GENIUS_GENOBJ-N-RSSYM_13
 70
     0
  0
APPID
  2
GENIUS_GENSYMENT_13
 70
     0
  0
APPID
  2
GENIUS_GENOBJ-N-TIT_13
 70
     0
  0
APPID
  2
GENIUS_GENTITLE_13
 70
     0
  0
APPID
  2
GENIUS_GENZVEED_13
 70
     0
  0
APPID
  2
GENIUS_GENOBJ-N-LEADER_13
 70
     0
  0
APPID
  2
GENIUS_GENOBJ-N-FIL_13
 70
     0
  0
APPID
  2
GENIUS_GENOBJ-N-SEC_13
 70
     0
  0
APPID
  2
GENIUS_GENOBJ-N-CRS_13
 70
     0
  0
APPID
  2
GENIUS_GENOBJ-N-ZOO_13
 70
     0
  0
APPID
  2
GENIUS_GENZOO_13
 70
     0
  0
APPID
  2
GENIUS_GENOBJ-F-TOL_13
 70
     0
  0
APPID
  2
_CALL_MAC$
 70
     0
  0
APPID
  2
ASM_BASE
 70
     0
  0
APPID
  2
ASM_EXPLO_VER_2_00
 70
     0
  0
APPID
  2
ASM_CADM_VER_12_00
 70
     0
  0
APPID
  2
ASM_BASEFORO
 70
     0
  0
APPID
  2
ASM_BASETRAVI
 70
     0
  0
APPID
  2
ASM_BASETRAVI1
 70
     0
  0
APPID
  2
ASM_GRUPPI
 70
     0
  0
APPID
  2
ASM_CADM_ALBERO
 70
     0
  0
APPID
  2
ASM_GOLE
 70
     0
  0
APPID
  2
ACCMTRANSPARENCY
 70
     0
  0
ENDTAB
  0
TABLE
  2
DIMSTYLE
 70
     1
  0
DIMSTYLE
  2
STANDARD
 70
     0
  3

  4

  5

  6

  7

 40
1.0
 41
0.18
 42
0.0625
 43
0.38
 44
0.18
 45
0.0
 46
0.0
 47
0.0
 48
0.0
140
0.18
141
0.09
142
0.0
143
25.399999999999999
144
1.0
145
0.0
146
1.0
147
0.09
 71
     0
 72
     0
 73
     1
 74
     1
 75
     0
 76
     0
 77
     0
 78
     0
170
     0
171
     2
172
     0
173
     0
174
     0
175
     0
176
     0
177
     0
178
     0
  0
ENDTAB
  0
ENDSEC
  0
SECTION
  2
BLOCKS
  0
BLOCK
  8
0
  2
$MODEL_SPACE
 70
     0
 10
0.0
 20
0.0
 30
0.0
  3
$MODEL_SPACE
  1

  0
ENDBLK
  5
3C9
  8
0
  0
BLOCK
 67
     1
  8
0
  2
$PAPER_SPACE
 70
     0
 10
0.0
 20
0.0
 30
0.0
  3
$PAPER_SPACE
  1

  0
ENDBLK
  5
3C7
 67
     1
  8
0
  0
ENDSEC
  0
SECTION
  2
ENTITIES
  0
TEXT
  5
BE37
  8
0
 62
     3
 10
0.0
 20
0.0
 30
0.0
 40
10.0
  1
TRIK40-M8X20
  7
STANDARD1
  0
LINE
  5
D3F5
  8
1
 10
149.6923095702233
 20
116.18771593303281
 30
0.0
 11
96.692309570223344
 21
116.18771593303281
 31
0.0
  0
LINE
  5
D3F6
  8
0
 10
113.1923095702233
 20
99.652388268420708
 30
0.0
 11
113.1923095702233
 21
132.7230435976449
 31
0.0
  0
POLYLINE
  5
D3F7
  8
0
 66
     1
 10
0.0
 20
0.0
 30
0.0
  0
VERTEX
  5
DD9D
  8
0
 10
112.8382859937322
 20
134.31020965909451
 30
0.0
  0
VERTEX
  5
DD9E
  8
0
 10
112.6666248639589
 20
134.61945167548831
 30
0.0
  0
VERTEX
  5
DD9F
  8
0
 10
112.4719288552523
 20
134.89683889884009
 30
0.0
  0
VERTEX
  5
DDA0
  8
0
 10
112.4555703116941
 20
134.91752120115541
 30
0.0
  0
SEQEND
  5
DDA1
  8
0
  0
POLYLINE
  5
D3FB
  8
0
 66
     1
 10
0.0
 20
0.0
 30
0.0
  0
VERTEX
  5
DDA2
  8
0
 10
112.4555703116941
 20
134.91752120115541
 30
0.0
  0
VERTEX
  5
DDA3
  8
0
 10
112.2486266415234
 20
135.15167390641949
 30
0.0
  0
VERTEX
  5
DDA4
  8
0
 10
112.0076285491826
 20
135.37218446776569
 30
0.0
  0
VERTEX
  5
DDA5
  8
0
 10
111.74112275340219
 20
135.5655958618764
 30
0.0
  0
VERTEX
  5
DDA6
  8
0
 10
111.4594678362741
 20
135.72374086010299
 30
0.0
  0
VERTEX
  5
DDA7
  8
0
 10
111.15425637431051
 20
135.85068706078539
 30
0.0
  0
VERTEX
  5
DDA8
  8
0
 10
110.8296857566891
 20
135.9428286293313
 30
0.0
  0
VERTEX
  5
DDA9
  8
0
 10
110.6398922833437
 20
135.9792676716219
 30
0.0
  0
VERTEX
  5
DDAA
  8
0
 10
110.4373922139626
 20
136.0060898780487
 30
0.0
  0
VERTEX
  5
DDAB
  8
0
 10
110.2654864961639
 20
136.02065999913771
 30
0.0
  0
VERTEX
  5
DDAC
  8
0
 10
110.0756196629021
 20
136.0298543652635
 30
0.0
  0
VERTEX
  5
DDAD
  8
0
 10
109.9583269587298
 20
136.03271681293191
 30
0.0
  0
VERTEX
  5
DDAE
  8
0
 10
109.83395390809
 20
136.03385493689521
 30
0.0
  0
VERTEX
  5
DDAF
  8
0
 10
109.7119789935869
 20
136.0332316319367
 30
0.0
  0
VERTEX
  5
DDB0
  8
0
 10
109.5894699475586
 20
136.0307808749217
 30
0.0
  0
VERTEX
  5
DDB1
  8
0
 10
109.4188726757401
 20
136.02369332432909
 30
0.0
  0
VERTEX
  5
DDB2
  8
0
 10
109.2568433624171
 20
136.01191385953749
 30
0.0
  0
VERTEX
  5
DDB3
  8
0
 10
109.0173229720757
 20
135.9828497542741
 30
0.0
  0
VERTEX
  5
DDB4
  8
0
 10
108.794919578323
 20
135.940570858813
 30
0.0
  0
VERTEX
  5
DDB5
  8
0
 10
108.371907025163
 20
135.81036661338149
 30
0.0
  0
VERTEX
  5
DDB6
  8
0
 10
108.05596755246459
 20
135.66204715531109
 30
0.0
  0
VERTEX
  5
DDB7
  8
0
 10
107.7552239915229
 20
135.47113048599641
 30
0.0
  0
SEQEND
  5
DDB8
  8
0
  0
POLYLINE
  5
D3FC
  8
0
 66
     1
 10
0.0
 20
0.0
 30
0.0
  0
VERTEX
  5
DDB9
  8
0
 10
107.7552239915229
 20
96.904301380069199
 30
0.0
  0
VERTEX
  5
DDBA
  8
0
 10
108.0067359521412
 20
96.741043379917727
 30
0.0
  0
VERTEX
  5
DDBB
  8
0
 10
108.27087928125999
 20
96.60727415630285
 30
0.0
  0
VERTEX
  5
DDBC
  8
0
 10
108.5546688804851
 20
96.500025874512545
 30
0.0
  0
VERTEX
  5
DDBD
  8
0
 10
108.8558029220178
 20
96.421668762967414
 30
0.0
  0
VERTEX
  5
DDBE
  8
0
 10
109.0401641427359
 20
96.389131038487534
 30
0.0
  0
VERTEX
  5
DDBF
  8
0
 10
109.2373009579528
 20
96.365331930927113
 30
0.0
  0
VERTEX
  5
DDC0
  8
0
 10
109.3987391994857
 20
96.352908333372596
 30
0.0
  0
VERTEX
  5
DDC1
  8
0
 10
109.576271201232
 20
96.345035733166668
 30
0.0
  0
VERTEX
  5
DDC2
  8
0
 10
109.6929563046121
 20
96.342455176356367
 30
0.0
  0
VERTEX
  5
DDC3
  8
0
 10
109.8163310570437
 20
96.341561170303791
 30
0.0
  0
VERTEX
  5
DDC4
  8
0
 10
109.93672000268811
 20
96.342384690136313
 30
0.0
  0
VERTEX
  5
DDC5
  8
0
 10
110.0571391269027
 20
96.344999452189228
 30
0.0
  0
VERTEX
  5
DDC6
  8
0
 10
110.2321242060447
 20
96.352684232189674
 30
0.0
  0
VERTEX
  5
DDC7
  8
0
 10
110.39797908837799
 20
96.365394874140776
 30
0.0
  0
VERTEX
  5
DDC8
  8
0
 10
110.6463956741067
 20
96.397211132785245
 30
0.0
  0
VERTEX
  5
DDC9
  8
0
 10
110.87700911566969
 20
96.443584256516445
 30
0.0
  0
VERTEX
  5
DDCA
  8
0
 10
111.3156723600955
 20
96.586610132175139
 30
0.0
  0
VERTEX
  5
DDCB
  8
0
 10
111.596753830442
 20
96.723392481763227
 30
0.0
  0
VERTEX
  5
DDCC
  8
0
 10
111.86371066639229
 20
96.892973695117277
 30
0.0
  0
VERTEX
  5
DDCD
  8
0
 10
112.12327398975521
 20
97.102963133995601
 30
0.0
  0
VERTEX
  5
DDCE
  8
0
 10
112.3651500190492
 20
97.349671513698425
 30
0.0
  0
VERTEX
  5
DDCF
  8
0
 10
112.45740961389799
 20
97.460218430135029
 30
0.0
  0
SEQEND
  5
DDD0
  8
0
  0
POLYLINE
  5
D400
  8
0
 66
     1
 10
0.0
 20
0.0
 30
0.0
  0
VERTEX
  5
DDD1
  8
0
 10
112.45740961389799
 20
97.460218430135029
 30
0.0
  0
VERTEX
  5
DDD2
  8
0
 10
112.6171009737435
 20
97.679311437697294
 30
0.0
  0
VERTEX
  5
DDD3
  8
0
 10
112.8382859937316
 20
98.065222206969878
 30
0.0
  0
SEQEND
  5
DDD4
  8
0
  0
LINE
  5
D401
  8
0
 10
126.6923095702233
 20
110.18771593303281
 30
0.0
 11
126.6923095702233
 21
122.18771593303281
 31
0.0
  0
LINE
  5
D402
  8
0
 10
126.6923095702233
 20
122.18771593303281
 30
0.0
 11
126.3923095702233
 21
122.18771593303281
 31
0.0
  0
LINE
  5
D403
  8
0
 10
126.3923095702233
 20
110.18771593303281
 30
0.0
 11
126.6923095702233
 21
110.18771593303281
 31
0.0
  0
LINE
  5
D404
  8
0
 10
126.3923095702233
 20
108.72104926636619
 30
0.0
 11
126.3923095702233
 21
123.6543825996994
 31
0.0
  0
LINE
  5
D405
  8
0
 10
126.3923095702233
 20
123.6543825996994
 30
0.0
 11
125.85897623689
 21
124.18771593303281
 31
0.0
  0
LINE
  5
D406
  8
0
 10
125.85897623689
 20
108.18771593303281
 30
0.0
 11
126.3923095702233
 21
108.72104926636619
 31
0.0
  0
LINE
  5
D407
  8
0
 10
125.85897623689
 20
108.18771593303281
 30
0.0
 11
125.85897623689
 21
124.18771593303281
 31
0.0
  0
LINE
  5
D408
  8
0
 10
125.85897623689
 20
124.18771593303281
 30
0.0
 11
114.7923095702233
 21
124.18771593303281
 31
0.0
  0
LINE
  5
D409
  8
0
 10
114.7923095702233
 20
108.18771593303281
 30
0.0
 11
125.85897623689
 21
108.18771593303281
 31
0.0
  0
ARC
  5
D40B
  8
0
 10
114.7923095702234
 20
125.7877159330328
 30
0.0
 40
1.6000000000000061
 50
180.0
 51
270.0
  0
ARC
  5
D40C
  8
0
 10
114.7923095702234
 20
106.5877159330328
 30
0.0
 40
1.6000000000000061
 50
90.0
 51
180.0
  0
ARC
  5
D40D
  8
0
 10
139.69230957022339
 20
116.18771593303281
 30
0.0
 40
40.000000000000071
 50
161.1111314644227
 51
198.8888685355769
  0
ARC
  5
D40F
  8
0
 10
105.039629175214
 20
128.04445943373011
 30
0.0
 40
3.375000000000115
 50
142.2258742234807
 51
161.1111347401048
  0
ARC
  5
D410
  8
0
 10
105.039629175214
 20
104.3309724323355
 30
0.0
 40
3.375000000000115
 50
198.888865259895
 51
217.77412577651921
  0
POLYLINE
  5
D412
  8
0
 66
     1
 10
0.0
 20
0.0
 30
0.0
  0
VERTEX
  5
DDD5
  8
0
 10
113.1923095702233
 20
99.652388268420708
 30
0.0
  0
VERTEX
  5
DDD6
  8
0
 10
113.1666802946026
 20
99.201494129256247
 30
0.0
  0
VERTEX
  5
DDD7
  8
0
 10
113.0831018990297
 20
98.739608116848316
 30
0.0
  0
VERTEX
  5
DDD8
  8
0
 10
112.9805260752147
 20
98.401786251619541
 30
0.0
  0
VERTEX
  5
DDD9
  8
0
 10
112.8382859937368
 20
98.065222206968045
 30
0.0
  0
SEQEND
  5
DDDA
  8
0
  0
POLYLINE
  5
D414
  8
0
 66
     1
 10
0.0
 20
0.0
 30
0.0
  0
VERTEX
  5
DDDB
  8
0
 10
112.83828599374129
 20
134.31020965909761
 30
0.0
  0
VERTEX
  5
DDDC
  8
0
 10
112.9769078747281
 20
133.983635427688
 30
0.0
  0
VERTEX
  5
DDDD
  8
0
 10
113.0795479529822
 20
133.64996185837921
 30
0.0
  0
VERTEX
  5
DDDE
  8
0
 10
113.1487423318099
 20
133.30776461077701
 30
0.0
  0
VERTEX
  5
DDDF
  8
0
 10
113.1849896862535
 20
132.96595134062949
 30
0.0
  0
VERTEX
  5
DDE0
  8
0
 10
113.1923095702233
 20
132.7230435976449
 30
0.0
  0
SEQEND
  5
DDE1
  8
0
  0
LINE
  5
D415
  8
0
 10
106.33530449684901
 20
125.69368639160071
 30
0.0
 11
112.8382859457592
 21
125.69368639160071
 31
0.0
  0
LINE
  5
D416
  8
0
 10
106.3353043867188
 20
106.6817454651534
 30
0.0
 11
112.8382859937379
 21
106.6817454651534
 31
0.0
  0
POLYLINE
  5
D419
  8
0
 66
     1
 10
0.0
 20
0.0
 30
0.0
  0
VERTEX
  5
DDE2
  8
0
 10
106.33530449684901
 20
125.69368639160071
 30
0.0
  0
VERTEX
  5
DDE3
  8
0
 10
105.83048591348221
 20
125.74621185708691
 30
0.0
  0
VERTEX
  5
DDE4
  8
0
 10
105.3496209058367
 20
125.81765671593421
 30
0.0
  0
VERTEX
  5
DDE5
  8
0
 10
104.8954810239161
 20
125.9096751007764
 30
0.0
  0
VERTEX
  5
DDE6
  8
0
 10
104.4597783953745
 20
126.0273415083839
 30
0.0
  0
VERTEX
  5
DDE7
  8
0
 10
104.0569800243161
 20
126.1704769172961
 30
0.0
  0
VERTEX
  5
DDE8
  8
0
 10
103.6909520398
 20
126.3405808162924
 30
0.0
  0
VERTEX
  5
DDE9
  8
0
 10
103.3337273263394
 20
126.5615532844529
 30
0.0
  0
VERTEX
  5
DDEA
  8
0
 10
103.02956306348329
 20
126.8190901243909
 30
0.0
  0
VERTEX
  5
DDEB
  8
0
 10
102.77765752667609
 20
127.1228974015489
 30
0.0
  0
VERTEX
  5
DDEC
  8
0
 10
102.5914045498527
 20
127.4667037824845
 30
0.0
  0
VERTEX
  5
DDED
  8
0
 10
102.477129191629
 20
127.84027151871059
 30
0.0
  0
VERTEX
  5
DDEE
  8
0
 10
102.4316913394491
 20
128.2492749504265
 30
0.0
  0
VERTEX
  5
DDEF
  8
0
 10
102.458795117688
 20
128.70723768376669
 30
0.0
  0
VERTEX
  5
DDF0
  8
0
 10
102.56014388975871
 20
129.19564393099679
 30
0.0
  0
VERTEX
  5
DDF1
  8
0
 10
102.7091289501617
 20
129.6465435614314
 30
0.0
  0
VERTEX
  5
DDF2
  8
0
 10
102.91114239124001
 20
130.1134431211949
 30
0.0
  0
VERTEX
  5
DDF3
  8
0
 10
103.1698428339192
 20
130.60441915941939
 30
0.0
  0
VERTEX
  5
DDF4
  8
0
 10
103.4770428709777
 20
131.1045963588777
 30
0.0
  0
VERTEX
  5
DDF5
  8
0
 10
103.79492763724519
 20
131.5639365533975
 30
0.0
  0
VERTEX
  5
DDF6
  8
0
 10
104.1470693262132
 20
132.02603760552969
 30
0.0
  0
VERTEX
  5
DDF7
  8
0
 10
104.530145562573
 20
132.48798717037911
 30
0.0
  0
VERTEX
  5
DDF8
  8
0
 10
104.9539229768916
 20
132.961127486816
 30
0.0
  0
VERTEX
  5
DDF9
  8
0
 10
105.40578067005291
 20
133.4309633890812
 30
0.0
  0
VERTEX
  5
DDFA
  8
0
 10
105.88282977424321
 20
133.8952730874519
 30
0.0
  0
VERTEX
  5
DDFB
  8
0
 10
106.3353043867187
 20
134.31020965909761
 30
0.0
  0
VERTEX
  5
DDFC
  8
0
 10
107.04058324871239
 20
134.91536750446539
 30
0.0
  0
SEQEND
  5
DDFD
  8
0
  0
POLYLINE
  5
D41A
  8
0
 66
     1
 10
0.0
 20
0.0
 30
0.0
  0
VERTEX
  5
DDFE
  8
0
 10
107.7552239915229
 20
135.47113048599641
 30
0.0
  0
VERTEX
  5
DDFF
  8
0
 10
107.42987039514411
 20
135.22642683240159
 30
0.0
  0
VERTEX
  5
DE00
  8
0
 10
107.08382116081771
 20
134.95079249734201
 30
0.0
  0
VERTEX
  5
DE01
  8
0
 10
107.04058324871239
 20
134.91536750446539
 30
0.0
  0
SEQEND
  5
DE02
  8
0
  0
POLYLINE
  5
D41C
  8
0
 66
     1
 10
0.0
 20
0.0
 30
0.0
  0
VERTEX
  5
DE03
  8
0
 10
107.0423867465053
 20
97.458582759856142
 30
0.0
  0
VERTEX
  5
DE04
  8
0
 10
106.3353043867187
 20
98.065222206968045
 30
0.0
  0
VERTEX
  5
DE05
  8
0
 10
105.8304899524356
 20
98.5296971381687
 30
0.0
  0
VERTEX
  5
DE06
  8
0
 10
105.3496286759944
 20
99.001144626584207
 30
0.0
  0
VERTEX
  5
DE07
  8
0
 10
104.8954920342016
 20
99.477492259418753
 30
0.0
  0
VERTEX
  5
DE08
  8
0
 10
104.4597923686907
 20
99.969634355549175
 30
0.0
  0
VERTEX
  5
DE09
  8
0
 10
104.0569962765896
 20
100.46373764988979
 30
0.0
  0
VERTEX
  5
DE0A
  8
0
 10
103.6909697735601
 20
100.9565486080306
 30
0.0
  0
VERTEX
  5
DE0B
  8
0
 10
103.3337421479747
 20
101.49572639945499
 30
0.0
  0
VERTEX
  5
DE0C
  8
0
 10
103.0295749385502
 20
102.0266024095104
 30
0.0
  0
VERTEX
  5
DE0D
  8
0
 10
102.77766637828201
 20
102.5583213791334
 30
0.0
  0
VERTEX
  5
DE0E
  8
0
 10
102.5914104144328
 20
103.071508473511
 30
0.0
  0
VERTEX
  5
DE0F
  8
0
 10
102.47713222844899
 20
103.5493193682119
 30
0.0
  0
VERTEX
  5
DE10
  8
0
 10
102.43169171222939
 20
103.9998573367273
 30
0.0
  0
VERTEX
  5
DE11
  8
0
 10
102.4587929827406
 20
104.4330368169371
 30
0.0
  0
VERTEX
  5
DE12
  8
0
 10
102.5601395671614
 20
104.8289502485996
 30
0.0
  0
VERTEX
  5
DE13
  8
0
 10
102.7091227076876
 20
105.1442167318453
 30
0.0
  0
VERTEX
  5
DE14
  8
0
 10
102.9111343462458
 20
105.42794535629331
 30
0.0
  0
VERTEX
  5
DE15
  8
0
 10
103.16983310563801
 20
105.6856173717857
 30
0.0
  0
VERTEX
  5
DE16
  8
0
 10
103.47703161233019
 20
105.91075523323251
 30
0.0
  0
VERTEX
  5
DE17
  8
0
 10
103.7949142812557
 20
106.0878932146579
 30
0.0
  0
VERTEX
  5
DE18
  8
0
 10
104.14705382660949
 20
106.2404281670195
 30
0.0
  0
VERTEX
  5
DE19
  8
0
 10
104.53012788876261
 20
106.3694438970995
 30
0.0
  0
VERTEX
  5
DE1A
  8
0
 10
104.95390304748381
 20
106.47914914392901
 30
0.0
  0
VERTEX
  5
DE1B
  8
0
 10
105.40575846687059
 20
106.5673628524258
 30
0.0
  0
VERTEX
  5
DE1C
  8
0
 10
105.8828052868672
 20
106.6356504950096
 30
0.0
  0
VERTEX
  5
DE1D
  8
0
 10
106.3353043867188
 20
106.6817454651534
 30
0.0
  0
SEQEND
  5
DE1E
  8
0
  0
ARC
  5
D41E
  8
0
 10
126.0848735799712
 20
120.64012056901061
 30
0.0
 40
29.999999999999719
 50
217.77412577651921
 51
230.59858764246101
  0
ARC
  5
D41F
  8
0
 10
126.0848735799715
 20
111.73531129705481
 30
0.0
 40
30.000000000000039
 50
129.4058700477469
 51
142.2258742234807
  0
POLYLINE
  5
D421
  8
0
 66
     1
 10
0.0
 20
0.0
 30
0.0
  0
VERTEX
  5
DE1F
  8
0
 10
107.0423867465053
 20
97.458582759856142
 30
0.0
  0
VERTEX
  5
DE20
  8
0
 10
107.06148302747729
 20
97.442915218654178
 30
0.0
  0
VERTEX
  5
DE21
  8
0
 10
107.4160467722897
 20
97.159731333030408
 30
0.0
  0
VERTEX
  5
DE22
  8
0
 10
107.7552239915229
 20
96.904301380069199
 30
0.0
  0
SEQEND
  5
DE23
  8
0
  0
POLYLINE
  5
D423
  8
0
 66
     1
 10
0.0
 20
0.0
 30
0.0
  0
VERTEX
  5
DE24
  8
0
 10
112.8382859937379
 20
106.6817454651534
 30
0.0
  0
VERTEX
  5
DE25
  8
0
 10
112.9769108605006
 20
106.6466192550529
 30
0.0
  0
VERTEX
  5
DE26
  8
0
 10
113.07955219491519
 20
106.6018423916926
 30
0.0
  0
VERTEX
  5
DE27
  8
0
 10
113.1487462492088
 20
106.5461569160852
 30
0.0
  0
VERTEX
  5
DE28
  8
0
 10
113.18499177980109
 20
106.4801658648047
 30
0.0
  0
VERTEX
  5
DE29
  8
0
 10
113.1923095702233
 20
106.4266757188539
 30
0.0
  0
SEQEND
  5
DE2A
  8
0
  0
POLYLINE
  5
D424
  8
0
 66
     1
 10
0.0
 20
0.0
 30
0.0
  0
VERTEX
  5
DE2B
  8
0
 10
113.1923095702233
 20
125.9487561472117
 30
0.0
  0
VERTEX
  5
DE2C
  8
0
 10
113.1666846866872
 20
125.8538496354153
 30
0.0
  0
VERTEX
  5
DE2D
  8
0
 10
113.0831212721786
 20
125.77570019743889
 30
0.0
  0
VERTEX
  5
DE2E
  8
0
 10
112.9805401538958
 20
125.7300245173748
 30
0.0
  0
VERTEX
  5
DE2F
  8
0
 10
112.8382859457592
 20
125.69368639160071
 30
0.0
  0
SEQEND
  5
DE30
  8
0
  0
LINE
  5
D439
  8
1
 10
149.6923095702233
 20
46.341561167753781
 30
0.0
 11
96.692309570223301
 21
46.341561167753781
 31
0.0
  0
LINE
  5
D43A
  8
0
 10
126.6923095702234
 20
40.341561167753781
 30
0.0
 11
126.3923095702233
 21
40.341561167753781
 31
0.0
  0
LINE
  5
D43B
  8
0
 10
126.3923095702233
 20
52.341561167753781
 30
0.0
 11
126.6923095702234
 21
52.341561167753781
 31
0.0
  0
LINE
  5
D43C
  8
0
 10
126.6923095702234
 20
52.341561167753781
 30
0.0
 11
126.6923095702234
 21
40.341561167753781
 31
0.0
  0
LINE
  5
D43D
  8
0
 10
126.3923095702233
 20
38.874894501087113
 30
0.0
 11
125.85897623689
 21
38.341561167753781
 31
0.0
  0
LINE
  5
D43E
  8
0
 10
125.85897623689
 20
54.341561167753781
 30
0.0
 11
126.3923095702233
 21
53.80822783442045
 31
0.0
  0
LINE
  5
D43F
  8
0
 10
126.3923095702233
 20
53.80822783442045
 30
0.0
 11
126.3923095702233
 21
38.874894501087113
 31
0.0
  0
LINE
  5
D440
  8
0
 10
125.85897623689
 20
38.341561167753781
 30
0.0
 11
114.7923095702233
 21
38.341561167753781
 31
0.0
  0
LINE
  5
D441
  8
0
 10
114.7923095702233
 20
54.341561167753781
 30
0.0
 11
125.85897623689
 21
54.341561167753781
 31
0.0
  0
LINE
  5
D442
  8
0
 10
125.85897623689
 20
54.341561167753781
 30
0.0
 11
125.85897623689
 21
38.341561167753781
 31
0.0
  0
ARC
  5
D443
  8
0
 10
114.7923095702233
 20
36.741561167753773
 30
0.0
 40
1.6000000000000061
 50
90.0
 51
180.0
  0
ARC
  5
D444
  8
0
 10
114.7923095702233
 20
55.94156116775379
 30
0.0
 40
1.6000000000000061
 50
180.0
 51
270.0
  0
POLYLINE
  5
D446
  8
0
 66
     1
 10
0.0
 20
0.0
 30
0.0
  0
VERTEX
  5
DE31
  8
0
 10
107.7552239915228
 20
63.400578494895527
 30
0.0
  0
VERTEX
  5
DE32
  8
0
 10
108.0960871753652
 20
63.787505021352537
 30
0.0
  0
VERTEX
  5
DE33
  8
0
 10
108.46189376943791
 20
64.131241712343723
 30
0.0
  0
VERTEX
  5
DE34
  8
0
 10
108.8558029220185
 20
64.42493086971146
 30
0.0
  0
VERTEX
  5
DE35
  8
0
 10
109.0406022247257
 20
64.536421858488126
 30
0.0
  0
VERTEX
  5
DE36
  8
0
 10
109.23730095795339
 20
64.633763860174355
 30
0.0
  0
VERTEX
  5
DE37
  8
0
 10
109.4004258768485
 20
64.696364922101111
 30
0.0
  0
VERTEX
  5
DE38
  8
0
 10
109.5762712012323
 20
64.742726388706572
 30
0.0
  0
VERTEX
  5
DE39
  8
0
 10
109.69464369919631
 20
64.760421879818225
 30
0.0
  0
VERTEX
  5
DE3A
  8
0
 10
109.8163310570439
 20
64.766790877877966
 30
0.0
  0
VERTEX
  5
DE3B
  8
0
 10
109.93838285115891
 20
64.760581922183945
 30
0.0
  0
VERTEX
  5
DE3C
  8
0
 10
110.0571391269028
 20
64.742964472855704
 30
0.0
  0
VERTEX
  5
DE3D
  8
0
 10
110.2339865197341
 20
64.696433860180619
 30
0.0
  0
VERTEX
  5
DE3E
  8
0
 10
110.39797908837819
 20
64.63347526135496
 30
0.0
  0
VERTEX
  5
DE3F
  8
0
 10
110.7297151410888
 20
64.458712434416114
 30
0.0
  0
VERTEX
  5
DE40
  8
0
 10
111.03244146284889
 20
64.24567549217673
 30
0.0
  0
VERTEX
  5
DE41
  8
0
 10
111.3156723600962
 20
64.0032892724616
 30
0.0
  0
VERTEX
  5
DE42
  8
0
 10
111.6927294952158
 20
63.620412800534289
 30
0.0
  0
VERTEX
  5
DE43
  8
0
 10
112.0443590266425
 20
63.188474607250129
 30
0.0
  0
VERTEX
  5
DE44
  8
0
 10
112.36515001904959
 20
62.713557501202438
 30
0.0
  0
VERTEX
  5
DE45
  8
0
 10
112.6190840608166
 20
62.260296870876942
 30
0.0
  0
VERTEX
  5
DE46
  8
0
 10
112.8382859457592
 20
61.77933994032162
 30
0.0
  0
SEQEND
  5
DE47
  8
0
  0
ARC
  5
D447
  8
0
 10
109.8173095702234
 20
62.966561167753781
 30
0.0
 40
3.3749999999999978
 50
0.0
 51
127.660999263926
  0
LINE
  5
D448
  8
0
 10
111.8233449494619
 20
30.000000218103811
 30
0.0
 11
107.81042679881
 21
29.9999997818962
 31
0.0
  0
POLYLINE
  5
D44A
  8
0
 66
     1
 10
0.0
 20
0.0
 30
0.0
  0
VERTEX
  5
DE48
  8
0
 10
111.8233449494619
 20
30.000000218103811
 30
0.0
  0
VERTEX
  5
DE49
  8
0
 10
112.0443590266422
 20
30.012739870458539
 30
0.0
  0
VERTEX
  5
DE4A
  8
0
 10
112.3651500190493
 20
30.08510745167651
 30
0.0
  0
VERTEX
  5
DE4B
  8
0
 10
112.61908408948889
 20
30.20810468155905
 30
0.0
  0
VERTEX
  5
DE4C
  8
0
 10
112.8382859937314
 20
30.39025992808493
 30
0.0
  0
SEQEND
  5
DE4D
  8
0
  0
ARC
  5
D44B
  8
0
 10
139.6923095702233
 20
46.34156116775376
 30
0.0
 40
39.999999999999957
 50
161.11113146442401
 51
198.8888685355754
  0
ARC
  5
D44C
  8
0
 10
105.039629175214
 20
34.484817667056518
 30
0.0
 40
3.375000000000115
 50
198.88886525989599
 51
217.7741257765199
  0
ARC
  5
D44D
  8
0
 10
105.039629175214
 20
58.198304668451037
 30
0.0
 40
3.375000000000115
 50
142.22587422347999
 51
161.11113474010389
  0
POLYLINE
  5
D450
  8
0
 66
     1
 10
0.0
 20
0.0
 30
0.0
  0
VERTEX
  5
DE4E
  8
0
 10
113.1923095702234
 20
59.79937372913173
 30
0.0
  0
VERTEX
  5
DE4F
  8
0
 10
113.1666846866872
 20
60.37477190203272
 30
0.0
  0
VERTEX
  5
DE50
  8
0
 10
113.0831212721787
 20
60.95318558136465
 30
0.0
  0
VERTEX
  5
DE51
  8
0
 10
112.9805401538958
 20
61.36968421242716
 30
0.0
  0
VERTEX
  5
DE52
  8
0
 10
112.8382859457592
 20
61.77933994032162
 30
0.0
  0
SEQEND
  5
DE53
  8
0
  0
POLYLINE
  5
D451
  8
0
 66
     1
 10
0.0
 20
0.0
 30
0.0
  0
VERTEX
  5
DE54
  8
0
 10
106.33530449684901
 20
61.77933994032162
 30
0.0
  0
VERTEX
  5
DE55
  8
0
 10
106.70293503214241
 20
62.180740780966389
 30
0.0
  0
VERTEX
  5
DE56
  8
0
 10
107.06148308195139
 20
62.582499427740579
 30
0.0
  0
VERTEX
  5
DE57
  8
0
 10
107.4177004251209
 20
62.994321391210768
 30
0.0
  0
VERTEX
  5
DE58
  8
0
 10
107.7552239915228
 20
63.400578494895527
 30
0.0
  0
SEQEND
  5
DE59
  8
0
  0
POLYLINE
  5
D452
  8
0
 66
     1
 10
0.0
 20
0.0
 30
0.0
  0
VERTEX
  5
DE5A
  8
0
 10
106.33530449684901
 20
61.77933994032162
 30
0.0
  0
VERTEX
  5
DE5B
  8
0
 10
105.7259237319028
 20
61.08908264504278
 30
0.0
  0
VERTEX
  5
DE5C
  8
0
 10
105.1510916906652
 20
60.369111312790693
 30
0.0
  0
VERTEX
  5
DE5D
  8
0
 10
104.61651478619569
 20
59.623055631227402
 30
0.0
  0
VERTEX
  5
DE5E
  8
0
 10
104.127899431554
 20
58.85454528801489
 30
0.0
  0
VERTEX
  5
DE5F
  8
0
 10
103.6909520398001
 20
58.067209970815163
 30
0.0
  0
VERTEX
  5
DE60
  8
0
 10
103.33024990107511
 20
57.30794526721634
 30
0.0
  0
VERTEX
  5
DE61
  8
0
 10
103.02300590159371
 20
56.534360602315623
 30
0.0
  0
VERTEX
  5
DE62
  8
0
 10
102.7748480987285
 20
55.754124108372082
 30
0.0
  0
VERTEX
  5
DE63
  8
0
 10
102.5914045498527
 20
54.974903917644781
 30
0.0
  0
VERTEX
  5
DE64
  8
0
 10
102.47689266430891
 20
54.195857305372492
 30
0.0
  0
VERTEX
  5
DE65
  8
0
 10
102.4333652891664
 20
53.425056874066371
 30
0.0
  0
VERTEX
  5
DE66
  8
0
 10
102.4610423793436
 20
52.672301406320123
 30
0.0
  0
VERTEX
  5
DE67
  8
0
 10
102.56014388975871
 20
51.947389684727447
 30
0.0
  0
VERTEX
  5
DE68
  8
0
 10
102.7113300042777
 20
51.3169240694655
 30
0.0
  0
VERTEX
  5
DE69
  8
0
 10
102.91729184416749
 20
50.712536066064153
 30
0.0
  0
VERTEX
  5
DE6A
  8
0
 10
103.1739044521575
 20
50.137752465011978
 30
0.0
  0
VERTEX
  5
DE6B
  8
0
 10
103.4770428709777
 20
49.596100056797603
 30
0.0
  0
VERTEX
  5
DE6C
  8
0
 10
103.86766678358011
 20
49.029516217298678
 30
0.0
  0
VERTEX
  5
DE6D
  8
0
 10
104.30894192355581
 20
48.501538513760742
 30
0.0
  0
VERTEX
  5
DE6E
  8
0
 10
104.7954837975569
 20
48.012029721990849
 30
0.0
  0
VERTEX
  5
DE6F
  8
0
 10
105.3219079122352
 20
47.560852617796122
 30
0.0
  0
VERTEX
  5
DE70
  8
0
 10
105.88282977424321
 20
47.147869976983671
 30
0.0
  0
VERTEX
  5
DE71
  8
0
 10
106.3353043867187
 20
46.855083753700619
 30
0.0
  0
SEQEND
  5
DE72
  8
0
  0
POLYLINE
  5
D453
  8
0
 66
     1
 10
0.0
 20
0.0
 30
0.0
  0
VERTEX
  5
DE73
  8
0
 10
106.3353043867187
 20
30.390259928084159
 30
0.0
  0
VERTEX
  5
DE74
  8
0
 10
106.7029349501325
 20
30.234581578504962
 30
0.0
  0
VERTEX
  5
DE75
  8
0
 10
107.06148302747729
 20
30.115552150759331
 30
0.0
  0
VERTEX
  5
DE76
  8
0
 10
107.4177003990803
 20
30.034684779780591
 30
0.0
  0
VERTEX
  5
DE77
  8
0
 10
107.7552239915228
 20
30.000724745749491
 30
0.0
  0
SEQEND
  5
DE78
  8
0
  0
POLYLINE
  5
D454
  8
0
 66
     1
 10
0.0
 20
0.0
 30
0.0
  0
VERTEX
  5
DE79
  8
0
 10
106.3353043867187
 20
30.390259928084159
 30
0.0
  0
VERTEX
  5
DE7A
  8
0
 10
105.8304878835315
 20
30.628100344869878
 30
0.0
  0
VERTEX
  5
DE7B
  8
0
 10
105.34962474702699
 20
30.85904337954981
 30
0.0
  0
VERTEX
  5
DE7C
  8
0
 10
104.8954864905824
 20
31.080937506062831
 30
0.0
  0
VERTEX
  5
DE7D
  8
0
 10
104.4597853489832
 20
31.297142938313939
 30
0.0
  0
VERTEX
  5
DE7E
  8
0
 10
104.0569881226413
 20
31.49977627284229
 30
0.0
  0
VERTEX
  5
DE7F
  8
0
 10
103.6909608838625
 20
31.686093330236961
 30
0.0
  0
VERTEX
  5
DE80
  8
0
 10
103.3337347180846
 20
31.8698092780472
 30
0.0
  0
VERTEX
  5
DE81
  8
0
 10
103.0295689857337
 20
32.02762167693129
 30
0.0
  0
VERTEX
  5
DE82
  8
0
 10
102.77766194108401
 20
32.159206442201842
 30
0.0
  0
VERTEX
  5
DE83
  8
0
 10
102.5914074745891
 20
32.256998247567978
 30
0.0
  0
VERTEX
  5
DE84
  8
0
 10
102.4771307061221
 20
32.317182772953331
 30
0.0
  0
VERTEX
  5
DE85
  8
0
 10
102.4316915253485
 20
32.341162375516127
 30
0.0
  0
VERTEX
  5
DE86
  8
0
 10
102.4309359982841
 20
32.341561167399249
 30
0.0
  0
SEQEND
  5
DE87
  8
0
  0
ARC
  5
D455
  8
0
 10
126.0848735799711
 20
41.889156531776038
 30
0.0
 40
29.999999999999581
 50
127.660999263926
 51
142.22587422347999
  0
POLYLINE
  5
D458
  8
0
 66
     1
 10
0.0
 20
0.0
 30
0.0
  0
VERTEX
  5
DE88
  8
0
 10
112.8382859937412
 20
46.855083753700619
 30
0.0
  0
VERTEX
  5
DE89
  8
0
 10
112.9773915126879
 20
47.085246446092263
 30
0.0
  0
VERTEX
  5
DE8A
  8
0
 10
113.0795479529822
 20
47.328539261210018
 30
0.0
  0
VERTEX
  5
DE8B
  8
0
 10
113.1488882603421
 20
47.591269054935921
 30
0.0
  0
VERTEX
  5
DE8C
  8
0
 10
113.1849896862535
 20
47.863947431270986
 30
0.0
  0
VERTEX
  5
DE8D
  8
0
 10
113.1923095702234
 20
48.065963679905238
 30
0.0
  0
SEQEND
  5
DE8E
  8
0
  0
LINE
  5
D459
  8
0
 10
113.1923095702234
 20
62.966561167753781
 30
0.0
 11
113.1923095702234
 21
31.159346094224372
 31
0.0
  0
POLYLINE
  5
D45A
  8
0
 66
     1
 10
0.0
 20
0.0
 30
0.0
  0
VERTEX
  5
DE8F
  8
0
 10
113.1923095702234
 20
31.159346094224372
 30
0.0
  0
VERTEX
  5
DE90
  8
0
 10
113.1666824905419
 20
30.953829577174741
 30
0.0
  0
VERTEX
  5
DE91
  8
0
 10
113.0831115851737
 20
30.732291920614919
 30
0.0
  0
VERTEX
  5
DE92
  8
0
 10
112.9805331230347
 20
30.563608104706411
 30
0.0
  0
VERTEX
  5
DE93
  8
0
 10
112.8382859937357
 20
30.390259928084149
 30
0.0
  0
SEQEND
  5
DE94
  8
0
  0
LINE
  5
D45B
  8
0
 10
107.7552239915228
 20
30.000724745749491
 30
0.0
 11
107.81042679881
 21
29.9999997818962
 31
0.0
  0
LINE
  5
D45F
  8
0
 10
106.3353043867187
 20
46.855083753700619
 30
0.0
 11
112.8382859937412
 21
46.855083753700619
 31
0.0
  0
LINE
  5
D469
  8
1
 10
26.846154804944319
 20
46.341561167753781
 30
0.0
 11
72.846154810044311
 21
46.341561167753781
 31
0.0
  0
LINE
  5
D46A
  8
1
 10
49.846154807494322
 20
23.341561165203789
 30
0.0
 11
49.846154807494322
 21
69.341561170303777
 31
0.0
  0
POLYLINE
  5
D46B
  8
0
 66
     1
 10
0.0
 20
0.0
 30
0.0
  0
VERTEX
  5
DE95
  8
0
 10
39.582484622650561
 20
30.000724745749491
 30
0.0
  0
VERTEX
  5
DE96
  8
0
 10
39.125193321475876
 20
30.01892346032966
 30
0.0
  0
VERTEX
  5
DE97
  8
0
 10
38.690199781949389
 20
30.084880989771559
 30
0.0
  0
VERTEX
  5
DE98
  8
0
 10
38.290886881717938
 20
30.189132906354828
 30
0.0
  0
VERTEX
  5
DE99
  8
0
 10
37.985514363979632
 20
30.300387641386639
 30
0.0
  0
VERTEX
  5
DE9A
  8
0
 10
37.88959447351931
 20
30.34132364126669
 30
0.0
  0
VERTEX
  5
DE9B
  8
0
 10
37.817081926200899
 20
30.37419612419745
 30
0.0
  0
VERTEX
  5
DE9C
  8
0
 10
37.778875571160711
 20
30.392242493956189
 30
0.0
  0
VERTEX
  5
DE9D
  8
0
 10
37.778874931139804
 20
30.39224280040834
 30
0.0
  0
SEQEND
  5
DE9E
  8
0
  0
ARC
  5
D46C
  8
0
 10
49.846155305808388
 20
46.341561417499278
 30
0.0
 40
20.000000499758631
 50
187.1112079611936
 51
232.88879150606419
  0
POLYLINE
  5
D46D
  8
0
 66
     1
 10
0.0
 20
0.0
 30
0.0
  0
VERTEX
  5
DE9F
  8
0
 10
30.0
 20
43.865649551523681
 30
0.0
  0
VERTEX
  5
DEA0
  8
0
 10
30.003089865605379
 20
43.9033524815408
 30
0.0
  0
VERTEX
  5
DEA1
  8
0
 10
30.01029687676737
 20
43.977989807467416
 30
0.0
  0
VERTEX
  5
DEA2
  8
0
 10
30.021956880989588
 20
44.076855201276132
 30
0.0
  0
VERTEX
  5
DEA3
  8
0
 10
30.06432653198738
 20
44.331027622941399
 30
0.0
  0
VERTEX
  5
DEA4
  8
0
 10
30.131165230272359
 20
44.615008742865072
 30
0.0
  0
VERTEX
  5
DEA5
  8
0
 10
30.223504127145588
 20
44.909658743282293
 30
0.0
  0
VERTEX
  5
DEA6
  8
0
 10
30.372535785473701
 20
45.268623219455307
 30
0.0
  0
VERTEX
  5
DEA7
  8
0
 10
30.562740254530699
 20
45.623380262616323
 30
0.0
  0
SEQEND
  5
DEA8
  8
0
  0
POLYLINE
  5
D46E
  8
0
 66
     1
 10
0.0
 20
0.0
 30
0.0
  0
VERTEX
  5
DEA9
  8
0
 10
69.129569360457936
 20
45.623380262616337
 30
0.0
  0
VERTEX
  5
DEAA
  8
0
 10
69.342454461902605
 20
45.218255021579367
 30
0.0
  0
VERTEX
  5
DEAB
  8
0
 10
69.502830335598276
 20
44.80856080114647
 30
0.0
  0
VERTEX
  5
DEAC
  8
0
 10
69.612201977559721
 20
44.410619727195588
 30
0.0
  0
VERTEX
  5
DEAD
  8
0
 10
69.668538809600022
 20
44.090532001700659
 30
0.0
  0
VERTEX
  5
DEAE
  8
0
 10
69.681047139004704
 20
43.986994939893748
 30
0.0
  0
VERTEX
  5
DEAF
  8
0
 10
69.688835007360467
 20
43.907760990357417
 30
0.0
  0
VERTEX
  5
DEB0
  8
0
 10
69.692309570223358
 20
43.865650131427238
 30
0.0
  0
VERTEX
  5
DEB1
  8
0
 10
69.692309614221074
 20
43.865649561470597
 30
0.0
  0
SEQEND
  5
DEB2
  8
0
  0
ARC
  5
D46F
  8
0
 10
49.846154753119087
 20
46.341561158721582
 30
0.0
 40
20.000000025206109
 50
307.11120792239808
 51
352.88879264500952
  0
POLYLINE
  5
D470
  8
0
 66
     1
 10
0.0
 20
0.0
 30
0.0
  0
VERTEX
  5
DEB3
  8
0
 10
61.913434682362087
 20
30.39224279969655
 30
0.0
  0
VERTEX
  5
DEB4
  8
0
 10
61.906038845121323
 20
30.388710863508472
 30
0.0
  0
VERTEX
  5
DEB5
  8
0
 10
61.879236851344842
 20
30.376066673374741
 30
0.0
  0
VERTEX
  5
DEB6
  8
0
 10
61.811793017304304
 20
30.345312160203509
 30
0.0
  0
VERTEX
  5
DEB7
  8
0
 10
61.71954271832692
 20
30.305653496682609
 30
0.0
  0
VERTEX
  5
DEB8
  8
0
 10
61.543169722063112
 20
30.237385781882679
 30
0.0
  0
VERTEX
  5
DEB9
  8
0
 10
61.344279764120763
 20
30.17137748001544
 30
0.0
  0
VERTEX
  5
DEBA
  8
0
 10
60.89752538300899
 20
30.063795031646421
 30
0.0
  0
VERTEX
  5
DEBB
  8
0
 10
60.513683220965213
 20
30.013445732201141
 30
0.0
  0
VERTEX
  5
DEBC
  8
0
 10
60.109824992338083
 20
30.00072474574948
 30
0.0
  0
SEQEND
  5
DEBD
  8
0
  0
POLYLINE
  5
D471
  8
0
 66
     1
 10
0.0
 20
0.0
 30
0.0
  0
VERTEX
  5
DEBE
  8
0
 10
40.826410439374449
 20
63.400578494895527
 30
0.0
  0
VERTEX
  5
DEBF
  8
0
 10
41.070816639104578
 20
63.787505021352537
 30
0.0
  0
VERTEX
  5
DEC0
  8
0
 10
41.345434304935452
 20
64.131241712343723
 30
0.0
  0
VERTEX
  5
DEC1
  8
0
 10
41.635375563205677
 20
64.42493086971146
 30
0.0
  0
VERTEX
  5
DEC2
  8
0
 10
41.884411248903518
 20
64.633763860174355
 30
0.0
  0
VERTEX
  5
DEC3
  8
0
 10
41.967822809958989
 20
64.696364922101111
 30
0.0
  0
VERTEX
  5
DEC4
  8
0
 10
42.032547488921693
 20
64.742726388706572
 30
0.0
  0
VERTEX
  5
DEC5
  8
0
 10
42.06727928109887
 20
64.766790877877966
 30
0.0
  0
VERTEX
  5
DEC6
  8
0
 10
42.067279730705252
 20
64.766791185893439
 30
0.0
  0
SEQEND
  5
DEC7
  8
0
  0
ARC
  5
D472
  8
0
 10
49.846154844742962
 20
46.341561434729662
 30
0.0
 40
19.999999735574111
 50
67.111207533034687
 51
112.88879307065839
  0
POLYLINE
  5
D473
  8
0
 66
     1
 10
0.0
 20
0.0
 30
0.0
  0
VERTEX
  5
DEC8
  8
0
 10
57.62502976464441
 20
64.766791267855027
 30
0.0
  0
VERTEX
  5
DEC9
  8
0
 10
57.631786976978283
 20
64.762151876413199
 30
0.0
  0
VERTEX
  5
DECA
  8
0
 10
57.656138587997702
 20
64.745262461241452
 30
0.0
  0
VERTEX
  5
DECB
  8
0
 10
57.716495875569713
 20
64.702230758138626
 30
0.0
  0
VERTEX
  5
DECC
  8
0
 10
57.796967667994288
 20
64.642167958251676
 30
0.0
  0
VERTEX
  5
DECD
  8
0
 10
57.944278277590172
 20
64.523555910955906
 30
0.0
  0
VERTEX
  5
DECE
  8
0
 10
58.100890488359987
 20
64.384313532925916
 30
0.0
  0
VERTEX
  5
DECF
  8
0
 10
58.417440761912466
 20
64.051197427052557
 30
0.0
  0
VERTEX
  5
DED0
  8
0
 10
58.652959034411651
 20
63.743961297632609
 30
0.0
  0
VERTEX
  5
DED1
  8
0
 10
58.865899175614167
 20
63.400578494895527
 30
0.0
  0
SEQEND
  5
DED2
  8
0
  0
POLYLINE
  5
D474
  8
0
 66
     1
 10
0.0
 20
0.0
 30
0.0
  0
VERTEX
  5
DED3
  8
0
 10
58.865899175614167
 20
63.400578494895527
 30
0.0
  0
VERTEX
  5
DED4
  8
0
 10
59.055264213788632
 20
63.008689098581108
 30
0.0
  0
VERTEX
  5
DED5
  8
0
 10
59.198152761104829
 20
62.607917242234841
 30
0.0
  0
VERTEX
  5
DED6
  8
0
 10
59.29754140206672
 20
62.194892002499202
 30
0.0
  0
VERTEX
  5
DED7
  8
0
 10
59.35212527537373
 20
61.779339821476597
 30
0.0
  0
SEQEND
  5
DED8
  8
0
  0
POLYLINE
  5
D476
  8
0
 66
     1
 10
0.0
 20
0.0
 30
0.0
  0
VERTEX
  5
DED9
  8
0
 10
40.340184348926407
 20
61.77933994032162
 30
0.0
  0
VERTEX
  5
DEDA
  8
0
 10
40.391945266143694
 20
62.179471487494347
 30
0.0
  0
VERTEX
  5
DEDB
  8
0
 10
40.486683518352152
 20
62.582499427740579
 30
0.0
  0
VERTEX
  5
DEDC
  8
0
 10
40.630282761000551
 20
62.992399046466033
 30
0.0
  0
VERTEX
  5
DEDD
  8
0
 10
40.826410439374449
 20
63.400578494895527
 30
0.0
  0
SEQEND
  5
DEDE
  8
0
  0
POLYLINE
  5
D477
  8
0
 66
     1
 10
0.0
 20
0.0
 30
0.0
  0
VERTEX
  5
DEDF
  8
0
 10
40.340184348926407
 20
61.77933994032162
 30
0.0
  0
VERTEX
  5
DEE0
  8
0
 10
40.252941631688373
 20
60.911733718271712
 30
0.0
  0
VERTEX
  5
DEE1
  8
0
 10
40.119658132510381
 20
59.999117160194089
 30
0.0
  0
VERTEX
  5
DEE2
  8
0
 10
39.934914135367478
 20
59.048579499803587
 30
0.0
  0
VERTEX
  5
DEE3
  8
0
 10
39.693289924234698
 20
58.067209970815163
 30
0.0
  0
VERTEX
  5
DEE4
  8
0
 10
39.469090174442272
 20
57.30794526721634
 30
0.0
  0
VERTEX
  5
DEE5
  8
0
 10
39.206503794827881
 20
56.534360602315623
 30
0.0
  0
VERTEX
  5
DEE6
  8
0
 10
38.905779738368828
 20
55.754124108372082
 30
0.0
  0
VERTEX
  5
DEE7
  8
0
 10
38.567166958042662
 20
54.974903917644781
 30
0.0
  0
VERTEX
  5
DEE8
  8
0
 10
38.18695707341687
 20
54.195857305372492
 30
0.0
  0
VERTEX
  5
DEE9
  8
0
 10
37.768395706155957
 20
53.425056874066371
 30
0.0
  0
VERTEX
  5
DEEA
  8
0
 10
37.31698492771028
 20
52.672301406320123
 30
0.0
  0
VERTEX
  5
DEEB
  8
0
 10
36.83822680953034
 20
51.947389684727447
 30
0.0
  0
VERTEX
  5
DEEC
  8
0
 10
36.382433199562229
 20
51.3169240694655
 30
0.0
  0
VERTEX
  5
DEED
  8
0
 10
35.908963579621179
 20
50.712536066064153
 30
0.0
  0
VERTEX
  5
DEEE
  8
0
 10
35.422887467664509
 20
50.137752465011978
 30
0.0
  0
VERTEX
  5
DEEF
  8
0
 10
34.929274381649407
 20
49.596100056797603
 30
0.0
  0
VERTEX
  5
DEF0
  8
0
 10
34.230820256931338
 20
48.89390782648789
 30
0.0
  0
VERTEX
  5
DEF1
  8
0
 10
33.527139281330683
 20
48.251984080416833
 30
0.0
  0
VERTEX
  5
DEF2
  8
0
 10
32.826856673745851
 20
47.67006080258269
 30
0.0
  0
VERTEX
  5
DEF3
  8
0
 10
32.13859765307518
 20
47.147869976983671
 30
0.0
  0
VERTEX
  5
DEF4
  8
0
 10
31.723661081429562
 20
46.855083753700619
 30
0.0
  0
SEQEND
  5
DEF5
  8
0
  0
POLYLINE
  5
D478
  8
0
 66
     1
 10
0.0
 20
0.0
 30
0.0
  0
VERTEX
  5
DEF6
  8
0
 10
30.562740254530699
 20
45.623380262616323
 30
0.0
  0
VERTEX
  5
DEF7
  8
0
 10
30.807443908125499
 20
45.983319894421243
 30
0.0
  0
VERTEX
  5
DEF8
  8
0
 10
31.083078243185131
 20
46.307450934480052
 30
0.0
  0
VERTEX
  5
DEF9
  8
0
 10
31.391074272719489
 20
46.600036642268442
 30
0.0
  0
VERTEX
  5
DEFA
  8
0
 10
31.723661081429562
 20
46.855083753700619
 30
0.0
  0
SEQEND
  5
DEFB
  8
0
  0
POLYLINE
  5
D47A
  8
0
 66
     1
 10
0.0
 20
0.0
 30
0.0
  0
VERTEX
  5
DEFC
  8
0
 10
41.229631549308969
 20
30.390259928084159
 30
0.0
  0
VERTEX
  5
DEFD
  8
0
 10
40.857226985358693
 20
30.235020403568779
 30
0.0
  0
VERTEX
  5
DEFE
  8
0
 10
40.460825400242179
 20
30.115552150759331
 30
0.0
  0
VERTEX
  5
DEFF
  8
0
 10
40.034042266808157
 20
30.034962922542888
 30
0.0
  0
VERTEX
  5
DF00
  8
0
 10
39.582484622650561
 20
30.000724745749491
 30
0.0
  0
SEQEND
  5
DF01
  8
0
  0
POLYLINE
  5
D47B
  8
0
 66
     1
 10
0.0
 20
0.0
 30
0.0
  0
VERTEX
  5
DF02
  8
0
 10
41.229631549308969
 20
30.390259928084159
 30
0.0
  0
VERTEX
  5
DF03
  8
0
 10
42.014870291674299
 20
30.744568505351889
 30
0.0
  0
VERTEX
  5
DF04
  8
0
 10
42.85789504906927
 20
31.080937506062831
 30
0.0
  0
VERTEX
  5
DF05
  8
0
 10
43.783005683375329
 20
31.40032762900664
 30
0.0
  0
VERTEX
  5
DF06
  8
0
 10
44.767860269496957
 20
31.686093330236961
 30
0.0
  0
VERTEX
  5
DF07
  8
0
 10
45.528009303347233
 20
31.8698092780472
 30
0.0
  0
VERTEX
  5
DF08
  8
0
 10
46.31642087573664
 20
32.02762167693129
 30
0.0
  0
VERTEX
  5
DF09
  8
0
 10
47.151945782191767
 20
32.159206442201842
 30
0.0
  0
VERTEX
  5
DF0A
  8
0
 10
48.008937912306912
 20
32.256998247567978
 30
0.0
  0
VERTEX
  5
DF0B
  8
0
 10
48.860315256989622
 20
32.317182772953331
 30
0.0
  0
VERTEX
  5
DF0C
  8
0
 10
49.719855439044302
 20
32.341162375516127
 30
0.0
  0
VERTEX
  5
DF0D
  8
0
 10
50.61099650466349
 20
32.326853262102453
 30
0.0
  0
VERTEX
  5
DF0E
  8
0
 10
51.49531518571041
 20
32.273451947278993
 30
0.0
  0
VERTEX
  5
DF0F
  8
0
 10
52.261480432584221
 20
32.195143945803821
 30
0.0
  0
VERTEX
  5
DF10
  8
0
 10
53.012107813681041
 20
32.08938994872657
 30
0.0
  0
VERTEX
  5
DF11
  8
0
 10
53.76075513271428
 20
31.954691544015539
 30
0.0
  0
VERTEX
  5
DF12
  8
0
 10
54.486069545260818
 20
31.795897219808008
 30
0.0
  0
VERTEX
  5
DF13
  8
0
 10
55.43270895866555
 20
31.545434528400069
 30
0.0
  0
VERTEX
  5
DF14
  8
0
 10
56.32814640907668
 20
31.262020593386531
 30
0.0
  0
VERTEX
  5
DF15
  8
0
 10
57.19315602850002
 20
30.943202381374761
 30
0.0
  0
VERTEX
  5
DF16
  8
0
 10
58.00163648643565
 20
30.603218227956511
 30
0.0
  0
VERTEX
  5
DF17
  8
0
 10
58.462678065679647
 20
30.390259928084149
 30
0.0
  0
SEQEND
  5
DF18
  8
0
  0
POLYLINE
  5
D47C
  8
0
 66
     1
 10
0.0
 20
0.0
 30
0.0
  0
VERTEX
  5
DF19
  8
0
 10
60.109824992338083
 20
30.00072474574948
 30
0.0
  0
VERTEX
  5
DF1A
  8
0
 10
59.675756300568757
 20
30.032674510258978
 30
0.0
  0
VERTEX
  5
DF1B
  8
0
 10
59.257233418192982
 20
30.109315326546469
 30
0.0
  0
VERTEX
  5
DF1C
  8
0
 10
58.849848747696797
 20
30.22975485849372
 30
0.0
  0
VERTEX
  5
DF1D
  8
0
 10
58.462678065679647
 20
30.390259928084149
 30
0.0
  0
SEQEND
  5
DF1E
  8
0
  0
POLYLINE
  5
D47E
  8
0
 66
     1
 10
0.0
 20
0.0
 30
0.0
  0
VERTEX
  5
DF1F
  8
0
 10
67.968648533559076
 20
46.855083753700619
 30
0.0
  0
VERTEX
  5
DF20
  8
0
 10
68.28929218743599
 20
46.610191703092113
 30
0.0
  0
VERTEX
  5
DF21
  8
0
 10
68.590955521872957
 20
46.32663198668552
 30
0.0
  0
VERTEX
  5
DF22
  8
0
 10
68.874139407496727
 20
45.997321565333181
 30
0.0
  0
VERTEX
  5
DF23
  8
0
 10
69.129569360457936
 20
45.623380262616337
 30
0.0
  0
SEQEND
  5
DF24
  8
0
  0
POLYLINE
  5
D47F
  8
0
 66
     1
 10
0.0
 20
0.0
 30
0.0
  0
VERTEX
  5
DF25
  8
0
 10
67.968648533559076
 20
46.855083753700619
 30
0.0
  0
VERTEX
  5
DF26
  8
0
 10
67.260907049998082
 20
47.364436610436982
 30
0.0
  0
VERTEX
  5
DF27
  8
0
 10
66.537206118440793
 20
47.936165986057439
 30
0.0
  0
VERTEX
  5
DF28
  8
0
 10
65.806394794177038
 20
48.57142087602184
 30
0.0
  0
VERTEX
  5
DF29
  8
0
 10
65.077322132496533
 20
49.271350275790041
 30
0.0
  0
VERTEX
  5
DF2A
  8
0
 10
64.531878286787034
 20
49.845144519294507
 30
0.0
  0
VERTEX
  5
DF2B
  8
0
 10
63.993226137742909
 20
50.459342698875382
 30
0.0
  0
VERTEX
  5
DF2C
  8
0
 10
63.467882019705428
 20
51.109895192664339
 30
0.0
  0
VERTEX
  5
DF2D
  8
0
 10
62.962362267016147
 20
51.792752378792983
 30
0.0
  0
VERTEX
  5
DF2E
  8
0
 10
62.477791216172527
 20
52.511547274680368
 30
0.0
  0
VERTEX
  5
DF2F
  8
0
 10
62.019537220091479
 20
53.25943275245028
 30
0.0
  0
VERTEX
  5
DF30
  8
0
 10
61.593335303700599
 20
54.026744461347477
 30
0.0
  0
VERTEX
  5
DF31
  8
0
 10
61.20492049192751
 20
54.80381805061679
 30
0.0
  0
VERTEX
  5
DF32
  8
0
 10
60.886816882766823
 20
55.513779729993722
 30
0.0
  0
VERTEX
  5
DF33
  8
0
 10
60.600135142312411
 20
56.226010647634347
 30
0.0
  0
VERTEX
  5
DF34
  8
0
 10
60.345394830507303
 20
56.934357047429948
 30
0.0
  0
VERTEX
  5
DF35
  8
0
 10
60.123115507294578
 20
57.63266517327181
 30
0.0
  0
VERTEX
  5
DF36
  8
0
 10
59.86422536164752
 20
58.588638779020037
 30
0.0
  0
VERTEX
  5
DF37
  8
0
 10
59.66014254875472
 20
59.519005015102657
 30
0.0
  0
VERTEX
  5
DF38
  8
0
 10
59.506322399687583
 20
60.41642822012146
 30
0.0
  0
VERTEX
  5
DF39
  8
0
 10
59.398220245517557
 20
61.273572732678247
 30
0.0
  0
VERTEX
  5
DF3A
  8
0
 10
59.35212527537373
 20
61.779339821476597
 30
0.0
  0
SEQEND
  5
DF3B
  8
0
  0
ARC
  5
D612
  8
0
 10
126.0848735799711
 20
50.793965803731531
 30
0.0
 40
29.999999999999581
 50
217.77412577651961
 51
217.95774469078239
  0
LINE
  5
DBC9
  8
0
 10
146.6923095702233
 20
43.108561167753777
 30
0.0
 11
145.92530957022339
 21
42.341561167753781
 31
0.0
  0
LINE
  5
DBCA
  8
0
 10
145.92530957022339
 20
50.341561167753781
 30
0.0
 11
146.6923095702233
 21
49.574561167753778
 31
0.0
  0
LINE
  5
DBCB
  8
0
 10
146.6923095702233
 20
49.574561167753778
 30
0.0
 11
146.6923095702233
 21
43.108561167753777
 31
0.0
  0
LINE
  5
DBCC
  8
0
 10
145.92530957022339
 20
42.341561167753781
 30
0.0
 11
126.6923095702233
 21
42.341561167753781
 31
0.0
  0
LINE
  5
DBCD
  8
0
 10
126.6923095702233
 20
50.341561167753781
 30
0.0
 11
145.92530957022339
 21
50.341561167753781
 31
0.0
  0
LINE
  5
DBCE
  8
0
 10
145.92530957022339
 20
50.341561167753781
 30
0.0
 11
145.92530957022339
 21
42.341561167753781
 31
0.0
  0
LINE
  5
DBED
  8
3
 10
146.6923095702233
 20
49.574561167753778
 30
0.0
 11
128.2923095702233
 21
49.574561167753778
 31
0.0
  0
LINE
  5
DBEE
  8
3
 10
126.6923095702233
 20
50.341561167753781
 30
0.0
 11
128.2923095702233
 21
49.574561167753778
 31
0.0
  0
LINE
  5
DBEF
  8
0
 10
128.2923095702233
 20
50.341561167753781
 30
0.0
 11
128.2923095702233
 21
42.341561167753781
 31
0.0
  0
LINE
  5
DBF0
  8
3
 10
146.6923095702233
 20
43.108561167753777
 30
0.0
 11
128.2923095702233
 21
43.108561167753777
 31
0.0
  0
LINE
  5
DBF1
  8
3
 10
126.6923095702233
 20
42.341561167753781
 30
0.0
 11
128.2923095702233
 21
43.108561167753777
 31
0.0
  0
LINE
  5
DC70
  8
0
 10
146.6923095702233
 20
112.9547159330328
 30
0.0
 11
145.92530957022339
 21
112.18771593303281
 31
0.0
  0
LINE
  5
DC71
  8
0
 10
145.92530957022339
 20
120.18771593303281
 30
0.0
 11
146.6923095702233
 21
119.4207159330328
 31
0.0
  0
LINE
  5
DC72
  8
0
 10
146.6923095702233
 20
119.4207159330328
 30
0.0
 11
146.6923095702233
 21
112.9547159330328
 31
0.0
  0
LINE
  5
DC73
  8
0
 10
145.92530957022339
 20
112.18771593303281
 30
0.0
 11
126.6923095702233
 21
112.18771593303281
 31
0.0
  0
LINE
  5
DC74
  8
0
 10
126.6923095702233
 20
120.18771593303281
 30
0.0
 11
145.92530957022339
 21
120.18771593303281
 31
0.0
  0
LINE
  5
DC75
  8
0
 10
145.92530957022339
 20
120.18771593303281
 30
0.0
 11
145.92530957022339
 21
112.18771593303281
 31
0.0
  0
LINE
  5
DC76
  8
3
 10
146.6923095702233
 20
119.4207159330328
 30
0.0
 11
128.2923095702233
 21
119.4207159330328
 31
0.0
  0
LINE
  5
DC77
  8
3
 10
126.6923095702233
 20
120.18771593303281
 30
0.0
 11
128.2923095702233
 21
119.4207159330328
 31
0.0
  0
LINE
  5
DC78
  8
0
 10
128.2923095702233
 20
120.18771593303281
 30
0.0
 11
128.2923095702233
 21
112.18771593303281
 31
0.0
  0
LINE
  5
DC79
  8
3
 10
146.6923095702233
 20
112.9547159330328
 30
0.0
 11
128.2923095702233
 21
112.9547159330328
 31
0.0
  0
LINE
  5
DC7A
  8
3
 10
126.6923095702233
 20
112.18771593303281
 30
0.0
 11
128.2923095702233
 21
112.9547159330328
 31
0.0
  0
ENDSEC
  0
EOF
