  0
SECTION
  2
HEADER
  9
$ACADVER
  1
AC1009
  9
$INSBASE
 10
0.0
 20
0.0
 30
0.0
  9
$EXTMIN
 10
0.0
 20
-2.960436562073669
 30
0.0
  9
$EXTMAX
 10
352.82193688842221
 20
197.2850119934792
 30
0.0
  9
$LIMMIN
 10
0.0
 20
0.0
  9
$LIMMAX
 10
385.0
 20
270.0
  9
$ORTHOMODE
 70
     1
  9
$REGENMODE
 70
     1
  9
$FILLMODE
 70
     1
  9
$QTEXTMODE
 70
     0
  9
$MIRRTEXT
 70
     0
  9
$DRAGMODE
 70
     2
  9
$LTSCALE
 40
10.0
  9
$OSMODE
 70
    55
  9
$ATTMODE
 70
     1
  9
$TEXTSIZE
 40
4.0
  9
$TRACEWID
 40
0.05
  9
$TEXTSTYLE
  7
STANDARD
  9
$CLAYER
  8
0
  9
$CELTYPE
  6
BYLAYER
  9
$CECOLOR
 62
   256
  9
$DIMSCALE
 40
1.0
  9
$DIMASZ
 40
3.0
  9
$DIMEXO
 40
1.0
  9
$DIMDLI
 40
6.0
  9
$DIMRND
 40
0.0
  9
$DIMDLE
 40
0.0
  9
$DIMEXE
 40
1.0
  9
$DIMTP
 40
495.0
  9
$DIMTM
 40
0.0
  9
$DIMTXT
 40
3.0
  9
$DIMCEN
 40
0.0
  9
$DIMTSZ
 40
0.0
  9
$DIMTOL
 70
     0
  9
$DIMLIM
 70
     0
  9
$DIMTIH
 70
     0
  9
$DIMTOH
 70
     0
  9
$DIMSE1
 70
     0
  9
$DIMSE2
 70
     0
  9
$DIMTAD
 70
     1
  9
$DIMZIN
 70
     0
  9
$DIMBLK
  1

  9
$DIMASO
 70
     0
  9
$DIMSHO
 70
     0
  9
$DIMPOST
  1

  9
$DIMAPOST
  1

  9
$DIMALT
 70
     0
  9
$DIMALTD
 70
     2
  9
$DIMALTF
 40
25.399999999999999
  9
$DIMLFAC
 40
1.0
  9
$DIMTOFL
 70
     1
  9
$DIMTVP
 40
0.0
  9
$DIMTIX
 70
     1
  9
$DIMSOXD
 70
     0
  9
$DIMSAH
 70
     0
  9
$DIMBLK1
  1

  9
$DIMBLK2
  1

  9
$DIMSTYLE
  2
STANDARD
  9
$DIMCLRD
 70
     0
  9
$DIMCLRE
 70
     0
  9
$DIMCLRT
 70
     4
  9
$DIMTFAC
 40
1.0
  9
$DIMGAP
 40
1.0
  9
$LUNITS
 70
     2
  9
$LUPREC
 70
     4
  9
$SKETCHINC
 40
0.1
  9
$FILLETRAD
 40
1.5
  9
$AUNITS
 70
     0
  9
$AUPREC
 70
     0
  9
$MENU
  1
E:\r13\win\SUPPORT\ACAD
  9
$ELEVATION
 40
0.0
  9
$PELEVATION
 40
0.0
  9
$THICKNESS
 40
0.0
  9
$LIMCHECK
 70
     0
  9
$BLIPMODE
 70
     0
  9
$CHAMFERA
 40
0.0
  9
$CHAMFERB
 40
0.0
  9
$SKPOLY
 70
     0
  9
$TDCREATE
 40
2450462.5309673608
  9
$TDUPDATE
 40
2456598.4089970021
  9
$TDINDWG
 40
0.1161606829
  9
$TDUSRTIMER
 40
0.1161606829
  9
$USRTIMER
 70
     1
  9
$ANGBASE
 50
0.0
  9
$ANGDIR
 70
     0
  9
$PDMODE
 70
     0
  9
$PDSIZE
 40
0.0
  9
$PLINEWID
 40
0.0
  9
$COORDS
 70
     1
  9
$SPLFRAME
 70
     0
  9
$SPLINETYPE
 70
     6
  9
$SPLINESEGS
 70
     8
  9
$ATTDIA
 70
     0
  9
$ATTREQ
 70
     1
  9
$HANDLING
 70
     1
  9
$HANDSEED
  5
B71
  9
$SURFTAB1
 70
     6
  9
$SURFTAB2
 70
     6
  9
$SURFTYPE
 70
     6
  9
$SURFU
 70
     6
  9
$SURFV
 70
     6
  9
$UCSNAME
  2

  9
$UCSORG
 10
0.0
 20
0.0
 30
0.0
  9
$UCSXDIR
 10
1.0
 20
0.0
 30
0.0
  9
$UCSYDIR
 10
0.0
 20
1.0
 30
0.0
  9
$PUCSNAME
  2

  9
$PUCSORG
 10
0.0
 20
0.0
 30
0.0
  9
$PUCSXDIR
 10
1.0
 20
0.0
 30
0.0
  9
$PUCSYDIR
 10
0.0
 20
1.0
 30
0.0
  9
$USERI1
 70
     3
  9
$USERI2
 70
     1
  9
$USERI3
 70
     0
  9
$USERI4
 70
     0
  9
$USERI5
 70
     0
  9
$USERR1
 40
1.0
  9
$USERR2
 40
3.0
  9
$USERR3
 40
3.0
  9
$USERR4
 40
3.0
  9
$USERR5
 40
10.0
  9
$WORLDVIEW
 70
     1
  9
$SHADEDGE
 70
     3
  9
$SHADEDIF
 70
    70
  9
$TILEMODE
 70
     1
  9
$MAXACTVP
 70
    16
  9
$PLIMCHECK
 70
     0
  9
$PEXTMIN
 10
1.0000000000000000E+020
 20
1.0000000000000000E+020
 30
1.0000000000000000E+020
  9
$PEXTMAX
 10
-1.0000000000000000E+020
 20
-1.0000000000000000E+020
 30
-1.0000000000000000E+020
  9
$PLIMMIN
 10
0.0
 20
0.0
  9
$PLIMMAX
 10
12.0
 20
9.0
  9
$UNITMODE
 70
     0
  9
$VISRETAIN
 70
     0
  9
$PLINEGEN
 70
     0
  9
$PSLTSCALE
 70
     0
  0
ENDSEC
  0
SECTION
  2
TABLES
  0
TABLE
  2
VPORT
 70
     1
  0
VPORT
  2
*ACTIVE
 70
     0
 10
0.0
 20
0.0
 11
1.0
 21
1.0
 12
192.49412581440311
 22
197.0509055860143
 13
0.0
 23
0.0
 14
5.0
 24
5.0
 15
10.0
 25
10.0
 16
0.0
 26
0.0
 36
1.0
 17
0.0
 27
0.0
 37
0.0
 40
403.57315882993248
 41
1.7807262569832401
 42
50.0
 43
0.0
 44
0.0
 50
0.0
 51
0.0
 71
     0
 72
   100
 73
     1
 74
     0
 75
     0
 76
     0
 77
     0
 78
     0
  0
ENDTAB
  0
TABLE
  2
LTYPE
 70
     4
  0
LTYPE
  2
CONTINUOUS
 70
     0
  3
Solid Line
 72
    65
 73
     0
 40
0.0
  0
LTYPE
  2
CENTER
 70
     0
  3
____ _ ____ _ ____ _ ____ _ ____ _ ____ _ ____
 72
    65
 73
     4
 40
2.0
 49
1.25
 49
-0.25
 49
0.25
 49
-0.25
  0
LTYPE
  2
HIDDEN
 70
     0
  3
_ _ _ _ _ _ _ _ _ _ _ _ _ _ _ _ _ _ _ _ _ _ _
 72
    65
 73
     2
 40
0.375
 49
0.25
 49
-0.125
  0
LTYPE
  2
PHANTOM2
 70
     0
  3
___ _ _ ___ _ _ ___ _ _ ___ _ _
 72
    65
 73
     6
 40
1.25
 49
0.625
 49
-0.125
 49
0.125
 49
-0.125
 49
0.125
 49
-0.125
  0
ENDTAB
  0
TABLE
  2
LAYER
 70
     1
  0
LAYER
  2
0
 70
     0
 62
     7
  6
CONTINUOUS
  0
ENDTAB
  0
TABLE
  2
STYLE
 70
     2
  0
STYLE
  2
STANDARD
 70
     0
 40
0.0
 41
1.0
 50
0.0
 71
     0
 42
4.0
  3
simplex
  4
bigfont
  0
STYLE
  2
STANDARD1
 70
     0
 40
0.0
 41
1.0
 50
0.0
 71
     0
 42
3.0
  3
txt
  4

  0
ENDTAB
  0
TABLE
  2
VIEW
 70
     0
  0
ENDTAB
  0
TABLE
  2
UCS
 70
     0
  0
ENDTAB
  0
TABLE
  2
APPID
 70
     3
  0
APPID
  2
ACAD
 70
     0
  0
APPID
  2
ACAD_MLEADERVER
 70
     0
  0
APPID
  2
ACAD_NAV_VCDISPLAY
 70
     0
  0
ENDTAB
  0
TABLE
  2
DIMSTYLE
 70
     1
  0
DIMSTYLE
  2
STANDARD
 70
     0
  3

  4

  5

  6

  7

 40
1.0
 41
0.18
 42
0.0625
 43
0.38
 44
0.18
 45
0.0
 46
0.0
 47
0.0
 48
0.0
140
0.18
141
0.09
142
0.0
143
25.399999999999999
144
1.0
145
0.0
146
1.0
147
0.09
 71
     0
 72
     0
 73
     1
 74
     1
 75
     0
 76
     0
 77
     0
 78
     0
170
     0
171
     2
172
     0
173
     0
174
     0
175
     0
176
     0
177
     0
178
     0
  0
ENDTAB
  0
ENDSEC
  0
SECTION
  2
BLOCKS
  0
BLOCK
  8
0
  2
$MODEL_SPACE
 70
     0
 10
0.0
 20
0.0
 30
0.0
  3
$MODEL_SPACE
  1

  0
ENDBLK
  5
A36
  8
0
  0
BLOCK
 67
     1
  8
0
  2
$PAPER_SPACE
 70
     0
 10
0.0
 20
0.0
 30
0.0
  3
$PAPER_SPACE
  1

  0
ENDBLK
  5
A34
 67
     1
  8
0
  0
BLOCK
  8
0
  2
STDGX5
 70
     0
 10
0.0
 20
0.0
 30
0.0
  3
STDGX5
  1

  0
ENDBLK
  5
4F
  8
0
  0
ENDSEC
  0
SECTION
  2
ENTITIES
  0
INSERT
  5
DE
  8
0
  6
CONTINUOUS
 62
     7
  2
STDGX5
 10
0.0
 20
0.0
 30
0.0
  0
INSERT
  5
DF
  8
0
  6
CONTINUOUS
 62
     7
  2
STDGX5
 10
0.0
 20
0.0
 30
0.0
  0
INSERT
  5
15C
  8
0
  6
CONTINUOUS
 62
     7
  2
STDGX5
 10
275.0
 20
0.0
 30
0.0
  0
INSERT
  5
15D
  8
0
  6
CONTINUOUS
 62
     7
  2
STDGX5
 10
275.0
 20
0.0
 30
0.0
  0
INSERT
  5
83E
  8
0
  6
CONTINUOUS
 62
     7
  2
STDGX5
 10
32.495465175105778
 20
48.323863549924909
 30
0.0
  0
INSERT
  5
83F
  8
0
  6
CONTINUOUS
 62
     7
  2
STDGX5
 10
32.495465175105778
 20
48.323863549924909
 30
0.0
  0
INSERT
  5
840
  8
0
  6
CONTINUOUS
 62
     7
  2
STDGX5
 10
307.49546517510578
 20
48.323863549924909
 30
0.0
  0
INSERT
  5
841
  8
0
  6
CONTINUOUS
 62
     7
  2
STDGX5
 10
307.49546517510578
 20
48.323863549924909
 30
0.0
  0
LINE
  5
842
  8
0
  6
CONTINUOUS
 62
     7
 10
96.821936888422215
 20
94.855881459528163
 30
0.0
 11
96.821936888422215
 21
134.85588145952821
 31
0.0
  0
LINE
  5
843
  8
0
  6
CONTINUOUS
 62
     7
 10
96.821936888422215
 20
134.85588145952821
 30
0.0
 11
96.821936888422215
 21
134.85588145952821
 31
0.0
  0
LINE
  5
844
  8
0
  6
CONTINUOUS
 62
     7
 10
96.821936888422215
 20
134.85588145952821
 30
0.0
 11
110.8219368884222
 21
134.85588145952821
 31
0.0
  0
LINE
  5
845
  8
0
  6
CONTINUOUS
 62
     7
 10
110.8219368884222
 20
94.855881459528163
 30
0.0
 11
110.8219368884222
 21
134.85588145952821
 31
0.0
  0
LINE
  5
846
  8
0
  6
CONTINUOUS
 62
     7
 10
331.82193688842221
 20
94.855881459528163
 30
0.0
 11
331.82193688842221
 21
134.85588145952821
 31
0.0
  0
LINE
  5
847
  8
0
  6
CONTINUOUS
 62
     7
 10
345.82193688842221
 20
94.855881459528163
 30
0.0
 11
345.82193688842221
 21
134.85588145952821
 31
0.0
  0
LINE
  5
848
  8
0
  6
CONTINUOUS
 62
     7
 10
345.82193688842221
 20
94.855881459528163
 30
0.0
 11
331.82193688842221
 21
94.855881459528163
 31
0.0
  0
LINE
  5
849
  8
0
  6
CONTINUOUS
 62
     7
 10
110.8219368884222
 20
94.855881459528163
 30
0.0
 11
96.821936888422215
 21
94.855881459528163
 31
0.0
  0
LINE
  5
84A
  8
0
  6
HIDDEN
 62
     2
 10
101.3219368884222
 20
95.322881459528361
 30
0.0
 11
101.3219368884222
 21
104.85588145952811
 31
0.0
  0
LINE
  5
84B
  8
0
  6
HIDDEN
 62
     2
 10
101.75493688842199
 20
95.755881459528183
 30
0.0
 11
101.75493688842199
 21
107.85588145952821
 31
0.0
  0
LINE
  5
84C
  8
0
  6
HIDDEN
 62
     2
 10
105.88893688842241
 20
95.755881459528183
 30
0.0
 11
105.88893688842241
 21
107.85588145952821
 31
0.0
  0
LINE
  5
84D
  8
0
  6
HIDDEN
 62
     2
 10
106.3219368884222
 20
95.322881459528361
 30
0.0
 11
106.3219368884222
 21
104.85588145952811
 31
0.0
  0
LINE
  5
84E
  8
0
  6
HIDDEN
 62
     2
 10
101.75493688842199
 20
107.85588145952821
 30
0.0
 11
103.8219368884222
 21
109.0978603590583
 31
0.0
  0
LINE
  5
84F
  8
0
  6
HIDDEN
 62
     2
 10
105.88893688842241
 20
107.85588145952821
 30
0.0
 11
103.8219368884222
 21
109.0978603590583
 31
0.0
  0
LINE
  5
850
  8
0
  6
HIDDEN
 62
     2
 10
101.3219368884222
 20
104.85588145952811
 30
0.0
 11
106.3219368884222
 21
104.85588145952811
 31
0.0
  0
LINE
  5
851
  8
0
  6
HIDDEN
 62
     2
 10
101.75493688842199
 20
107.85588145952821
 30
0.0
 11
105.88893688842241
 21
107.85588145952821
 31
0.0
  0
LINE
  5
852
  8
0
  6
HIDDEN
 62
     2
 10
106.3219368884222
 20
104.85588145952811
 30
0.0
 11
105.88893688842241
 21
105.60585945920511
 31
0.0
  0
LINE
  5
853
  8
0
  6
HIDDEN
 62
     2
 10
101.3219368884224
 20
104.85588145952811
 30
0.0
 11
101.75493688842219
 21
105.60585945920511
 31
0.0
  0
LINE
  5
854
  8
0
  6
HIDDEN
 62
     2
 10
100.8549368884219
 20
94.855881459528149
 30
0.0
 11
101.75493688842199
 21
95.755881459528183
 31
0.0
  0
LINE
  5
855
  8
0
  6
HIDDEN
 62
     2
 10
101.75493688842199
 20
95.755881459528183
 30
0.0
 11
105.88893688842241
 21
95.75588145952824
 31
0.0
  0
LINE
  5
856
  8
0
  6
HIDDEN
 62
     2
 10
105.88893688842241
 20
95.75588145952824
 30
0.0
 11
106.7889368884224
 21
94.855881459528149
 31
0.0
  0
LINE
  5
857
  8
0
  6
CONTINUOUS
 62
     7
 10
59.975816984211178
 20
94.855881459528163
 30
0.0
 11
59.975816984211178
 21
108.13405605258021
 31
0.0
  0
LINE
  5
858
  8
0
  6
CONTINUOUS
 62
     7
 10
51.975816984211171
 20
94.855881459528163
 30
0.0
 11
51.975816984211171
 21
104.8203475535955
 31
0.0
  0
LINE
  5
859
  8
0
  6
CONTINUOUS
 62
     7
 10
25.975816984211178
 20
127.8296020178993
 30
0.0
 11
25.975816984211178
 21
130.88216090115699
 31
0.0
  0
LINE
  5
85A
  8
0
  6
CONTINUOUS
 62
     7
 10
51.975816984211171
 20
94.855881459528163
 30
0.0
 11
59.975816984211178
 21
94.855881459528163
 31
0.0
  0
LINE
  5
85B
  8
0
  6
CENTER
 62
     1
 10
33.975816984211178
 20
118.85588145952821
 30
0.0
 11
33.975816984211178
 21
139.85588145952821
 31
0.0
  0
LINE
  5
85C
  8
0
  6
CONTINUOUS
 62
     7
 10
41.975816984211171
 20
128.20512386444571
 30
0.0
 11
41.975816984211171
 21
130.88216090115699
 31
0.0
  0
LINE
  5
85D
  8
0
  6
CENTER
 62
     1
 10
46.975816984211171
 20
129.35588145952821
 30
0.0
 11
20.975816984211178
 21
129.35588145952821
 31
0.0
  0
ARC
  5
85E
  8
0
  6
CONTINUOUS
 62
     7
 10
33.975816984211178
 20
121.35588145952821
 30
0.0
 40
13.5
 50
60.00000000000005
 51
120.0000000000001
  0
ARC
  5
85F
  8
0
  6
CONTINUOUS
 62
     7
 10
33.975816984211178
 20
137.35588145952809
 30
0.0
 40
13.5
 50
239.99999999999989
 51
266.16028125890062
  0
ARC
  5
860
  8
0
  6
CONTINUOUS
 62
     7
 10
28.475816984211178
 20
130.88216090115699
 30
0.0
 40
2.5
 50
120.0000000000002
 51
180.0
  0
ARC
  5
861
  8
0
  6
CONTINUOUS
 62
     7
 10
28.475816984211178
 20
127.8296020178994
 30
0.0
 40
2.5
 50
180.00000000000031
 51
239.9999999999998
  0
ARC
  5
862
  8
0
  6
CONTINUOUS
 62
     3
 10
39.475816984211178
 20
127.8296020178993
 30
0.0
 40
2.5
 50
300.0
 51
0.0
  0
ARC
  5
863
  8
0
  6
CONTINUOUS
 62
     7
 10
39.475816984211178
 20
130.88216090115699
 30
0.0
 40
2.5
 50
0.0
 51
60.000000000000078
  0
LINE
  5
864
  8
0
  6
CONTINUOUS
 62
     7
 10
34.672134606697739
 20
123.1595638370416
 30
0.0
 11
51.243583937177561
 21
106.58811450656179
 31
0.0
  0
LINE
  5
865
  8
0
  6
CONTINUOUS
 62
     7
 10
42.708050031244788
 20
126.4373569114793
 30
0.0
 11
59.243583937177497
 21
109.9018230055465
 31
0.0
  0
ARC
  5
866
  8
0
  6
CONTINUOUS
 62
     7
 10
57.475816984211178
 20
108.13405605258021
 30
0.0
 40
2.5
 50
0.0
 51
45.0
  0
ARC
  5
867
  8
0
  6
CONTINUOUS
 62
     7
 10
49.475816984211171
 20
104.8203475535955
 30
0.0
 40
2.5
 50
0.0
 51
45.000000000000021
  0
ARC
  5
868
  8
0
  6
CONTINUOUS
 62
     7
 10
44.475816984211171
 20
128.20512386444571
 30
0.0
 40
2.5
 50
180.00000000000011
 51
225.0
  0
ARC
  5
869
  8
0
  6
CONTINUOUS
 62
     7
 10
32.904367653731391
 20
121.39179688407521
 30
0.0
 40
2.5
 50
45.000000000000092
 51
86.160281258900795
  0
ARC
  5
86A
  8
0
  6
CONTINUOUS
 62
     3
 10
33.975816984211178
 20
137.35588145952809
 30
0.0
 40
13.5
 50
266.16028125890062
 51
300.0
  0
LINE
  5
86B
  8
0
  6
CONTINUOUS
 62
     7
 10
331.82193688842221
 20
134.85588145952821
 30
0.0
 11
345.82193688842221
 21
134.85588145952821
 31
0.0
  0
LINE
  5
86C
  8
0
  6
CONTINUOUS
 62
     7
 10
110.8219368884222
 20
133.85588145952821
 30
0.0
 11
331.82193688842221
 21
133.85588145952821
 31
0.0
  0
LINE
  5
86D
  8
0
  6
CONTINUOUS
 62
     7
 10
110.8219368884222
 20
124.85588145952821
 30
0.0
 11
331.82193688842221
 21
124.85588145952811
 31
0.0
  0
LINE
  5
86E
  8
0
  6
CENTER
 62
     1
 10
55.975816984211178
 20
89.855881459528163
 30
0.0
 11
55.975816984211178
 21
106.3203475535954
 31
0.0
  0
LINE
  5
86F
  8
0
  6
CENTER
 62
     1
 10
33.975816984211178
 20
129.35588145952821
 30
0.0
 11
55.243583937177533
 21
108.08811450656179
 31
0.0
  0
ARC
  5
870
  8
0
  6
CENTER
 62
     1
 10
53.475816984211178
 20
106.3203475535954
 30
0.0
 40
2.5
 50
0.0000000000000254
 51
45.0
  0
LINE
  5
871
  8
0
  6
CENTER
 62
     1
 10
103.8219368884222
 20
114.0978603590583
 30
0.0
 11
103.8219368884222
 21
89.855881459528163
 31
0.0
  0
LINE
  5
872
  8
0
  6
CENTER
 62
     1
 10
338.82193688842221
 20
114.0978603590583
 30
0.0
 11
338.82193688842221
 21
89.855881459528163
 31
0.0
  0
LINE
  5
873
  8
0
  6
CONTINUOUS
 62
     7
 10
94.821936888422215
 20
131.35588145952821
 30
0.0
 11
94.821936888422215
 21
127.35588145952811
 31
0.0
  0
ARC
  5
874
  8
0
  6
CONTINUOUS
 62
     7
 10
33.975816984211178
 20
123.53769964134641
 30
0.0
 40
9.8181818181818183
 50
60.00000000000005
 51
120.0000000000001
  0
LINE
  5
875
  8
0
  6
CONTINUOUS
 62
     7
 10
28.157635166029369
 20
128.24586004743449
 30
0.0
 11
28.157635166029369
 21
130.46590287162189
 31
0.0
  0
ARC
  5
876
  8
0
  6
CONTINUOUS
 62
     7
 10
29.975816984211178
 20
128.24586004743449
 30
0.0
 40
1.8181818181818179
 50
180.00000000000031
 51
239.9999999999998
  0
ARC
  5
877
  8
0
  6
CONTINUOUS
 62
     7
 10
29.975816984211178
 20
130.46590287162189
 30
0.0
 40
1.8181818181818179
 50
120.0000000000002
 51
180.0
  0
ARC
  5
878
  8
0
  6
CONTINUOUS
 62
     7
 10
37.975816984211178
 20
130.46590287162189
 30
0.0
 40
1.8181818181818179
 50
0.0
 51
60.000000000000078
  0
LINE
  5
879
  8
0
  6
CONTINUOUS
 62
     7
 10
39.79399880239302
 20
128.24586004743449
 30
0.0
 11
39.79399880239302
 21
130.46590287162189
 31
0.0
  0
ARC
  5
87A
  8
0
  6
CONTINUOUS
 62
     7
 10
37.975816984211178
 20
128.24586004743449
 30
0.0
 40
1.8181818181818179
 50
300.00000000000023
 51
359.99999999999972
  0
ARC
  5
87B
  8
0
  6
CONTINUOUS
 62
     7
 10
33.975816984211178
 20
135.17406327770999
 30
0.0
 40
9.8181818181818183
 50
239.99999999999989
 51
300.0
  0
LINE
  5
87C
  8
0
  6
CONTINUOUS
 62
     7
 10
96.821936888422215
 20
133.35588145952821
 30
0.0
 11
96.821936888422215
 21
133.35588145952821
 31
0.0
  0
LINE
  5
87D
  8
0
  6
CONTINUOUS
 62
     7
 10
96.821936888422215
 20
125.35588145952811
 30
0.0
 11
96.821936888422215
 21
125.35588145952811
 31
0.0
  0
ARC
  5
87E
  8
0
  6
CONTINUOUS
 62
     7
 10
96.821936888422215
 20
131.35588145952821
 30
0.0
 40
2.0
 50
90.0
 51
180.0
  0
ARC
  5
87F
  8
0
  6
CONTINUOUS
 62
     7
 10
96.821936888422215
 20
127.35588145952811
 30
0.0
 40
2.0
 50
180.0
 51
270.0
  0
ARC
  5
880
  8
0
  6
CONTINUOUS
 62
     7
 10
345.82193688842221
 20
127.35588145952811
 30
0.0
 40
2.0
 50
270.0
 51
0.0
  0
ARC
  5
881
  8
0
  6
CONTINUOUS
 62
     7
 10
345.82193688842221
 20
131.35588145952821
 30
0.0
 40
2.0
 50
0.0
 51
90.0
  0
LINE
  5
882
  8
0
  6
CONTINUOUS
 62
     7
 10
347.82193688842221
 20
131.35588145952821
 30
0.0
 11
347.82193688842221
 21
127.35588145952811
 31
0.0
  0
LINE
  5
883
  8
0
  6
CONTINUOUS
 62
     7
 10
345.82193688842221
 20
125.35588145952811
 30
0.0
 11
345.82193688842221
 21
125.35588145952811
 31
0.0
  0
LINE
  5
884
  8
0
  6
CONTINUOUS
 62
     7
 10
345.82193688842221
 20
133.35588145952821
 30
0.0
 11
345.82193688842221
 21
133.35588145952821
 31
0.0
  0
LINE
  5
885
  8
0
  6
CONTINUOUS
 62
     3
 10
331.82193688842221
 20
109.1695899585129
 30
0.0
 11
345.82193688842221
 21
109.1695899585129
 31
0.0
  0
LINE
  5
886
  8
0
  6
CONTINUOUS
 62
     3
 10
331.82193688842221
 20
127.1695899585129
 30
0.0
 11
345.82193688842221
 21
127.1695899585129
 31
0.0
  0
POLYLINE
  5
887
  8
0
  6
CONTINUOUS
 62
     3
 66
     1
 10
0.0
 20
0.0
 30
0.0
 70
     1
  0
VERTEX
  5
888
  8
0
  6
CONTINUOUS
 62
     3
 10
36.597450637085217
 20
129.81332826803879
 30
0.0
 42
0.4142135623730951
  0
VERTEX
  5
889
  8
0
  6
CONTINUOUS
 62
     3
 10
36.554897445595877
 20
129.85588145952809
 30
0.0
  0
VERTEX
  5
88A
  8
0
  6
CONTINUOUS
 62
     3
 10
36.171918722191613
 20
129.85588145952809
 30
0.0
 42
0.4142135623730951
  0
VERTEX
  5
88B
  8
0
  6
CONTINUOUS
 62
     3
 10
36.129365530702252
 20
129.81332826803879
 30
0.0
  0
VERTEX
  5
88C
  8
0
  6
CONTINUOUS
 62
     3
 10
36.129365530702252
 20
129.51545592761329
 30
0.0
 42
0.4142135623730946
  0
VERTEX
  5
88D
  8
0
  6
CONTINUOUS
 62
     3
 10
36.299578296659689
 20
129.34524316165579
 30
0.0
 42
0.4142135623730964
  0
VERTEX
  5
88E
  8
0
  6
CONTINUOUS
 62
     3
 10
36.129365530702252
 20
129.1750303956984
 30
0.0
  0
VERTEX
  5
88F
  8
0
  6
CONTINUOUS
 62
     3
 10
36.129365530702252
 20
129.02609422548559
 30
0.0
 42
0.4142135623730935
  0
VERTEX
  5
890
  8
0
  6
CONTINUOUS
 62
     3
 10
36.299578296659689
 20
128.85588145952809
 30
0.0
  0
VERTEX
  5
891
  8
0
  6
CONTINUOUS
 62
     3
 10
37.533620849851189
 20
128.85588145952809
 30
0.0
 42
0.4142135623730948
  0
VERTEX
  5
892
  8
0
  6
CONTINUOUS
 62
     3
 10
37.576174041340551
 20
128.89843465101751
 30
0.0
  0
VERTEX
  5
893
  8
0
  6
CONTINUOUS
 62
     3
 10
37.576174041340551
 20
129.81332826803879
 30
0.0
 42
0.4142135623730951
  0
VERTEX
  5
894
  8
0
  6
CONTINUOUS
 62
     3
 10
37.533620849851189
 20
129.85588145952809
 30
0.0
  0
VERTEX
  5
895
  8
0
  6
CONTINUOUS
 62
     3
 10
37.15064212644694
 20
129.85588145952809
 30
0.0
 42
0.4142135623730946
  0
VERTEX
  5
896
  8
0
  6
CONTINUOUS
 62
     3
 10
37.108088934957578
 20
129.81332826803879
 30
0.0
  0
VERTEX
  5
897
  8
0
  6
CONTINUOUS
 62
     3
 10
37.108088934957578
 20
129.4516261403792
 30
0.0
 42
-0.4142135623730948
  0
VERTEX
  5
898
  8
0
  6
CONTINUOUS
 62
     3
 10
37.065535743468217
 20
129.4090729488899
 30
0.0
  0
VERTEX
  5
899
  8
0
  6
CONTINUOUS
 62
     3
 10
36.640003828574613
 20
129.4090729488899
 30
0.0
 42
-0.4142135623730951
  0
VERTEX
  5
89A
  8
0
  6
CONTINUOUS
 62
     3
 10
36.597450637085217
 20
129.4516261403792
 30
0.0
  0
SEQEND
  5
89B
  8
0
  6
CONTINUOUS
 62
     3
  0
POLYLINE
  5
89C
  8
0
  6
CONTINUOUS
 62
     3
 66
     1
 10
0.0
 20
0.0
 30
0.0
 70
     1
  0
VERTEX
  5
89D
  8
0
  6
CONTINUOUS
 62
     3
 10
37.065535743468217
 20
129.02609422548559
 30
0.0
 42
0.4142135623730948
  0
VERTEX
  5
89E
  8
0
  6
CONTINUOUS
 62
     3
 10
37.108088934957578
 20
129.06864741697501
 30
0.0
  0
VERTEX
  5
89F
  8
0
  6
CONTINUOUS
 62
     3
 10
37.108088934957578
 20
129.2388601829324
 30
0.0
 42
0.4142135623730948
  0
VERTEX
  5
8A0
  8
0
  6
CONTINUOUS
 62
     3
 10
37.065535743468217
 20
129.28141337442179
 30
0.0
  0
VERTEX
  5
8A1
  8
0
  6
CONTINUOUS
 62
     3
 10
36.640003828574613
 20
129.28141337442179
 30
0.0
 42
0.4142135623730951
  0
VERTEX
  5
8A2
  8
0
  6
CONTINUOUS
 62
     3
 10
36.597450637085217
 20
129.2388601829324
 30
0.0
  0
VERTEX
  5
8A3
  8
0
  6
CONTINUOUS
 62
     3
 10
36.597450637085217
 20
129.06864741697501
 30
0.0
 42
0.4142135623730948
  0
VERTEX
  5
8A4
  8
0
  6
CONTINUOUS
 62
     3
 10
36.640003828574613
 20
129.02609422548559
 30
0.0
  0
SEQEND
  5
8A5
  8
0
  6
CONTINUOUS
 62
     3
  0
POLYLINE
  5
8A6
  8
0
  6
CONTINUOUS
 62
     3
 66
     1
 10
0.0
 20
0.0
 30
0.0
 70
     1
  0
VERTEX
  5
8A7
  8
0
  6
CONTINUOUS
 62
     3
 10
32.467663403042678
 20
129.34524316165579
 30
0.0
 42
0.4142135623730955
  0
VERTEX
  5
8A8
  8
0
  6
CONTINUOUS
 62
     3
 10
32.510216594532039
 20
129.30268997016651
 30
0.0
  0
VERTEX
  5
8A9
  8
0
  6
CONTINUOUS
 62
     3
 10
32.765535743468213
 20
129.30268997016651
 30
0.0
 42
0.4142135623730946
  0
VERTEX
  5
8AA
  8
0
  6
CONTINUOUS
 62
     3
 10
32.808088934957567
 20
129.34524316165579
 30
0.0
  0
VERTEX
  5
8AB
  8
0
  6
CONTINUOUS
 62
     3
 10
32.808088934957567
 20
129.6431155020814
 30
0.0
 42
0.4142135623730951
  0
VERTEX
  5
8AC
  8
0
  6
CONTINUOUS
 62
     3
 10
32.765535743468213
 20
129.6856686935707
 30
0.0
  0
VERTEX
  5
8AD
  8
0
  6
CONTINUOUS
 62
     3
 10
32.510216594532039
 20
129.6856686935707
 30
0.0
 42
0.4142135623730953
  0
VERTEX
  5
8AE
  8
0
  6
CONTINUOUS
 62
     3
 10
32.467663403042678
 20
129.6431155020814
 30
0.0
  0
SEQEND
  5
8AF
  8
0
  6
CONTINUOUS
 62
     3
  0
POLYLINE
  5
8B0
  8
0
  6
CONTINUOUS
 62
     3
 66
     1
 10
0.0
 20
0.0
 30
0.0
 70
     1
  0
VERTEX
  5
8B1
  8
0
  6
CONTINUOUS
 62
     3
 10
33.276174041340539
 20
129.6856686935707
 30
0.0
 42
0.4142135623730954
  0
VERTEX
  5
8B2
  8
0
  6
CONTINUOUS
 62
     3
 10
33.105961275383102
 20
129.85588145952809
 30
0.0
  0
VERTEX
  5
8B3
  8
0
  6
CONTINUOUS
 62
     3
 10
32.042131488149067
 20
129.85588145952809
 30
0.0
 42
0.4142135623730949
  0
VERTEX
  5
8B4
  8
0
  6
CONTINUOUS
 62
     3
 10
31.99957829665971
 20
129.81332826803879
 30
0.0
  0
VERTEX
  5
8B5
  8
0
  6
CONTINUOUS
 62
     3
 10
31.99957829665971
 20
128.89843465101751
 30
0.0
 42
0.4142135623730951
  0
VERTEX
  5
8B6
  8
0
  6
CONTINUOUS
 62
     3
 10
32.042131488149067
 20
128.85588145952809
 30
0.0
  0
VERTEX
  5
8B7
  8
0
  6
CONTINUOUS
 62
     3
 10
32.425110211553317
 20
128.85588145952809
 30
0.0
 42
0.4142135623730951
  0
VERTEX
  5
8B8
  8
0
  6
CONTINUOUS
 62
     3
 10
32.467663403042678
 20
128.89843465101751
 30
0.0
  0
VERTEX
  5
8B9
  8
0
  6
CONTINUOUS
 62
     3
 10
32.467663403042678
 20
129.08992401271971
 30
0.0
 42
-0.4142135623730951
  0
VERTEX
  5
8BA
  8
0
  6
CONTINUOUS
 62
     3
 10
32.510216594532039
 20
129.13247720420901
 30
0.0
  0
VERTEX
  5
8BB
  8
0
  6
CONTINUOUS
 62
     3
 10
33.105961275383102
 20
129.13247720420901
 30
0.0
 42
0.4142135623730951
  0
VERTEX
  5
8BC
  8
0
  6
CONTINUOUS
 62
     3
 10
33.276174041340539
 20
129.30268997016651
 30
0.0
  0
SEQEND
  5
8BD
  8
0
  6
CONTINUOUS
 62
     3
  0
POLYLINE
  5
8BE
  8
0
  6
CONTINUOUS
 62
     3
 66
     1
 10
0.0
 20
0.0
 30
0.0
 70
     1
  0
VERTEX
  5
8BF
  8
0
  6
CONTINUOUS
 62
     3
 10
34.142131488149062
 20
129.30268997016651
 30
0.0
  0
VERTEX
  5
8C0
  8
0
  6
CONTINUOUS
 62
     3
 10
33.886812339212888
 20
129.30268997016651
 30
0.0
 42
-0.4142135623730946
  0
VERTEX
  5
8C1
  8
0
  6
CONTINUOUS
 62
     3
 10
33.844259147723541
 20
129.34524316165579
 30
0.0
  0
VERTEX
  5
8C2
  8
0
  6
CONTINUOUS
 62
     3
 10
33.844259147723541
 20
129.81332826803879
 30
0.0
 42
0.4142135623730951
  0
VERTEX
  5
8C3
  8
0
  6
CONTINUOUS
 62
     3
 10
33.801705956234173
 20
129.85588145952809
 30
0.0
  0
VERTEX
  5
8C4
  8
0
  6
CONTINUOUS
 62
     3
 10
33.418727232829887
 20
129.85588145952809
 30
0.0
 42
0.4142135623730951
  0
VERTEX
  5
8C5
  8
0
  6
CONTINUOUS
 62
     3
 10
33.376174041340562
 20
129.81332826803879
 30
0.0
  0
VERTEX
  5
8C6
  8
0
  6
CONTINUOUS
 62
     3
 10
33.376174041340562
 20
129.30268997016651
 30
0.0
 42
0.4142135623730951
  0
VERTEX
  5
8C7
  8
0
  6
CONTINUOUS
 62
     3
 10
33.546386807298013
 20
129.13247720420901
 30
0.0
  0
VERTEX
  5
8C8
  8
0
  6
CONTINUOUS
 62
     3
 10
34.142131488149062
 20
129.13247720420901
 30
0.0
 42
-0.4142135623730951
  0
VERTEX
  5
8C9
  8
0
  6
CONTINUOUS
 62
     3
 10
34.18468467963843
 20
129.08992401271971
 30
0.0
  0
VERTEX
  5
8CA
  8
0
  6
CONTINUOUS
 62
     3
 10
34.18468467963843
 20
128.89843465101751
 30
0.0
 42
0.4142135623730951
  0
VERTEX
  5
8CB
  8
0
  6
CONTINUOUS
 62
     3
 10
34.227237871127777
 20
128.85588145952809
 30
0.0
  0
VERTEX
  5
8CC
  8
0
  6
CONTINUOUS
 62
     3
 10
34.610216594532041
 20
128.85588145952809
 30
0.0
 42
0.4142135623730951
  0
VERTEX
  5
8CD
  8
0
  6
CONTINUOUS
 62
     3
 10
34.652769786021402
 20
128.89843465101751
 30
0.0
  0
VERTEX
  5
8CE
  8
0
  6
CONTINUOUS
 62
     3
 10
34.652769786021402
 20
129.81332826803879
 30
0.0
 42
0.4142135623730946
  0
VERTEX
  5
8CF
  8
0
  6
CONTINUOUS
 62
     3
 10
34.610216594532041
 20
129.85588145952809
 30
0.0
  0
VERTEX
  5
8D0
  8
0
  6
CONTINUOUS
 62
     3
 10
34.227237871127777
 20
129.85588145952809
 30
0.0
 42
0.4142135623730949
  0
VERTEX
  5
8D1
  8
0
  6
CONTINUOUS
 62
     3
 10
34.18468467963843
 20
129.81332826803879
 30
0.0
  0
VERTEX
  5
8D2
  8
0
  6
CONTINUOUS
 62
     3
 10
34.18468467963843
 20
129.34524316165579
 30
0.0
 42
-0.4142135623730955
  0
SEQEND
  5
8D3
  8
0
  6
CONTINUOUS
 62
     3
  0
POLYLINE
  5
8D4
  8
0
  6
CONTINUOUS
 62
     3
 66
     1
 10
0.0
 20
0.0
 30
0.0
 70
     1
  0
VERTEX
  5
8D5
  8
0
  6
CONTINUOUS
 62
     3
 10
35.561280424319278
 20
129.6431155020814
 30
0.0
 42
0.4142135623730958
  0
VERTEX
  5
8D6
  8
0
  6
CONTINUOUS
 62
     3
 10
35.518727232829917
 20
129.6856686935707
 30
0.0
  0
VERTEX
  5
8D7
  8
0
  6
CONTINUOUS
 62
     3
 10
35.263408083893751
 20
129.6856686935707
 30
0.0
 42
0.4142135623730951
  0
VERTEX
  5
8D8
  8
0
  6
CONTINUOUS
 62
     3
 10
35.220854892404361
 20
129.6431155020814
 30
0.0
  0
VERTEX
  5
8D9
  8
0
  6
CONTINUOUS
 62
     3
 10
35.220854892404361
 20
129.34524316165579
 30
0.0
 42
0.4142135623730957
  0
VERTEX
  5
8DA
  8
0
  6
CONTINUOUS
 62
     3
 10
35.263408083893751
 20
129.30268997016651
 30
0.0
  0
VERTEX
  5
8DB
  8
0
  6
CONTINUOUS
 62
     3
 10
35.518727232829917
 20
129.30268997016651
 30
0.0
 42
0.4142135623730937
  0
VERTEX
  5
8DC
  8
0
  6
CONTINUOUS
 62
     3
 10
35.561280424319278
 20
129.34524316165579
 30
0.0
  0
SEQEND
  5
8DD
  8
0
  6
CONTINUOUS
 62
     3
  0
POLYLINE
  5
8DE
  8
0
  6
CONTINUOUS
 62
     3
 66
     1
 10
0.0
 20
0.0
 30
0.0
 70
     1
  0
VERTEX
  5
8DF
  8
0
  6
CONTINUOUS
 62
     3
 10
34.752769786021389
 20
129.30268997016651
 30
0.0
 42
0.4142135623730951
  0
VERTEX
  5
8E0
  8
0
  6
CONTINUOUS
 62
     3
 10
34.922982551978862
 20
129.13247720420901
 30
0.0
  0
VERTEX
  5
8E1
  8
0
  6
CONTINUOUS
 62
     3
 10
35.859152764744813
 20
129.13247720420901
 30
0.0
 42
0.414213562373095
  0
VERTEX
  5
8E2
  8
0
  6
CONTINUOUS
 62
     3
 10
36.02936553070225
 20
129.30268997016651
 30
0.0
  0
VERTEX
  5
8E3
  8
0
  6
CONTINUOUS
 62
     3
 10
36.02936553070225
 20
129.6856686935707
 30
0.0
 42
0.4142135623730952
  0
VERTEX
  5
8E4
  8
0
  6
CONTINUOUS
 62
     3
 10
35.859152764744813
 20
129.85588145952809
 30
0.0
  0
VERTEX
  5
8E5
  8
0
  6
CONTINUOUS
 62
     3
 10
34.922982551978862
 20
129.85588145952809
 30
0.0
 42
0.4142135623730951
  0
VERTEX
  5
8E6
  8
0
  6
CONTINUOUS
 62
     3
 10
34.752769786021389
 20
129.6856686935707
 30
0.0
  0
SEQEND
  5
8E7
  8
0
  6
CONTINUOUS
 62
     3
  0
POLYLINE
  5
8E8
  8
0
  6
CONTINUOUS
 62
     3
 66
     1
 10
0.0
 20
0.0
 30
0.0
 70
     1
  0
VERTEX
  5
8E9
  8
0
  6
CONTINUOUS
 62
     3
 10
31.13362084985118
 20
129.43034954463451
 30
0.0
 42
0.4142135623730951
  0
VERTEX
  5
8EA
  8
0
  6
CONTINUOUS
 62
     3
 10
31.09106765836183
 20
129.38779635314521
 30
0.0
  0
VERTEX
  5
8EB
  8
0
  6
CONTINUOUS
 62
     3
 10
31.09106765836183
 20
129.34524316165579
 30
0.0
 42
0.4142135623730926
  0
VERTEX
  5
8EC
  8
0
  6
CONTINUOUS
 62
     3
 10
31.13362084985118
 20
129.30268997016651
 30
0.0
  0
VERTEX
  5
8ED
  8
0
  6
CONTINUOUS
 62
     3
 10
31.38893999878735
 20
129.30268997016651
 30
0.0
 42
0.4142135623730948
  0
VERTEX
  5
8EE
  8
0
  6
CONTINUOUS
 62
     3
 10
31.431493190276711
 20
129.34524316165579
 30
0.0
  0
VERTEX
  5
8EF
  8
0
  6
CONTINUOUS
 62
     3
 10
31.431493190276711
 20
129.38779635314521
 30
0.0
 42
0.4142135623730948
  0
VERTEX
  5
8F0
  8
0
  6
CONTINUOUS
 62
     3
 10
31.38893999878735
 20
129.43034954463451
 30
0.0
  0
SEQEND
  5
8F1
  8
0
  6
CONTINUOUS
 62
     3
  0
POLYLINE
  5
8F2
  8
0
  6
CONTINUOUS
 62
     3
 66
     1
 10
0.0
 20
0.0
 30
0.0
 70
     1
  0
VERTEX
  5
8F3
  8
0
  6
CONTINUOUS
 62
     3
 10
31.410216594532049
 20
129.6856686935707
 30
0.0
 42
-0.4142135623731115
  0
VERTEX
  5
8F4
  8
0
  6
CONTINUOUS
 62
     3
 10
31.431493190276711
 20
129.66439209782601
 30
0.0
  0
VERTEX
  5
8F5
  8
0
  6
CONTINUOUS
 62
     3
 10
31.431493190276711
 20
129.62183890633659
 30
0.0
 42
-0.4142135623730788
  0
VERTEX
  5
8F6
  8
0
  6
CONTINUOUS
 62
     3
 10
31.410216594532049
 20
129.60056231059201
 30
0.0
  0
VERTEX
  5
8F7
  8
0
  6
CONTINUOUS
 62
     3
 10
30.665535743468212
 20
129.60056231059201
 30
0.0
 42
0.414213562373095
  0
VERTEX
  5
8F8
  8
0
  6
CONTINUOUS
 62
     3
 10
30.622982551978851
 20
129.55800911910259
 30
0.0
  0
VERTEX
  5
8F9
  8
0
  6
CONTINUOUS
 62
     3
 10
30.622982551978851
 20
129.30268997016651
 30
0.0
 42
0.4142135623730951
  0
VERTEX
  5
8FA
  8
0
  6
CONTINUOUS
 62
     3
 10
30.793195317936291
 20
129.13247720420901
 30
0.0
  0
VERTEX
  5
8FB
  8
0
  6
CONTINUOUS
 62
     3
 10
31.729365530702239
 20
129.13247720420901
 30
0.0
 42
0.414213562373095
  0
VERTEX
  5
8FC
  8
0
  6
CONTINUOUS
 62
     3
 10
31.89957829665968
 20
129.30268997016651
 30
0.0
  0
VERTEX
  5
8FD
  8
0
  6
CONTINUOUS
 62
     3
 10
31.89957829665968
 20
129.6856686935707
 30
0.0
 42
0.4142135623730948
  0
VERTEX
  5
8FE
  8
0
  6
CONTINUOUS
 62
     3
 10
31.729365530702239
 20
129.85588145952809
 30
0.0
  0
VERTEX
  5
8FF
  8
0
  6
CONTINUOUS
 62
     3
 10
30.665535743468212
 20
129.85588145952809
 30
0.0
 42
0.4142135623730951
  0
VERTEX
  5
900
  8
0
  6
CONTINUOUS
 62
     3
 10
30.622982551978851
 20
129.81332826803879
 30
0.0
  0
VERTEX
  5
901
  8
0
  6
CONTINUOUS
 62
     3
 10
30.622982551978851
 20
129.72822188506009
 30
0.0
 42
0.4142135623730951
  0
VERTEX
  5
902
  8
0
  6
CONTINUOUS
 62
     3
 10
30.665535743468212
 20
129.6856686935707
 30
0.0
  0
SEQEND
  5
903
  8
0
  6
CONTINUOUS
 62
     3
  0
LINE
  5
904
  8
0
  6
CONTINUOUS
 62
     7
 10
96.821936888422215
 20
163.2850119934792
 30
0.0
 11
110.8219368884222
 21
163.2850119934792
 31
0.0
  0
LINE
  5
905
  8
0
  6
CONTINUOUS
 62
     7
 10
96.821936888422215
 20
163.2850119934792
 30
0.0
 11
96.821936888422215
 21
197.2850119934792
 31
0.0
  0
LINE
  5
906
  8
0
  6
CONTINUOUS
 62
     7
 10
110.8219368884222
 20
163.2850119934792
 30
0.0
 11
110.8219368884222
 21
197.2850119934792
 31
0.0
  0
LINE
  5
907
  8
0
  6
CONTINUOUS
 62
     7
 10
96.821936888422215
 20
197.2850119934792
 30
0.0
 11
110.8219368884222
 21
197.2850119934792
 31
0.0
  0
LINE
  5
908
  8
0
  6
CONTINUOUS
 62
     7
 10
96.821936888422215
 20
195.10319381166099
 30
0.0
 11
96.821936888422215
 21
195.10319381166099
 31
0.0
  0
LINE
  5
909
  8
0
  6
CONTINUOUS
 62
     7
 10
96.821936888422215
 20
183.46683017529739
 30
0.0
 11
96.821936888422215
 21
183.46683017529739
 31
0.0
  0
LINE
  5
90A
  8
0
  6
CONTINUOUS
 62
     7
 10
94.821936888422215
 20
185.46683017529739
 30
0.0
 11
94.821936888422215
 21
193.10319381166099
 31
0.0
  0
ARC
  5
90B
  8
0
  6
CONTINUOUS
 62
     7
 10
96.821936888422215
 20
193.10319381166099
 30
0.0
 40
2.0
 50
90.0
 51
180.0
  0
ARC
  5
90C
  8
0
  6
CONTINUOUS
 62
     7
 10
96.821936888422215
 20
185.46683017529739
 30
0.0
 40
2.0
 50
180.0
 51
270.0
  0
LINE
  5
90D
  8
0
  6
CONTINUOUS
 62
     7
 10
331.82193688842221
 20
163.2850119934792
 30
0.0
 11
331.82193688842221
 21
197.2850119934792
 31
0.0
  0
LINE
  5
90E
  8
0
  6
CONTINUOUS
 62
     7
 10
345.82193688842221
 20
163.2850119934792
 30
0.0
 11
345.82193688842221
 21
197.2850119934792
 31
0.0
  0
LINE
  5
90F
  8
0
  6
CONTINUOUS
 62
     7
 10
347.82193688842221
 20
185.46683017529739
 30
0.0
 11
347.82193688842221
 21
193.10319381166099
 31
0.0
  0
ARC
  5
910
  8
0
  6
CONTINUOUS
 62
     7
 10
345.82193688842221
 20
185.46683017529739
 30
0.0
 40
2.0
 50
270.0
 51
0.0
  0
LINE
  5
911
  8
0
  6
CONTINUOUS
 62
     7
 10
345.82193688842221
 20
183.46683017529739
 30
0.0
 11
345.82193688842221
 21
183.46683017529739
 31
0.0
  0
ARC
  5
912
  8
0
  6
CONTINUOUS
 62
     7
 10
345.82193688842221
 20
193.10319381166099
 30
0.0
 40
2.0
 50
0.0
 51
90.0
  0
LINE
  5
913
  8
0
  6
CONTINUOUS
 62
     7
 10
345.82193688842221
 20
195.10319381166099
 30
0.0
 11
345.82193688842221
 21
195.10319381166099
 31
0.0
  0
LINE
  5
914
  8
0
  6
CONTINUOUS
 62
     7
 10
345.82193688842221
 20
197.2850119934792
 30
0.0
 11
331.82193688842221
 21
197.2850119934792
 31
0.0
  0
LINE
  5
915
  8
0
  6
CONTINUOUS
 62
     7
 10
331.82193688842221
 20
163.2850119934792
 30
0.0
 11
345.82193688842221
 21
163.2850119934792
 31
0.0
  0
LINE
  5
916
  8
0
  6
CONTINUOUS
 62
     7
 10
110.8219368884222
 20
196.2850119934792
 30
0.0
 11
331.82193688842221
 21
196.2850119934792
 31
0.0
  0
LINE
  5
917
  8
0
  6
CONTINUOUS
 62
     7
 10
110.8219368884222
 20
182.2850119934792
 30
0.0
 11
331.82193688842221
 21
182.2850119934792
 31
0.0
  0
LINE
  5
918
  8
0
  6
CONTINUOUS
 62
     3
 10
110.8219368884222
 20
193.0350119934792
 30
0.0
 11
331.82193688842221
 21
193.0350119934792
 31
0.0
  0
LINE
  5
919
  8
0
  6
CONTINUOUS
 62
     3
 10
110.8219368884222
 20
192.0350119934792
 30
0.0
 11
331.82193688842221
 21
192.0350119934792
 31
0.0
  0
LINE
  5
91A
  8
0
  6
CONTINUOUS
 62
     3
 10
110.8219368884222
 20
191.0350119934792
 30
0.0
 11
331.82193688842221
 21
191.0350119934792
 31
0.0
  0
LINE
  5
91B
  8
0
  6
CONTINUOUS
 62
     3
 10
110.8219368884222
 20
187.53501199347909
 30
0.0
 11
331.82193688842221
 21
187.5350119934792
 31
0.0
  0
LINE
  5
91C
  8
0
  6
CONTINUOUS
 62
     3
 10
110.8219368884222
 20
186.5350119934792
 30
0.0
 11
331.82193688842221
 21
186.5350119934792
 31
0.0
  0
LINE
  5
91D
  8
0
  6
CONTINUOUS
 62
     3
 10
110.8219368884222
 20
185.5350119934792
 30
0.0
 11
331.82193688842221
 21
185.5350119934792
 31
0.0
  0
LINE
  5
91E
  8
0
  6
CONTINUOUS
 62
     3
 10
110.8219368884222
 20
190.0350119934792
 30
0.0
 11
331.82193688842221
 21
190.0350119934792
 31
0.0
  0
LINE
  5
91F
  8
0
  6
CONTINUOUS
 62
     3
 10
110.8219368884222
 20
188.5350119934792
 30
0.0
 11
331.82193688842221
 21
188.5350119934792
 31
0.0
  0
LINE
  5
920
  8
0
  6
CONTINUOUS
 62
     3
 10
110.8219368884222
 20
133.15567837945071
 30
0.0
 11
331.82193688842221
 21
133.15567837945071
 31
0.0
  0
LINE
  5
921
  8
0
  6
CONTINUOUS
 62
     3
 10
110.8219368884222
 20
133.49407927046579
 30
0.0
 11
331.82193688842221
 21
133.49407927046579
 31
0.0
  0
LINE
  5
922
  8
0
  6
CENTER
 62
     1
 10
89.821936888422215
 20
189.2850119934792
 30
0.0
 11
352.82193688842221
 21
189.2850119934792
 31
0.0
  0
LINE
  5
923
  8
0
  6
CENTER
 62
     1
 10
89.821936888422215
 20
129.35588145952821
 30
0.0
 11
352.82193688842221
 21
129.35588145952821
 31
0.0
  0
LINE
  5
99D
  8
0
  6
HIDDEN
 62
     2
 10
340.88893688842251
 20
107.85588145952821
 30
0.0
 11
338.82193688842221
 21
109.0978603590583
 31
0.0
  0
LINE
  5
99E
  8
0
  6
HIDDEN
 62
     2
 10
341.32193688842221
 20
104.85588145952811
 30
0.0
 11
336.32193688842221
 21
104.85588145952811
 31
0.0
  0
LINE
  5
99F
  8
0
  6
HIDDEN
 62
     2
 10
340.88893688842251
 20
107.85588145952821
 30
0.0
 11
336.75493688842198
 21
107.85588145952821
 31
0.0
  0
LINE
  5
9A0
  8
0
  6
HIDDEN
 62
     2
 10
340.88893688842251
 20
95.755881459528183
 30
0.0
 11
336.75493688842198
 21
95.75588145952824
 31
0.0
  0
LINE
  5
9A1
  8
0
  6
HIDDEN
 62
     2
 10
341.32193688842221
 20
95.322881459528361
 30
0.0
 11
341.32193688842221
 21
104.85588145952811
 31
0.0
  0
LINE
  5
9A2
  8
0
  6
HIDDEN
 62
     2
 10
340.88893688842251
 20
95.755881459528183
 30
0.0
 11
340.88893688842251
 21
107.85588145952821
 31
0.0
  0
LINE
  5
9A3
  8
0
  6
HIDDEN
 62
     2
 10
341.78893688842243
 20
94.855881459528149
 30
0.0
 11
340.88893688842251
 21
95.755881459528183
 31
0.0
  0
LINE
  5
9A4
  8
0
  6
HIDDEN
 62
     2
 10
341.3219368884221
 20
104.85588145952811
 30
0.0
 11
340.88893688842222
 21
105.60585945920511
 31
0.0
  0
LINE
  5
9A5
  8
0
  6
HIDDEN
 62
     2
 10
336.75493688842198
 20
95.755881459528183
 30
0.0
 11
336.75493688842198
 21
107.85588145952821
 31
0.0
  0
LINE
  5
9A6
  8
0
  6
HIDDEN
 62
     2
 10
336.32193688842221
 20
95.322881459528361
 30
0.0
 11
336.32193688842221
 21
104.85588145952811
 31
0.0
  0
LINE
  5
9A7
  8
0
  6
HIDDEN
 62
     2
 10
336.75493688842198
 20
95.75588145952824
 30
0.0
 11
335.854936888422
 21
94.855881459528149
 31
0.0
  0
LINE
  5
9A8
  8
0
  6
HIDDEN
 62
     2
 10
336.32193688842221
 20
104.85588145952811
 30
0.0
 11
336.75493688842198
 21
105.60585945920511
 31
0.0
  0
LINE
  5
9A9
  8
0
  6
HIDDEN
 62
     2
 10
336.75493688842198
 20
107.85588145952821
 30
0.0
 11
338.82193688842221
 21
109.0978603590583
 31
0.0
  0
LINE
  5
9AA
  8
0
  6
CONTINUOUS
 62
     3
 10
110.8219368884222
 20
109.1695899585129
 30
0.0
 11
96.821936888422215
 21
109.1695899585129
 31
0.0
  0
LINE
  5
9AB
  8
0
  6
CONTINUOUS
 62
     3
 10
110.8219368884222
 20
127.1695899585129
 30
0.0
 11
96.821936888422215
 21
127.1695899585129
 31
0.0
  0
LINE
  5
9AE
  8
0
  6
CONTINUOUS
 62
     3
 10
96.821936888422186
 20
181.2850119934792
 30
0.0
 11
110.8219368884222
 21
181.2850119934792
 31
0.0
  0
LINE
  5
9AF
  8
0
  6
CONTINUOUS
 62
     3
 10
345.82193688842221
 20
181.2850119934792
 30
0.0
 11
331.82193688842221
 21
181.2850119934792
 31
0.0
  0
TEXT
  5
AE1
  8
0
 62
     3
 10
0.0
 20
0.0
 30
0.0
 40
10.0
  1
UN5-235
  7
STANDARD1
  0
ENDSEC
  0
EOF
