  0
SECTION
  2
HEADER
  9
$ACADVER
  1
AC1009
  9
$INSBASE
 10
0.0
 20
0.0
 30
0.0
  9
$EXTMIN
 10
0.0
 20
-2.960436562073669
 30
0.0
  9
$EXTMAX
 10
265.38133246356642
 20
188.45786867349889
 30
0.0
  9
$LIMMIN
 10
0.0
 20
0.0
  9
$LIMMAX
 10
375.0
 20
270.0
  9
$ORTHOMODE
 70
     1
  9
$REGENMODE
 70
     1
  9
$FILLMODE
 70
     1
  9
$QTEXTMODE
 70
     0
  9
$MIRRTEXT
 70
     0
  9
$DRAGMODE
 70
     2
  9
$LTSCALE
 40
10.0
  9
$OSMODE
 70
    55
  9
$ATTMODE
 70
     1
  9
$TEXTSIZE
 40
0.2
  9
$TRACEWID
 40
0.05
  9
$TEXTSTYLE
  7
STANDARD
  9
$CLAYER
  8
0
  9
$CELTYPE
  6
BYLAYER
  9
$CECOLOR
 62
   256
  9
$DIMSCALE
 40
1.0
  9
$DIMASZ
 40
3.0
  9
$DIMEXO
 40
2.0
  9
$DIMDLI
 40
0.38
  9
$DIMRND
 40
0.0
  9
$DIMDLE
 40
0.0
  9
$DIMEXE
 40
2.0
  9
$DIMTP
 40
0.0
  9
$DIMTM
 40
0.0
  9
$DIMTXT
 40
3.2000000000000002
  9
$DIMCEN
 40
0.09
  9
$DIMTSZ
 40
0.0
  9
$DIMTOL
 70
     0
  9
$DIMLIM
 70
     0
  9
$DIMTIH
 70
     0
  9
$DIMTOH
 70
     0
  9
$DIMSE1
 70
     0
  9
$DIMSE2
 70
     0
  9
$DIMTAD
 70
     1
  9
$DIMZIN
 70
     0
  9
$DIMBLK
  1

  9
$DIMASO
 70
     1
  9
$DIMSHO
 70
     0
  9
$DIMPOST
  1

  9
$DIMAPOST
  1

  9
$DIMALT
 70
     0
  9
$DIMALTD
 70
     2
  9
$DIMALTF
 40
25.399999999999999
  9
$DIMLFAC
 40
1.0
  9
$DIMTOFL
 70
     0
  9
$DIMTVP
 40
1.6000000000000001
  9
$DIMTIX
 70
     1
  9
$DIMSOXD
 70
     0
  9
$DIMSAH
 70
     0
  9
$DIMBLK1
  1

  9
$DIMBLK2
  1

  9
$DIMSTYLE
  2
STANDARD
  9
$DIMCLRD
 70
     0
  9
$DIMCLRE
 70
     0
  9
$DIMCLRT
 70
     0
  9
$DIMTFAC
 40
1.0
  9
$DIMGAP
 40
0.09
  9
$LUNITS
 70
     2
  9
$LUPREC
 70
     4
  9
$SKETCHINC
 40
0.1
  9
$FILLETRAD
 40
2.0
  9
$AUNITS
 70
     0
  9
$AUPREC
 70
     0
  9
$MENU
  1
E:\r13\win\SUPPORT\ACAD
  9
$ELEVATION
 40
0.0
  9
$PELEVATION
 40
0.0
  9
$THICKNESS
 40
0.0
  9
$LIMCHECK
 70
     0
  9
$BLIPMODE
 70
     0
  9
$CHAMFERA
 40
0.0
  9
$CHAMFERB
 40
0.0
  9
$SKPOLY
 70
     0
  9
$TDCREATE
 40
2447977.5416277782
  9
$TDUPDATE
 40
2456598.401982049
  9
$TDINDWG
 40
0.0469873958
  9
$TDUSRTIMER
 40
0.0469873958
  9
$USRTIMER
 70
     1
  9
$ANGBASE
 50
0.0
  9
$ANGDIR
 70
     0
  9
$PDMODE
 70
     0
  9
$PDSIZE
 40
0.0
  9
$PLINEWID
 40
0.0
  9
$COORDS
 70
     1
  9
$SPLFRAME
 70
     0
  9
$SPLINETYPE
 70
     6
  9
$SPLINESEGS
 70
     8
  9
$ATTDIA
 70
     0
  9
$ATTREQ
 70
     1
  9
$HANDLING
 70
     1
  9
$HANDSEED
  5
499
  9
$SURFTAB1
 70
     6
  9
$SURFTAB2
 70
     6
  9
$SURFTYPE
 70
     6
  9
$SURFU
 70
     6
  9
$SURFV
 70
     6
  9
$UCSNAME
  2

  9
$UCSORG
 10
0.0
 20
0.0
 30
0.0
  9
$UCSXDIR
 10
1.0
 20
0.0
 30
0.0
  9
$UCSYDIR
 10
0.0
 20
1.0
 30
0.0
  9
$PUCSNAME
  2

  9
$PUCSORG
 10
0.0
 20
0.0
 30
0.0
  9
$PUCSXDIR
 10
1.0
 20
0.0
 30
0.0
  9
$PUCSYDIR
 10
0.0
 20
1.0
 30
0.0
  9
$USERI1
 70
     0
  9
$USERI2
 70
     1
  9
$USERI3
 70
     1
  9
$USERI4
 70
     0
  9
$USERI5
 70
     0
  9
$USERR1
 40
0.0
  9
$USERR2
 40
0.0
  9
$USERR3
 40
0.0
  9
$USERR4
 40
0.0
  9
$USERR5
 40
0.0
  9
$WORLDVIEW
 70
     1
  9
$SHADEDGE
 70
     3
  9
$SHADEDIF
 70
    70
  9
$TILEMODE
 70
     1
  9
$MAXACTVP
 70
    16
  9
$PLIMCHECK
 70
     0
  9
$PEXTMIN
 10
1.0000000000000000E+020
 20
1.0000000000000000E+020
 30
1.0000000000000000E+020
  9
$PEXTMAX
 10
-1.0000000000000000E+020
 20
-1.0000000000000000E+020
 30
-1.0000000000000000E+020
  9
$PLIMMIN
 10
0.0
 20
0.0
  9
$PLIMMAX
 10
12.0
 20
9.0
  9
$UNITMODE
 70
     0
  9
$VISRETAIN
 70
     0
  9
$PLINEGEN
 70
     1
  9
$PSLTSCALE
 70
     0
  0
ENDSEC
  0
SECTION
  2
TABLES
  0
TABLE
  2
VPORT
 70
     1
  0
VPORT
  2
*ACTIVE
 70
     0
 10
0.0
 20
0.0
 11
1.0
 21
1.0
 12
187.4942783906524
 22
197.0509055860143
 13
0.0
 23
0.0
 14
10.0
 24
10.0
 15
10.0
 25
10.0
 16
0.0
 26
0.0
 36
1.0
 17
0.0
 27
0.0
 37
0.0
 40
403.57315882993248
 41
1.7807262569832401
 42
50.0
 43
0.0
 44
0.0
 50
0.0
 51
0.0
 71
     0
 72
   500
 73
     1
 74
     0
 75
     0
 76
     0
 77
     0
 78
     2
  0
ENDTAB
  0
TABLE
  2
LTYPE
 70
     3
  0
LTYPE
  2
CONTINUOUS
 70
     0
  3
Solid Line
 72
    65
 73
     0
 40
0.0
  0
LTYPE
  2
CENTER
 70
     0
  3
____ _ ____ _ ____ _ ____ _ ____ _ ____ _ ____
 72
    65
 73
     4
 40
2.0
 49
1.25
 49
-0.25
 49
0.25
 49
-0.25
  0
LTYPE
  2
PHANTOM2
 70
     0
  3
___ _ _ ___ _ _ ___ _ _ ___ _ _
 72
    65
 73
     6
 40
1.25
 49
0.625
 49
-0.125
 49
0.125
 49
-0.125
 49
0.125
 49
-0.125
  0
ENDTAB
  0
TABLE
  2
LAYER
 70
     3
  0
LAYER
  2
0
 70
     0
 62
     7
  6
CONTINUOUS
  0
LAYER
  2
1
 70
     0
 62
     1
  6
CENTER
  0
LAYER
  2
3
 70
     0
 62
     3
  6
CONTINUOUS
  0
ENDTAB
  0
TABLE
  2
STYLE
 70
     3
  0
STYLE
  2
STANDARD
 70
     0
 40
0.0
 41
1.0
 50
0.0
 71
     0
 42
0.2
  3
TXT
  4
BIGFONT
  0
STYLE
  2
SIMPLEX
 70
     0
 40
0.0
 41
0.8
 50
0.0
 71
     0
 42
3.5
  3
SIMPLEX
  4

  0
STYLE
  2
STANDARD1
 70
     0
 40
0.0
 41
1.0
 50
0.0
 71
     0
 42
3.0
  3
txt
  4

  0
ENDTAB
  0
TABLE
  2
VIEW
 70
     1
  0
VIEW
  2
ALL
 70
     0
 40
270.0
 10
220.99159663865549
 20
135.0
 41
0.0
 11
0.0
 21
0.0
 31
1.0
 12
0.0
 22
0.0
 32
0.0
 42
0.0
 43
0.0
 44
0.0
 50
0.0
 71
     0
  0
ENDTAB
  0
TABLE
  2
UCS
 70
     0
  0
ENDTAB
  0
TABLE
  2
APPID
 70
     3
  0
APPID
  2
ACAD
 70
     0
  0
APPID
  2
ACAD_MLEADERVER
 70
     0
  0
APPID
  2
ACAD_NAV_VCDISPLAY
 70
     0
  0
ENDTAB
  0
TABLE
  2
DIMSTYLE
 70
     1
  0
DIMSTYLE
  2
STANDARD
 70
     0
  3

  4

  5

  6

  7

 40
1.0
 41
0.18
 42
0.0625
 43
0.38
 44
0.18
 45
0.0
 46
0.0
 47
0.0
 48
0.0
140
0.18
141
0.09
142
0.0
143
25.399999999999999
144
1.0
145
0.0
146
1.0
147
0.09
 71
     0
 72
     0
 73
     1
 74
     1
 75
     0
 76
     0
 77
     0
 78
     0
170
     0
171
     2
172
     0
173
     0
174
     0
175
     0
176
     0
177
     0
178
     0
  0
ENDTAB
  0
ENDSEC
  0
SECTION
  2
BLOCKS
  0
BLOCK
  8
0
  2
$MODEL_SPACE
 70
     0
 10
0.0
 20
0.0
 30
0.0
  3
$MODEL_SPACE
  1

  0
ENDBLK
  5
19F
  8
0
  0
BLOCK
 67
     1
  8
0
  2
$PAPER_SPACE
 70
     0
 10
0.0
 20
0.0
 30
0.0
  3
$PAPER_SPACE
  1

  0
ENDBLK
  5
19D
 67
     1
  8
0
  0
ENDSEC
  0
SECTION
  2
ENTITIES
  0
LINE
  5
268
  8
0
 10
196.381332463566
 20
111.45786867349879
 30
0.0
 11
199.38133246356591
 21
108.70312129847311
 31
0.0
  0
LINE
  5
269
  8
0
 10
196.3813324635662
 20
175.45786867349889
 30
0.0
 11
199.3813324635662
 21
178.21261604852469
 31
0.0
  0
TEXT
  5
26A
  8
0
 10
97.507648192639863
 20
164.67249492099151
 30
0.0
 40
6.6882916799999999
  1
U
 50
347.72793769214923
 41
0.8
  7
SIMPLEX
  0
TEXT
  5
26B
  8
0
 10
102.39752523361329
 20
163.0058503101879
 30
0.0
 40
6.6882916799999999
  1
M
 50
323.31762803676691
 41
0.8
  7
SIMPLEX
  0
TEXT
  5
26C
  8
0
 10
80.263261766433743
 20
162.9305509458141
 30
0.0
 40
6.6882916799999999
  1
A
 50
23.598207661807969
 41
0.8
  7
SIMPLEX
  0
TEXT
  5
26D
  8
0
 10
76.72885580628315
 20
160.32902274666191
 30
0.0
 40
6.6882916799999999
  1
V
 50
36.437195667739651
 41
0.8
  7
SIMPLEX
  0
ARC
  5
26E
  8
0
 10
91.381332463566068
 20
143.45786867349881
 30
0.0
 40
35.0
 50
126.7867892982601
 51
143.21321070173869
  0
ARC
  5
26F
  8
0
 10
91.381332463566068
 20
143.45786867349881
 30
0.0
 40
35.0
 50
36.786789298261297
 51
53.213210701739833
  0
CIRCLE
  5
270
  8
0
 10
91.381332463566068
 20
143.45786867349889
 30
0.0
 40
32.00000000000005
  0
ARC
  5
271
  8
0
 10
91.381332463566068
 20
143.45786867349881
 30
0.0
 40
35.0
 50
216.78678929826131
 51
233.21321070173991
  0
ARC
  5
272
  8
0
 10
91.381332463566068
 20
143.45786867349881
 30
0.0
 40
35.0
 50
186.78678929826151
 51
203.21321070173821
  0
ARC
  5
273
  8
0
 10
91.381332463566068
 20
143.45786867349881
 30
0.0
 40
34.0
 50
203.45651933527
 51
216.5434806647294
  0
LINE
  5
274
  8
0
 10
63.35090112980253
 20
122.4985051516007
 30
0.0
 11
64.065554656445556
 21
123.2131586782437
 31
0.0
  0
LINE
  5
275
  8
0
 10
59.214775539566169
 20
129.6624848203729
 30
0.0
 11
60.191010411866152
 21
129.92406616602869
 31
0.0
  0
ARC
  5
276
  8
0
 10
91.381332463566068
 20
143.45786867349889
 30
0.0
 40
35.0
 50
156.78678929826179
 51
173.21321070173849
  0
LINE
  5
277
  8
0
 10
56.626585088540992
 20
147.59399426373409
 30
0.0
 11
57.602819960840968
 21
147.33241291807821
 31
0.0
  0
LINE
  5
278
  8
0
 10
56.626585088542583
 20
139.3217430832639
 30
0.0
 11
57.602819960840968
 21
139.58332442891941
 31
0.0
  0
ARC
  5
279
  8
0
 10
91.381332463566068
 20
143.45786867349889
 30
0.0
 40
34.0
 50
173.45651933527171
 51
186.54348066472909
  0
ARC
  5
27A
  8
0
 10
91.381332463566068
 20
143.45786867349881
 30
0.0
 40
34.0
 50
143.45651933527051
 51
156.54348066473071
  0
LINE
  5
27B
  8
0
 10
59.214775539567761
 20
157.25325252662429
 30
0.0
 11
60.191010411866152
 21
156.99167118096881
 31
0.0
  0
LINE
  5
27C
  8
0
 10
63.3509011298014
 20
164.41723219539799
 30
0.0
 11
64.065554656445443
 21
163.7025786687538
 31
0.0
  0
ARC
  5
27D
  8
0
 10
91.381332463566068
 20
143.45786867349881
 30
0.0
 40
34.0
 50
233.4565193352706
 51
246.54348066472869
  0
ARC
  5
27E
  8
0
 10
91.381332463566068
 20
143.45786867349881
 30
0.0
 40
34.0
 50
293.45651933527142
 51
306.54348066472937
  0
ARC
  5
27F
  8
0
 10
91.381332463566068
 20
143.45786867349881
 30
0.0
 40
35.0
 50
276.78678929826162
 51
293.21321070174002
  0
ARC
  5
280
  8
0
 10
91.381332463566068
 20
143.45786867349881
 30
0.0
 40
35.0
 50
246.78678929826
 51
263.21321070173838
  0
LINE
  5
281
  8
0
 10
77.585948610440596
 20
111.29131174950049
 30
0.0
 11
77.847529956096082
 21
112.2675466217989
 31
0.0
  0
ARC
  5
282
  8
0
 10
91.381332463566068
 20
143.45786867349881
 30
0.0
 40
34.0
 50
263.45651933527239
 51
276.54348066473079
  0
LINE
  5
283
  8
0
 10
87.245206873330744
 20
108.7031212984736
 30
0.0
 11
87.506788218986784
 21
109.6793561707737
 31
0.0
  0
LINE
  5
284
  8
0
 10
95.517458053800965
 20
108.7031212984753
 30
0.0
 11
95.255876708145479
 21
109.6793561707737
 31
0.0
  0
LINE
  5
285
  8
0
 10
105.17671631669199
 20
111.2913117494989
 30
0.0
 11
104.9151349710362
 21
112.2675466217989
 31
0.0
  0
LINE
  5
286
  8
0
 10
102.88928348132799
 20
143.95086776508421
 30
0.0
 11
92.642048692079356
 21
133.70363297583529
 31
0.0
  0
LINE
  5
287
  8
0
 10
101.1063614926606
 20
145.7337897537513
 30
0.0
 11
91.381332463566068
 21
136.00876072465681
 31
0.0
  0
LINE
  5
288
  8
0
 10
79.873381445804171
 20
143.95086776508421
 30
0.0
 11
90.120616235052921
 21
133.7036329758354
 31
0.0
  0
LINE
  5
289
  8
0
 10
81.656303434471511
 20
145.7337897537513
 30
0.0
 11
91.381332463566068
 21
136.00876072465681
 31
0.0
  0
TEXT
  5
28A
  8
0
 10
80.299703224774944
 20
116.76212071687399
 30
0.0
 40
6.6882916799999999
  1
A
 50
340.31774093962451
 41
0.8
  7
SIMPLEX
  0
LINE
  5
28B
  8
0
 10
70.421968941666819
 20
115.4274373397341
 30
0.0
 11
71.136622468310975
 21
116.1420908663782
 31
0.0
  0
TEXT
  5
28C
  8
0
 10
73.726348990781389
 20
120.3502874927364
 30
0.0
 40
6.6882916799999999
  1
V
 50
330.4938131035193
 41
0.8
  7
SIMPLEX
  0
LINE
  5
28D
  8
0
 10
92.642048692079356
 20
125.8842485184652
 30
0.0
 11
92.642048692079356
 21
133.70363297583529
 31
0.0
  0
LINE
  5
28E
  8
0
 10
90.120616235052921
 20
125.8842485184652
 30
0.0
 11
90.120616235052921
 21
133.7036329758354
 31
0.0
  0
TEXT
  5
28F
  8
0
 10
90.257828916292624
 20
114.3927625038876
 30
0.0
 40
6.6882916799999999
  1
L
 50
0.2135729876255031
 41
0.8
  7
SIMPLEX
  0
LINE
  5
290
  8
0
 10
90.120616235052921
 20
125.8842485184652
 30
0.0
 11
92.642048692079356
 21
125.8842485184652
 31
0.0
  0
TEXT
  5
291
  8
0
 10
98.241625423781457
 20
115.2455666174439
 30
0.0
 40
6.6882916799999999
  1
V
 50
17.719818438233769
 41
0.8
  7
SIMPLEX
  0
LINE
  5
292
  8
0
 10
81.656303434471511
 20
145.7337897537513
 30
0.0
 11
79.873381445804171
 21
143.95086776508421
 31
0.0
  0
CIRCLE
  5
293
  8
0
 10
91.381332463566196
 20
147.35462792526701
 30
0.0
 40
5.50130717896704
  0
ARC
  5
294
  8
0
 10
91.381332463566196
 20
147.35462792526701
 30
0.0
 40
8.0227396359936005
 50
99.041096148574411
 51
80.958903851425575
  0
LINE
  5
295
  8
0
 10
90.120616235052921
 20
161.0314888285325
 30
0.0
 11
92.642048692079356
 21
161.0314888285325
 31
0.0
  0
LINE
  5
296
  8
0
 10
90.120616235052921
 20
155.2776920962884
 30
0.0
 11
90.120616235052921
 21
161.0314888285325
 31
0.0
  0
LINE
  5
297
  8
0
 10
92.642048692079356
 20
155.2776920962884
 30
0.0
 11
92.642048692079356
 21
161.0314888285325
 31
0.0
  0
ARC
  5
298
  8
0
 10
91.381332463566068
 20
143.45786867349889
 30
0.0
 40
35.0
 50
336.78678929826179
 51
353.21321070173849
  0
ARC
  5
299
  8
0
 10
91.381332463566068
 20
143.45786867349889
 30
0.0
 40
35.0
 50
306.78678929826009
 51
323.21321070173798
  0
TEXT
  5
29A
  8
0
 10
107.0040728671238
 20
119.0134485541097
 30
0.0
 40
6.6882916799999999
  1
E
 50
36.194686541428787
 41
0.8
  7
SIMPLEX
  0
LINE
  5
29B
  8
0
 10
112.34069598546409
 20
115.42743733973531
 30
0.0
 11
111.6260424588212
 21
116.1420908663783
 31
0.0
  0
ARC
  5
29C
  8
0
 10
91.381332463566068
 20
143.45786867349889
 30
0.0
 40
34.0
 50
323.45651933527063
 51
336.54348066473079
  0
LINE
  5
29D
  8
0
 10
119.41176379733071
 20
122.4985051515996
 30
0.0
 11
118.69711027068659
 21
123.2131586782438
 31
0.0
  0
LINE
  5
29E
  8
0
 10
123.5478893875644
 20
129.66248482037341
 30
0.0
 11
122.57165451526591
 21
129.92406616602881
 31
0.0
  0
LINE
  5
29F
  8
0
 10
101.1063614926606
 20
145.7337897537513
 30
0.0
 11
102.88928348132799
 21
143.95086776508421
 31
0.0
  0
ARC
  5
2A0
  8
0
 10
91.381332463566068
 20
143.45786867349881
 30
0.0
 40
35.0
 50
6.7867892982615503
 51
23.213210701738181
  0
LINE
  5
2A1
  8
1
 10
136.381332463566
 20
143.45786867349881
 30
0.0
 11
46.381332463566082
 21
143.45786867349881
 31
0.0
  0
ARC
  5
2A2
  8
0
 10
91.381332463566068
 20
143.45786867349889
 30
0.0
 40
34.0
 50
353.45651933527091
 51
6.5434806647291097
  0
LINE
  5
2A3
  8
0
 10
126.1360798385911
 20
139.32174308326361
 30
0.0
 11
125.1598449662912
 21
139.5833244289195
 31
0.0
  0
LINE
  5
2A4
  8
0
 10
126.13607983858969
 20
147.59399426373369
 30
0.0
 11
125.1598449662912
 21
147.33241291807821
 31
0.0
  0
ARC
  5
2A5
  8
0
 10
91.381332463566068
 20
143.45786867349881
 30
0.0
 40
34.0
 50
23.456519335269981
 51
36.543480664729408
  0
LINE
  5
2A6
  8
0
 10
123.5478893875661
 20
157.25325252662469
 30
0.0
 11
122.571654515266
 21
156.99167118096889
 31
0.0
  0
LINE
  5
2A7
  8
0
 10
119.4117637973296
 20
164.41723219539691
 30
0.0
 11
118.69711027068659
 21
163.70257866875389
 31
0.0
  0
LINE
  5
2A8
  8
0
 10
199.38133246356611
 20
115.4274373397356
 30
0.0
 11
199.38133246356611
 21
122.4985051516003
 31
0.0
  0
LINE
  5
2A9
  8
0
 10
196.381332463566
 20
111.45786867349879
 30
0.0
 11
196.3813324635662
 21
175.45786867349889
 31
0.0
  0
LINE
  5
2AA
  8
0
 10
230.38133246356611
 20
108.70312129847311
 30
0.0
 11
230.38133246356611
 21
178.21261604852489
 31
0.0
  0
LINE
  5
2AB
  8
0
 10
234.8813324635662
 20
109.20786867349889
 30
0.0
 11
234.8813324635677
 21
177.70786867349881
 31
0.0
  0
LINE
  5
2AC
  8
0
 10
238.3813324635662
 20
109.20786867349889
 30
0.0
 11
238.38133246356639
 21
177.70786867349881
 31
0.0
  0
LINE
  5
2AD
  8
0
 10
240.38133246356631
 20
115.70786867349879
 30
0.0
 11
240.38133246356631
 21
171.20786867349881
 31
0.0
  0
LINE
  5
2AE
  8
0
 10
238.38133246356631
 20
115.70786867349879
 30
0.0
 11
240.38133246356631
 21
115.70786867349879
 31
0.0
  0
LINE
  5
2AF
  8
0
 10
199.38133246356591
 20
115.4274373397355
 30
0.0
 11
230.38133246356611
 21
115.4274373397356
 31
0.0
  0
LINE
  5
2B0
  8
0
 10
199.38133246356591
 20
111.2913117494985
 30
0.0
 11
230.38133246356611
 21
111.2913117494986
 31
0.0
  0
LINE
  5
2B1
  8
0
 10
199.38133246356591
 20
108.70312129847311
 30
0.0
 11
230.38133246356611
 21
108.70312129847311
 31
0.0
  0
LINE
  5
2B2
  8
0
 10
198.38133246356691
 20
112.2675466217984
 30
0.0
 11
230.38133246356611
 21
112.26754662179771
 31
0.0
  0
LINE
  5
2B3
  8
0
 10
238.3813324635662
 20
109.20786867349889
 30
0.0
 11
234.8813324635662
 21
109.20786867349889
 31
0.0
  0
LINE
  5
2B4
  8
0
 10
199.38133246356591
 20
108.70312129847311
 30
0.0
 11
199.38133246356591
 21
111.2913117494985
 31
0.0
  0
LINE
  5
2B5
  8
0
 10
198.38133246356691
 20
112.2675466217984
 30
0.0
 11
198.38133246356691
 21
116.14209086637899
 31
0.0
  0
LINE
  5
2B6
  8
0
 10
199.38133246356591
 20
111.2913117494986
 30
0.0
 11
198.38133246356671
 21
112.2675466217984
 31
0.0
  0
LINE
  5
2B7
  8
0
 10
199.38133246356611
 20
115.4274373397355
 30
0.0
 11
198.38133246356671
 21
116.14209086637899
 31
0.0
  0
LINE
  5
2B8
  8
0
 10
238.38133246356631
 20
171.20786867349881
 30
0.0
 11
240.38133246356631
 21
171.20786867349881
 31
0.0
  0
LINE
  5
2B9
  8
1
 10
186.38133246356611
 20
143.45786867349881
 30
0.0
 11
265.38133246356642
 21
143.45786867349881
 31
0.0
  0
LINE
  5
2BB
  8
0
 10
255.38133246356631
 20
162.93386867349881
 30
0.0
 11
255.38133246356631
 21
123.98186867349879
 31
0.0
  0
LINE
  5
2BC
  8
0
 10
253.88133246356631
 20
164.41286867349879
 30
0.0
 11
253.88133246356799
 21
122.5028686734987
 31
0.0
  0
ARC
  5
2BD
  8
0
 10
91.381332463566068
 20
143.45786867349881
 30
0.0
 40
35.0
 50
66.786789298260004
 51
83.213210701738447
  0
ARC
  5
2BE
  8
0
 10
91.381332463566068
 20
143.45786867349881
 30
0.0
 40
35.0
 50
96.786789298261553
 51
113.21321070174
  0
ARC
  5
2BF
  8
0
 10
91.381332463566068
 20
143.45786867349881
 30
0.0
 40
34.0
 50
113.4565193352713
 51
126.5434806647294
  0
LINE
  5
2C0
  8
0
 10
70.421968941668055
 20
171.4883000072623
 30
0.0
 11
71.136622468310975
 21
170.77364648061931
 31
0.0
  0
LINE
  5
2C1
  8
0
 10
77.585948610440141
 20
175.6244255974988
 30
0.0
 11
77.847529956095968
 21
174.6481907251987
 31
0.0
  0
LINE
  5
2C2
  8
1
 10
91.381332463566068
 20
188.45786867349889
 30
0.0
 11
91.381332463566068
 21
98.457868673498865
 31
0.0
  0
LINE
  5
2C3
  8
0
 10
87.245206873331199
 20
178.21261604852239
 30
0.0
 11
87.506788218986685
 21
177.23638117622389
 31
0.0
  0
LINE
  5
2C4
  8
0
 10
95.517458053801306
 20
178.21261604852401
 30
0.0
 11
95.255876708145365
 21
177.236381176224
 31
0.0
  0
TEXT
  5
2C5
  8
0
 10
91.381332463566068
 20
165.75217427349881
 30
0.0
 40
6.6882916799999999
  1
U
 50
354.97741823629462
 41
0.8
  7
SIMPLEX
  0
ARC
  5
2C6
  8
0
 10
91.381332463566068
 20
143.45786867349881
 30
0.0
 40
34.0
 50
83.456519335269178
 51
96.543480664730836
  0
TEXT
  5
2C7
  8
0
 10
85.639517972864951
 20
164.86462166647209
 30
0.0
 40
6.6882916799999999
  1
C
 50
15.462714679150119
 41
0.8
  7
SIMPLEX
  0
LINE
  5
2C8
  8
3
 10
240.38133246356631
 20
123.98186867349879
 30
0.0
 11
253.88133246356631
 21
123.9818686734986
 31
0.0
  0
LINE
  5
2C9
  8
0
 10
240.38133246356631
 20
122.5028686734987
 30
0.0
 11
253.88133246356631
 21
122.5028686734987
 31
0.0
  0
LINE
  5
2CA
  8
0
 10
253.88133246356631
 20
123.98186867349879
 30
0.0
 11
255.38133246356631
 21
123.98186867349879
 31
0.0
  0
ARC
  5
2CB
  8
0
 10
91.381332463566068
 20
143.45786867349881
 30
0.0
 40
34.0
 50
53.456519335270578
 51
66.543480664728634
  0
LINE
  5
2CC
  8
0
 10
105.1767163166914
 20
175.62442559749721
 30
0.0
 11
104.9151349710361
 21
174.6481907251987
 31
0.0
  0
LINE
  5
2CD
  8
0
 10
112.3406959854653
 20
171.48830000726349
 30
0.0
 11
111.6260424588211
 21
170.77364648061939
 31
0.0
  0
LINE
  5
2CE
  8
3
 10
240.38133246356631
 20
162.93386867349881
 30
0.0
 11
253.88133246356631
 21
162.93386867349881
 31
0.0
  0
LINE
  5
2CF
  8
0
 10
240.38133246356631
 20
164.41286867349879
 30
0.0
 11
253.88133246356631
 21
164.41286867349879
 31
0.0
  0
LINE
  5
2D0
  8
0
 10
253.88133246356631
 20
162.93386867349861
 30
0.0
 11
255.38133246356631
 21
162.93386867349869
 31
0.0
  0
LINE
  5
2D1
  8
0
 10
199.38133246356611
 20
157.25325252662469
 30
0.0
 11
199.38133246356611
 21
147.5939942637346
 31
0.0
  0
LINE
  5
2D2
  8
0
 10
199.38133246356611
 20
139.32174308326319
 30
0.0
 11
230.38133246356611
 21
139.32174308326319
 31
0.0
  0
LINE
  5
2D3
  8
0
 10
199.38133246356611
 20
129.66248482037309
 30
0.0
 11
230.38133246356611
 21
129.66248482037301
 31
0.0
  0
LINE
  5
2D4
  8
0
 10
199.38133246356611
 20
122.4985051516003
 30
0.0
 11
230.38133246356611
 21
122.4985051516003
 31
0.0
  0
LINE
  5
2D5
  8
0
 10
198.38133246356671
 20
139.5833244289189
 30
0.0
 11
230.38133246356611
 21
139.5833244289189
 31
0.0
  0
LINE
  5
2D6
  8
0
 10
198.38133246356691
 20
123.213158678244
 30
0.0
 11
230.38133246356611
 21
123.213158678244
 31
0.0
  0
LINE
  5
2D7
  8
0
 10
198.38133246356671
 20
147.33241291807889
 30
0.0
 11
230.38133246356611
 21
147.33241291807889
 31
0.0
  0
LINE
  5
2D8
  8
0
 10
199.38133246356611
 20
147.5939942637346
 30
0.0
 11
230.38133246356611
 21
147.5939942637346
 31
0.0
  0
LINE
  5
2DA
  8
0
 10
199.38133246356611
 20
129.66248482037309
 30
0.0
 11
199.38133246356611
 21
139.32174308326319
 31
0.0
  0
LINE
  5
2DB
  8
0
 10
198.38133246356691
 20
123.213158678244
 30
0.0
 11
198.38133246356671
 21
129.92406616602841
 31
0.0
  0
LINE
  5
2DC
  8
0
 10
199.38133246356611
 20
122.4985051516003
 30
0.0
 11
198.38133246356671
 21
123.213158678244
 31
0.0
  0
LINE
  5
2DD
  8
0
 10
199.3813324635662
 20
129.66248482037309
 30
0.0
 11
198.38133246356671
 21
129.92406616602841
 31
0.0
  0
LINE
  5
2DE
  8
0
 10
198.38133246356671
 20
139.5833244289189
 30
0.0
 11
198.38133246356671
 21
147.33241291807869
 31
0.0
  0
LINE
  5
2DF
  8
0
 10
199.38133246356591
 20
139.32174308326319
 30
0.0
 11
198.38133246356671
 21
139.5833244289189
 31
0.0
  0
LINE
  5
2E0
  8
0
 10
199.38133246356591
 20
147.5939942637346
 30
0.0
 11
198.38133246356671
 21
147.33241291807889
 31
0.0
  0
LINE
  5
2E1
  8
0
 10
198.38133246356691
 20
174.64819072519941
 30
0.0
 11
230.38133246356611
 21
174.6481907252001
 31
0.0
  0
LINE
  5
2E2
  8
0
 10
198.38133246356691
 20
163.70257866875389
 30
0.0
 11
230.38133246356611
 21
163.70257866875389
 31
0.0
  0
LINE
  5
2E3
  8
0
 10
199.3813324635662
 20
178.21261604852469
 30
0.0
 11
230.38133246356611
 21
178.21261604852489
 31
0.0
  0
LINE
  5
2E4
  8
0
 10
199.3813324635662
 20
175.62442559749931
 30
0.0
 11
230.38133246356611
 21
175.6244255974992
 31
0.0
  0
LINE
  5
2E5
  8
0
 10
199.3813324635662
 20
171.4883000072623
 30
0.0
 11
230.38133246356611
 21
171.4883000072623
 31
0.0
  0
LINE
  5
2E6
  8
0
 10
199.38133246356611
 20
164.4172321953975
 30
0.0
 11
230.38133246356611
 21
164.4172321953975
 31
0.0
  0
LINE
  5
2E7
  8
0
 10
199.38133246356611
 20
157.25325252662469
 30
0.0
 11
230.38133246356611
 21
157.25325252662481
 31
0.0
  0
LINE
  5
2EA
  8
0
 10
238.38133246356631
 20
177.70786867349881
 30
0.0
 11
234.88133246356631
 21
177.70786867349881
 31
0.0
  0
LINE
  5
2EB
  8
0
 10
199.3813324635662
 20
171.4883000072623
 30
0.0
 11
199.38133246356611
 21
164.4172321953975
 31
0.0
  0
LINE
  5
2EC
  8
0
 10
198.38133246356691
 20
163.7025786687538
 30
0.0
 11
198.38133246356671
 21
156.99167118096929
 31
0.0
  0
LINE
  5
2ED
  8
0
 10
199.3813324635662
 20
157.25325252662469
 30
0.0
 11
198.38133246356671
 21
156.99167118096929
 31
0.0
  0
LINE
  5
2EE
  8
0
 10
199.38133246356611
 20
164.4172321953975
 30
0.0
 11
198.38133246356671
 21
163.7025786687538
 31
0.0
  0
LINE
  5
2EF
  8
0
 10
198.38133246356691
 20
174.64819072519941
 30
0.0
 11
198.38133246356691
 21
170.77364648061871
 31
0.0
  0
LINE
  5
2F0
  8
0
 10
199.3813324635662
 20
171.4883000072623
 30
0.0
 11
198.38133246356691
 21
170.77364648061871
 31
0.0
  0
LINE
  5
2F1
  8
0
 10
199.3813324635662
 20
178.21261604852469
 30
0.0
 11
199.38133246356591
 21
175.62442559749931
 31
0.0
  0
LINE
  5
2F2
  8
0
 10
199.38133246356591
 20
175.6244255974992
 30
0.0
 11
198.38133246356691
 21
174.64819072519941
 31
0.0
  0
LINE
  5
352
  8
0
 10
230.38133246356611
 20
166.5980714773101
 30
0.0
 11
234.8813324635675
 21
166.5980714773101
 31
0.0
  0
LINE
  5
354
  8
0
 10
230.38133246356611
 20
164.83030452434369
 30
0.0
 11
234.88133246356739
 21
164.83030452434369
 31
0.0
  0
LINE
  5
355
  8
0
 10
230.381332463566
 20
122.0854328226539
 30
0.0
 11
234.88133246356651
 21
122.0854328226539
 31
0.0
  0
LINE
  5
356
  8
0
 10
230.38133246356611
 20
120.3176658696875
 30
0.0
 11
234.88133246356639
 21
120.3176658696875
 31
0.0
  0
LINE
  5
358
  8
0
 10
230.38133246356611
 20
157.042701449676
 30
0.0
 11
234.88133246356719
 21
157.042701449676
 31
0.0
  0
LINE
  5
359
  8
0
 10
230.38133246356611
 20
129.87303589732161
 30
0.0
 11
234.88133246356671
 21
129.87303589732161
 31
0.0
  0
TEXT
  5
404
  8
0
 62
     3
 10
0.0
 20
0.0
 30
0.0
 40
10.0
  1
VLHS-1.1/4FK
  7
STANDARD1
  0
ENDSEC
  0
EOF
