  0
SECTION
  2
HEADER
  9
$ACADVER
  1
AC1009
  9
$INSBASE
 10
0.0
 20
0.0
 30
0.0
  9
$EXTMIN
 10
0.0
 20
-2.960436562073669
 30
0.0
  9
$EXTMAX
 10
248.6296809357309
 20
218.8023797043455
 30
0.0
  9
$LIMMIN
 10
0.0
 20
0.0
  9
$LIMMAX
 10
385.0
 20
270.0
  9
$ORTHOMODE
 70
     1
  9
$REGENMODE
 70
     1
  9
$FILLMODE
 70
     1
  9
$QTEXTMODE
 70
     0
  9
$MIRRTEXT
 70
     0
  9
$DRAGMODE
 70
     2
  9
$LTSCALE
 40
10.0
  9
$OSMODE
 70
  3071
  9
$ATTMODE
 70
     1
  9
$TEXTSIZE
 40
0.2
  9
$TRACEWID
 40
0.05
  9
$TEXTSTYLE
  7
STANDARD
  9
$CLAYER
  8
0
  9
$CELTYPE
  6
BYLAYER
  9
$CECOLOR
 62
   256
  9
$DIMSCALE
 40
1.0
  9
$DIMASZ
 40
3.0
  9
$DIMEXO
 40
1.0
  9
$DIMDLI
 40
6.0
  9
$DIMRND
 40
0.0
  9
$DIMDLE
 40
0.0
  9
$DIMEXE
 40
1.0
  9
$DIMTP
 40
495.0
  9
$DIMTM
 40
0.0
  9
$DIMTXT
 40
3.0
  9
$DIMCEN
 40
0.0
  9
$DIMTSZ
 40
0.0
  9
$DIMTOL
 70
     0
  9
$DIMLIM
 70
     0
  9
$DIMTIH
 70
     0
  9
$DIMTOH
 70
     0
  9
$DIMSE1
 70
     0
  9
$DIMSE2
 70
     0
  9
$DIMTAD
 70
     1
  9
$DIMZIN
 70
     0
  9
$DIMBLK
  1

  9
$DIMASO
 70
     0
  9
$DIMSHO
 70
     0
  9
$DIMPOST
  1

  9
$DIMAPOST
  1

  9
$DIMALT
 70
     0
  9
$DIMALTD
 70
     2
  9
$DIMALTF
 40
25.399999999999999
  9
$DIMLFAC
 40
1.0
  9
$DIMTOFL
 70
     1
  9
$DIMTVP
 40
0.0
  9
$DIMTIX
 70
     1
  9
$DIMSOXD
 70
     0
  9
$DIMSAH
 70
     0
  9
$DIMBLK1
  1

  9
$DIMBLK2
  1

  9
$DIMSTYLE
  2
STANDARD
  9
$DIMCLRD
 70
     0
  9
$DIMCLRE
 70
     0
  9
$DIMCLRT
 70
     4
  9
$DIMTFAC
 40
1.0
  9
$DIMGAP
 40
1.0
  9
$LUNITS
 70
     2
  9
$LUPREC
 70
     4
  9
$SKETCHINC
 40
0.1
  9
$FILLETRAD
 40
0.0
  9
$AUNITS
 70
     0
  9
$AUPREC
 70
     0
  9
$MENU
  1
E:\r13\win\SUPPORT\ACAD
  9
$ELEVATION
 40
0.0
  9
$PELEVATION
 40
0.0
  9
$THICKNESS
 40
0.0
  9
$LIMCHECK
 70
     0
  9
$BLIPMODE
 70
     0
  9
$CHAMFERA
 40
0.0
  9
$CHAMFERB
 40
0.0
  9
$SKPOLY
 70
     0
  9
$TDCREATE
 40
2450569.7088687499
  9
$TDUPDATE
 40
2456597.3557854751
  9
$TDINDWG
 40
0.0180177662
  9
$TDUSRTIMER
 40
0.0180177662
  9
$USRTIMER
 70
     1
  9
$ANGBASE
 50
0.0
  9
$ANGDIR
 70
     0
  9
$PDMODE
 70
     0
  9
$PDSIZE
 40
0.0
  9
$PLINEWID
 40
0.0
  9
$COORDS
 70
     1
  9
$SPLFRAME
 70
     0
  9
$SPLINETYPE
 70
     6
  9
$SPLINESEGS
 70
     8
  9
$ATTDIA
 70
     0
  9
$ATTREQ
 70
     1
  9
$HANDLING
 70
     1
  9
$HANDSEED
  5
14BB
  9
$SURFTAB1
 70
     6
  9
$SURFTAB2
 70
     6
  9
$SURFTYPE
 70
     6
  9
$SURFU
 70
     6
  9
$SURFV
 70
     6
  9
$UCSNAME
  2

  9
$UCSORG
 10
0.0
 20
0.0
 30
0.0
  9
$UCSXDIR
 10
1.0
 20
0.0
 30
0.0
  9
$UCSYDIR
 10
0.0
 20
1.0
 30
0.0
  9
$PUCSNAME
  2

  9
$PUCSORG
 10
0.0
 20
0.0
 30
0.0
  9
$PUCSXDIR
 10
1.0
 20
0.0
 30
0.0
  9
$PUCSYDIR
 10
0.0
 20
1.0
 30
0.0
  9
$USERI1
 70
     3
  9
$USERI2
 70
     1
  9
$USERI3
 70
     0
  9
$USERI4
 70
     0
  9
$USERI5
 70
     0
  9
$USERR1
 40
1.0
  9
$USERR2
 40
3.0
  9
$USERR3
 40
3.0
  9
$USERR4
 40
3.0
  9
$USERR5
 40
10.0
  9
$WORLDVIEW
 70
     1
  9
$SHADEDGE
 70
     3
  9
$SHADEDIF
 70
    70
  9
$TILEMODE
 70
     1
  9
$MAXACTVP
 70
    16
  9
$PLIMCHECK
 70
     0
  9
$PEXTMIN
 10
1.0000000000000000E+020
 20
1.0000000000000000E+020
 30
1.0000000000000000E+020
  9
$PEXTMAX
 10
-1.0000000000000000E+020
 20
-1.0000000000000000E+020
 30
-1.0000000000000000E+020
  9
$PLIMMIN
 10
0.0
 20
0.0
  9
$PLIMMAX
 10
12.0
 20
9.0
  9
$UNITMODE
 70
     0
  9
$VISRETAIN
 70
     0
  9
$PLINEGEN
 70
     0
  9
$PSLTSCALE
 70
     0
  0
ENDSEC
  0
SECTION
  2
TABLES
  0
TABLE
  2
VPORT
 70
     1
  0
VPORT
  2
*ACTIVE
 70
     0
 10
0.0
 20
0.0
 11
1.0
 21
1.0
 12
192.49119011110221
 22
191.41590961049849
 13
0.0
 23
0.0
 14
5.0
 24
5.0
 15
10.0
 25
10.0
 16
0.0
 26
0.0
 36
1.0
 17
0.0
 27
0.0
 37
0.0
 40
392.31154628475502
 41
1.831871345029239
 42
50.0
 43
0.0
 44
0.0
 50
0.0
 51
0.0
 71
     0
 72
   100
 73
     1
 74
     0
 75
     0
 76
     0
 77
     0
 78
     0
  0
ENDTAB
  0
TABLE
  2
LTYPE
 70
     3
  0
LTYPE
  2
CONTINUOUS
 70
     0
  3
Solid Line
 72
    65
 73
     0
 40
0.0
  0
LTYPE
  2
CENTER
 70
     0
  3
____ _ ____ _ ____ _ ____ _ ____ _ ____ _ ____
 72
    65
 73
     4
 40
2.0
 49
1.25
 49
-0.25
 49
0.25
 49
-0.25
  0
LTYPE
  2
PHANTOM2
 70
     0
  3
___ _ _ ___ _ _ ___ _ _ ___ _ _
 72
    65
 73
     6
 40
1.25
 49
0.625
 49
-0.125
 49
0.125
 49
-0.125
 49
0.125
 49
-0.125
  0
ENDTAB
  0
TABLE
  2
LAYER
 70
     2
  0
LAYER
  2
0
 70
     0
 62
     7
  6
CONTINUOUS
  0
LAYER
  2
1
 70
     0
 62
     1
  6
CENTER
  0
ENDTAB
  0
TABLE
  2
STYLE
 70
     2
  0
STYLE
  2
STANDARD
 70
     0
 40
0.0
 41
1.0
 50
0.0
 71
     0
 42
0.2
  3
simplex
  4
bigfont
  0
STYLE
  2
STANDARD1
 70
     0
 40
0.0
 41
1.0
 50
0.0
 71
     0
 42
3.0
  3
txt
  4

  0
ENDTAB
  0
TABLE
  2
VIEW
 70
     0
  0
ENDTAB
  0
TABLE
  2
UCS
 70
     0
  0
ENDTAB
  0
TABLE
  2
APPID
 70
     3
  0
APPID
  2
ACAD
 70
     0
  0
APPID
  2
ACAD_MLEADERVER
 70
     0
  0
APPID
  2
ACAD_NAV_VCDISPLAY
 70
     0
  0
ENDTAB
  0
TABLE
  2
DIMSTYLE
 70
     1
  0
DIMSTYLE
  2
STANDARD
 70
     0
  3

  4

  5

  6

  7

 40
1.0
 41
0.18
 42
0.0625
 43
0.38
 44
0.18
 45
0.0
 46
0.0
 47
0.0
 48
0.0
140
0.18
141
0.09
142
0.0
143
25.399999999999999
144
1.0
145
0.0
146
1.0
147
0.09
 71
     0
 72
     0
 73
     1
 74
     1
 75
     0
 76
     0
 77
     0
 78
     0
170
     0
171
     2
172
     0
173
     0
174
     0
175
     0
176
     0
177
     0
178
     0
  0
ENDTAB
  0
ENDSEC
  0
SECTION
  2
BLOCKS
  0
BLOCK
  8
0
  2
$MODEL_SPACE
 70
     0
 10
0.0
 20
0.0
 30
0.0
  3
$MODEL_SPACE
  1

  0
ENDBLK
  5
128F
  8
0
  0
BLOCK
 67
     1
  8
0
  2
$PAPER_SPACE
 70
     0
 10
0.0
 20
0.0
 30
0.0
  3
$PAPER_SPACE
  1

  0
ENDBLK
  5
128D
 67
     1
  8
0
  0
BLOCK
  8
0
  2
STDGX5
 70
     0
 10
0.0
 20
0.0
 30
0.0
  3
STDGX5
  1

  0
ENDBLK
  5
4F
  8
0
  0
ENDSEC
  0
SECTION
  2
ENTITIES
  0
INSERT
  5
DE
  8
0
  6
CONTINUOUS
 62
     7
  2
STDGX5
 10
0.0
 20
0.0
 30
0.0
  0
INSERT
  5
DF
  8
0
  6
CONTINUOUS
 62
     7
  2
STDGX5
 10
0.0
 20
0.0
 30
0.0
  0
INSERT
  5
15C
  8
0
  6
CONTINUOUS
 62
     7
  2
STDGX5
 10
275.0
 20
0.0
 30
0.0
  0
INSERT
  5
15D
  8
0
  6
CONTINUOUS
 62
     7
  2
STDGX5
 10
275.0
 20
0.0
 30
0.0
  0
INSERT
  5
25F
  8
0
  6
CONTINUOUS
 62
     7
  2
STDGX5
 10
45.499302106388193
 20
44.35714295772538
 30
0.0
  0
INSERT
  5
260
  8
0
  6
CONTINUOUS
 62
     7
  2
STDGX5
 10
45.499302106388193
 20
44.35714295772538
 30
0.0
  0
INSERT
  5
261
  8
0
  6
CONTINUOUS
 62
     7
  2
STDGX5
 10
320.4993021063882
 20
44.35714295772538
 30
0.0
  0
INSERT
  5
262
  8
0
  6
CONTINUOUS
 62
     7
  2
STDGX5
 10
320.4993021063882
 20
44.35714295772538
 30
0.0
  0
CIRCLE
  5
D39
  8
1
 10
174.87969973574931
 20
145.05239850436391
 30
0.0
 40
68.749981199981548
  0
CIRCLE
  5
1042
  8
0
 10
174.87969973574931
 20
145.05239850436391
 30
0.0
 40
62.5384500008606
  0
ARC
  5
10C9
  8
0
 10
110.2636087587379
 20
132.95590378586519
 30
0.0
 40
1.2162171510158379
 50
140.56584296168961
 51
190.60335994757111
  0
LINE
  5
10CA
  8
0
 10
109.324257312605
 20
133.72843405651679
 30
0.0
 11
111.0247121286079
 21
135.79608726206479
 31
0.0
  0
ARC
  5
10CB
  8
0
 10
174.8796997357498
 20
145.05239850436141
 30
0.0
 40
64.522389448334209
 50
188.24804787650919
 51
190.60335994756429
  0
ARC
  5
10CC
  8
0
 10
105.4126329643055
 20
138.6153268035834
 30
0.0
 40
5.2422811085401859
 50
303.83532702875988
 51
5.2941176470586742
  0
ARC
  5
10CD
  8
0
 10
110.2604178378857
 20
132.97296123980021
 30
0.0
 40
2.3192978228673642
 50
146.26849437002289
 51
190.58823529411791
  0
ARC
  5
10CE
  8
0
 10
244.34846331285161
 20
138.63366459666111
 30
0.0
 40
5.2422811085403271
 50
174.7210070063891
 51
236.1797976246873
  0
ARC
  5
10CF
  8
0
 10
239.5021680516125
 20
132.9900195354642
 30
0.0
 40
2.3192978228673602
 50
349.42688935933188
 51
33.746630283426313
  0
ARC
  5
10D0
  8
0
 10
239.498981633613
 20
132.9729612398001
 30
0.0
 40
1.216217151015774
 50
349.4117647058851
 51
39.44928169176913
  0
LINE
  5
10D1
  8
0
 10
240.4381291183409
 20
133.7457394488317
 30
0.0
 11
238.73712855283381
 21
135.81294370478341
 31
0.0
  0
ARC
  5
10D2
  8
0
 10
174.8796997357494
 20
145.05239850436649
 30
0.0
 40
64.522389448334422
 50
349.41176470587999
 51
351.7670767769352
  0
ARC
  5
10D3
  8
0
 10
180.94529312007469
 20
79.594221211376833
 30
0.0
 40
1.2162171510157009
 50
275.29411764706299
 51
325.33163463294528
  0
LINE
  5
10D4
  8
0
 10
181.94558092679571
 20
78.902405873190446
 30
0.0
 11
183.46837008897509
 21
81.10418913392013
 31
0.0
  0
ARC
  5
10D5
  8
0
 10
174.87969973574849
 20
145.05239850436641
 30
0.0
 40
64.522389448336654
 50
275.29411764705918
 51
277.64942971811439
  0
ARC
  5
10D6
  8
0
 10
187.71702642373819
 20
76.478990382738118
 30
0.0
 40
5.2422811085402188
 50
100.6033599475672
 51
162.06215056586561
  0
ARC
  5
10D7
  8
0
 10
180.9625722309506
 20
79.59582465703204
 30
0.0
 40
2.3192978228673602
 50
275.30924230050789
 51
319.6289832246033
  0
ARC
  5
10D8
  8
0
 10
135.2771881030427
 20
92.581402039598444
 30
0.0
 40
1.2162171510157389
 50
182.9187841381536
 51
232.95630112403799
  0
LINE
  5
10D9
  8
0
 10
134.06254873002331
 20
92.519471821320167
 30
0.0
 11
133.92623104523071
 21
95.193074979699006
 31
0.0
  0
ARC
  5
10DA
  8
0
 10
174.87969973575051
 20
145.0523985043634
 30
0.0
 40
64.522389448334394
 50
230.60098905298091
 51
232.95630112403609
  0
ARC
  5
10DB
  8
0
 10
135.2633384516711
 20
92.591857940684235
 30
0.0
 40
1.216217151015712
 50
232.94117647058661
 51
282.97869345647013
  0
LINE
  5
10DC
  8
0
 10
135.53648708108091
 20
91.406710698913699
 30
0.0
 11
138.14517364198599
 21
92.007951737627678
 31
0.0
  0
ARC
  5
10DD
  8
0
 10
174.87969973574951
 20
145.05239850436391
 30
0.0
 40
64.522389448334224
 50
232.941176470588
 51
235.29648854164321
  0
ARC
  5
10DE
  8
0
 10
127.87954510114579
 20
93.495684855872227
 30
0.0
 40
5.2422811085402676
 50
346.18826820523049
 51
47.647058823529029
  0
ARC
  5
10DF
  8
0
 10
135.26333845167099
 20
92.591857940684264
 30
0.0
 40
2.31929782286727
 50
188.62143554649339
 51
232.9411764705884
  0
ARC
  5
10E0
  8
0
 10
138.15333332206791
 20
85.737280128377989
 30
0.0
 40
5.2422811085402481
 50
356.77650349934908
 51
58.235294117647939
  0
ARC
  5
10E1
  8
0
 10
145.57748131911461
 20
86.205611051794236
 30
0.0
 40
2.3192978228673251
 50
199.20967084061101
 51
243.5294117647064
  0
ARC
  5
10E2
  8
0
 10
138.16899230991109
 20
85.727587352505026
 30
0.0
 40
5.2422811085402534
 50
58.250418771095688
 51
119.709209389394
  0
ARC
  5
10E3
  8
0
 10
135.2771881030427
 20
92.581402039598572
 30
0.0
 40
2.3192978228674308
 50
232.9563011240387
 51
277.27604204813389
  0
ARC
  5
10E4
  8
0
 10
162.07857816610249
 20
76.472222473178832
 30
0.0
 40
5.2422811085401886
 50
79.426889359331355
 51
140.88567997762979
  0
ARC
  5
10E5
  8
0
 10
156.90616761301931
 20
81.818574164401085
 30
0.0
 40
2.3192978228674428
 50
254.13277171227361
 51
298.45251263636862
  0
ARC
  5
10E6
  8
0
 10
156.90616761301931
 20
81.818574164400971
 30
0.0
 40
1.21621715101576
 50
204.09525472638941
 51
254.13277171227409
  0
LINE
  5
10E7
  8
0
 10
155.79592190417591
 20
81.322047604769423
 30
0.0
 11
154.702992589074
 21
83.765864674820222
 31
0.0
  0
ARC
  5
10E8
  8
0
 10
174.87969973575011
 20
145.0523985043649
 30
0.0
 40
64.52238944833536
 50
251.77745964121681
 51
254.13277171227199
  0
ARC
  5
10E9
  8
0
 10
149.67779390278599
 20
79.998780616534788
 30
0.0
 40
5.242281108540312
 50
7.364738793466695
 51
68.823529411765094
  0
ARC
  5
10EA
  8
0
 10
156.88947609059869
 20
81.823320930659207
 30
0.0
 40
2.319297822867274
 50
209.79790613472741
 51
254.11764705882271
  0
ARC
  5
10EB
  8
0
 10
156.88947609059869
 20
81.823320930659278
 30
0.0
 40
1.216217151015758
 50
254.1176470588232
 51
304.15516404470588
  0
LINE
  5
10EC
  8
0
 10
157.57230416631759
 20
80.816876705957796
 30
0.0
 11
159.78763862497669
 21
82.3198835575582
 31
0.0
  0
ARC
  5
10ED
  8
0
 10
174.87969973574829
 20
145.05239850436479
 30
0.0
 40
64.522389448334721
 50
254.11764705882439
 51
256.4729591298796
  0
ARC
  5
10EE
  8
0
 10
145.59301642063559
 20
86.197878049055404
 30
0.0
 40
1.2162171510158031
 50
193.50701943227409
 51
243.544536418158
  0
LINE
  5
10EF
  8
0
 10
144.41043823888759
 20
85.91381291131691
 30
0.0
 11
143.78516833054039
 21
88.516844586382703
 31
0.0
  0
ARC
  5
10F0
  8
0
 10
174.87969973574951
 20
145.05239850436161
 30
0.0
 40
64.522389448332135
 50
241.1892243470987
 51
243.54453641815391
  0
ARC
  5
10F1
  8
0
 10
149.6949673094976
 20
79.992130210056075
 30
0.0
 40
5.2422811085402738
 50
68.838654065214016
 51
130.2974446835124
  0
ARC
  5
10F2
  8
0
 10
145.59301642063559
 20
86.197878049055404
 30
0.0
 40
2.3192978228673442
 50
243.5445364181557
 51
287.86427734225089
  0
ARC
  5
10F3
  8
0
 10
145.5774813191145
 20
86.205611051794165
 30
0.0
 40
1.2162171510156989
 50
243.52941176470591
 51
293.566928750589
  0
LINE
  5
10F4
  8
0
 10
146.06374930825689
 20
85.090834122915481
 30
0.0
 11
148.51754027217819
 21
86.161182788098245
 31
0.0
  0
ARC
  5
10F5
  8
0
 10
174.879699735749
 20
145.05239850436359
 30
0.0
 40
64.522389448333627
 50
243.5294117647062
 51
245.88472383576129
  0
ARC
  5
10F6
  8
0
 10
174.8981158645089
 20
75.287730378188343
 30
0.0
 40
5.2422811085402481
 50
90.015124653448467
 51
151.47391527174699
  0
ARC
  5
10F7
  8
0
 10
168.8313858849672
 20
79.592622327030924
 30
0.0
 40
2.3192978228673198
 50
264.72100700639101
 51
309.04074793048619
  0
ARC
  5
10F8
  8
0
 10
168.8313858849672
 20
79.592622327030924
 30
0.0
 40
1.216217151015764
 50
214.6834900205088
 51
264.72100700639209
  0
LINE
  5
10F9
  8
0
 10
167.83128073505
 20
78.90054296197664
 30
0.0
 11
166.30791041019529
 21
81.101924167727361
 31
0.0
  0
ARC
  5
10FA
  8
0
 10
174.87969973575019
 20
145.052398504363
 30
0.0
 40
64.522389448333342
 50
262.36569493533398
 51
264.72100700638919
  0
ARC
  5
10FB
  8
0
 10
162.06047516029159
 20
76.475604038646935
 30
0.0
 40
5.2422811085401966
 50
17.952974087583431
 51
79.411764705881822
  0
ARC
  5
10FC
  8
0
 10
168.81410635142379
 20
79.594221211376976
 30
0.0
 40
2.3192978228673939
 50
220.3861414288458
 51
264.70588235294099
  0
ARC
  5
10FD
  8
0
 10
168.81410635142379
 20
79.594221211376862
 30
0.0
 40
1.2162171510157189
 50
264.70588235294252
 51
314.74339933882561
  0
LINE
  5
10FE
  8
0
 10
169.67024162256249
 20
78.730382941828111
 30
0.0
 11
171.57167901797069
 21
80.614864884172917
 31
0.0
  0
ARC
  5
10FF
  8
0
 10
174.87969973574849
 20
145.05239850436371
 30
0.0
 40
64.522389448333826
 50
264.70588235294173
 51
267.06119442399688
  0
ARC
  5
1100
  8
0
 10
174.8796997357492
 20
75.287727947489572
 30
0.0
 40
5.242281108540225
 50
28.54120938170103
 51
89.999999999999375
  0
ARC
  5
1101
  8
0
 10
180.94529312007469
 20
79.594221211376862
 30
0.0
 40
2.319297822867282
 50
230.97437672296269
 51
275.29411764705782
  0
ARC
  5
1102
  8
0
 10
180.9625722309506
 20
79.595824657032097
 30
0.0
 40
1.2162171510158499
 50
225.27172531462719
 51
275.30924230051028
  0
LINE
  5
1103
  8
0
 10
180.10666502134609
 20
78.731760419274167
 30
0.0
 11
178.20473023607011
 21
80.615740364028682
 31
0.0
  0
ARC
  5
1104
  8
0
 10
174.87969973575051
 20
145.05239850436379
 30
0.0
 40
64.522389448333954
 50
272.9539302294516
 51
275.3092423005067
  0
ARC
  5
1105
  8
0
 10
112.428927619756
 20
113.95560895905091
 30
0.0
 40
5.2422811085402632
 50
325.01179761699541
 51
26.470588235282701
  0
ARC
  5
1106
  8
0
 10
118.98760992599409
 20
110.44548164772461
 30
0.0
 40
2.319297822867314
 50
167.44496495825879
 51
211.76470588235429
  0
ARC
  5
1107
  8
0
 10
119.2173909126313
 20
102.9950967080165
 30
0.0
 40
5.242281108540265
 50
37.073948182860768
 51
98.532738801159184
  0
ARC
  5
1108
  8
0
 10
118.99674723415529
 20
110.4307287391912
 30
0.0
 40
2.3192978228674348
 50
211.77983053580459
 51
256.09957145990001
  0
ARC
  5
1109
  8
0
 10
118.99674723415539
 20
110.430728739191
 30
0.0
 40
1.2162171510158539
 50
161.74231354991829
 51
211.7798305357999
  0
LINE
  5
110A
  8
0
 10
117.8417579748355
 20
110.81175888141161
 30
0.0
 11
118.68046237904569
 21
113.3540632066329
 31
0.0
  0
ARC
  5
110B
  8
0
 10
174.87969973575011
 20
145.05239850436419
 30
0.0
 40
64.52238944833492
 50
209.42451846474671
 51
211.77983053580181
  0
ARC
  5
110C
  8
0
 10
118.98760992599409
 20
110.44548164772441
 30
0.0
 40
1.2162171510156681
 50
211.76470588234929
 51
261.80222286823312
  0
LINE
  5
110D
  8
0
 10
118.81418887312429
 20
109.2416920910135
 30
0.0
 11
121.4639099609937
 21
108.85996638297119
 31
0.0
  0
ARC
  5
110E
  8
0
 10
174.87969973574869
 20
145.05239850436149
 30
0.0
 40
64.522389448332277
 50
211.76470588235131
 51
214.12001795340649
  0
ARC
  5
110F
  8
0
 10
126.3099758211243
 20
100.7517628827252
 30
0.0
 40
1.2162171510157509
 50
172.3305488440356
 51
222.36806582991829
  0
LINE
  5
1110
  8
0
 10
125.1046383438824
 20
100.9140765432135
 30
0.0
 11
125.4619150179051
 21
103.56720483598031
 31
0.0
  0
ARC
  5
1111
  8
0
 10
174.87969973574991
 20
145.05239850436209
 30
0.0
 40
64.522389448333428
 50
220.0127537588628
 51
222.36806582991801
  0
ARC
  5
1112
  8
0
 10
119.206290775833
 20
103.0097916312033
 30
0.0
 40
5.242281108540265
 50
335.6000329111157
 51
37.058823529411761
  0
ARC
  5
1113
  8
0
 10
126.2982832531688
 20
100.764585618987
 30
0.0
 40
2.319297822867274
 50
178.0332002523744
 51
222.3529411764701
  0
ARC
  5
1114
  8
0
 10
127.8931564220711
 20
93.483279786461907
 30
0.0
 40
5.2422811085403476
 50
47.662183476978619
 51
109.12097409527701
  0
ARC
  5
1115
  8
0
 10
126.3099758211242
 20
100.7517628827253
 30
0.0
 40
2.3192978228673788
 50
222.36806582992119
 51
266.68780675401678
  0
ARC
  5
1116
  8
0
 10
126.2982832531688
 20
100.764585618987
 30
0.0
 40
1.216217151015706
 50
222.35294117647081
 51
272.39045816235392
  0
LINE
  5
1117
  8
0
 10
126.3490107738772
 20
99.549426832215715
 30
0.0
 11
129.02375723970911
 21
99.661085701996683
 31
0.0
  0
ARC
  5
1118
  8
0
 10
174.8796997357492
 20
145.0523985043634
 30
0.0
 40
64.522389448333669
 50
222.3529411764703
 51
224.70825324752551
  0
ARC
  5
1119
  8
0
 10
107.77825060664379
 20
125.9603901583759
 30
0.0
 40
5.2422811085402721
 50
314.42356232287841
 51
15.882352941176659
  0
ARC
  5
111A
  8
0
 10
113.5802746821176
 20
121.3048747235929
 30
0.0
 40
2.319297822867314
 50
156.85672966413699
 51
201.17647058823141
  0
ARC
  5
111B
  8
0
 10
112.4371385705814
 20
113.93912460007201
 30
0.0
 40
5.2422811085402268
 50
26.485712888731179
 51
87.944503507040892
  0
ARC
  5
111C
  8
0
 10
113.5865455704141
 20
121.2886940353937
 30
0.0
 40
2.3192978228672869
 50
201.19159524168521
 51
245.51133616578051
  0
ARC
  5
111D
  8
0
 10
113.5802746821175
 20
121.304874723593
 30
0.0
 40
1.216217151015764
 50
201.17647058823539
 51
251.21398757411831
  0
LINE
  5
111E
  8
0
 10
113.1886107016294
 20
120.15344800650981
 30
0.0
 11
115.7230733378793
 21
119.29133693180189
 31
0.0
  0
ARC
  5
111F
  8
0
 10
174.87969973574931
 20
145.0523985043661
 30
0.0
 40
64.522389448335005
 50
201.1764705882369
 51
203.53178265929131
  0
ARC
  5
1120
  8
0
 10
113.5865455704142
 20
121.2886940353936
 30
0.0
 40
1.21621715101582
 50
151.15407825579831
 51
201.19159524168089
  0
LINE
  5
1121
  8
0
 10
112.5212363029855
 20
121.8754651348486
 30
0.0
 11
113.8128073648129
 21
124.2203703678869
 31
0.0
  0
ARC
  5
1122
  8
0
 10
174.87969973574931
 20
145.05239850436371
 30
0.0
 40
64.52238944833401
 50
198.83628317062889
 51
201.1915952416841
  0
ARC
  5
1123
  8
0
 10
107.783292757414
 20
125.94267771867921
 30
0.0
 40
5.242281108540217
 50
15.897477594624471
 51
77.356268212923098
  0
ARC
  5
1124
  8
0
 10
110.2636087587378
 20
132.95590378586519
 30
0.0
 40
2.31929782286733
 50
190.6033599475679
 51
234.92310087166291
  0
ARC
  5
1125
  8
0
 10
110.2604178378856
 20
132.97296123980021
 30
0.0
 40
1.216217151015734
 50
190.58823529411939
 51
240.6257522800037
  0
LINE
  5
1126
  8
0
 10
109.6638485768856
 20
131.91310781821079
 30
0.0
 11
111.9967446761913
 21
130.59996953549839
 31
0.0
  0
ARC
  5
1127
  8
0
 10
174.87969973575051
 20
145.0523985043655
 30
0.0
 40
64.52238944833563
 50
190.58823529411879
 51
192.943547365174
  0
ARC
  5
1128
  8
0
 10
214.50990791062031
 20
92.602317497367437
 30
0.0
 40
1.2162171510156961
 50
257.03643119697608
 51
307.0739481828594
  0
LINE
  5
1129
  8
0
 10
214.23707213996789
 20
91.417098192480239
 30
0.0
 11
211.62822695735119
 21
92.017650582216859
 31
0.0
  0
ARC
  5
112A
  8
0
 10
174.87969973574971
 20
145.05239850436649
 30
0.0
 40
64.522389448336043
 50
304.71863611180407
 51
307.0739481828594
  0
ARC
  5
112B
  8
0
 10
214.49606101982761
 20
92.591857940684463
 30
0.0
 40
1.2162171510158359
 50
307.05882352940557
 51
357.096340515289
  0
LINE
  5
112C
  8
0
 10
215.71071669855661
 20
92.530248358989638
 30
0.0
 11
215.84632861421159
 21
95.203887408676863
 31
0.0
  0
ARC
  5
112D
  8
0
 10
174.8796997357498
 20
145.052398504362
 30
0.0
 40
64.522389448332305
 50
307.05882352941262
 51
309.41413560046777
  0
ARC
  5
112E
  8
0
 10
221.89346241617591
 20
93.508093517898686
 30
0.0
 40
5.2422811085402579
 50
132.3680658299202
 51
193.82685644821819
  0
ARC
  5
112F
  8
0
 10
214.50990791062031
 20
92.602317497367437
 30
0.0
 40
2.319297822867274
 50
307.07394818286281
 51
351.39368910695839
  0
ARC
  5
1130
  8
0
 10
200.08160556871249
 20
79.998780616534958
 30
0.0
 40
5.2422811085401326
 50
49.717679969936448
 51
111.17647058823501
  0
ARC
  5
1131
  8
0
 10
204.1819181523843
 20
86.205611051794378
 30
0.0
 40
2.3192978228674681
 50
252.15084731119819
 51
296.47058823529341
  0
ARC
  5
1132
  8
0
 10
204.1974512120448
 20
86.213348155142043
 30
0.0
 40
1.216217151015806
 50
246.44819590286019
 51
296.48571288874302
  0
LINE
  5
1133
  8
0
 10
203.71147751308209
 20
85.098442902512275
 30
0.0
 11
201.2574040893677
 21
86.168143790938203
 31
0.0
  0
ARC
  5
1134
  8
0
 10
174.87969973575071
 20
145.05239850436629
 30
0.0
 40
64.522389448335758
 50
294.13040081768611
 51
296.4857128887412
  0
ARC
  5
1135
  8
0
 10
192.86992338089959
 20
81.823320930659136
 30
0.0
 40
1.2162171510157169
 50
285.88235294117732
 51
335.91986992706171
  0
LINE
  5
1136
  8
0
 10
193.9803001216581
 20
81.327087465435952
 30
0.0
 11
195.07258429207491
 21
83.771192956354326
 31
0.0
  0
ARC
  5
1137
  8
0
 10
174.8796997357484
 20
145.05239850436359
 30
0.0
 40
64.522389448334096
 50
285.8823529411772
 51
288.23766501223241
  0
ARC
  5
1138
  8
0
 10
192.88661364971119
 20
81.828072102896726
 30
0.0
 40
1.216217151015782
 50
235.85996060874299
 51
285.89747759462631
  0
LINE
  5
1139
  8
0
 10
192.204051273895
 20
80.821447663721358
 30
0.0
 11
189.98832013619079
 21
82.323869670045994
 31
0.0
  0
ARC
  5
113A
  8
0
 10
174.8796997357509
 20
145.05239850436331
 30
0.0
 40
64.522389448333143
 50
283.542165523569
 51
285.89747759462409
  0
ARC
  5
113B
  8
0
 10
187.6989243112067
 20
76.475604038646793
 30
0.0
 40
5.2422811085402703
 50
39.129444675819002
 51
100.5882352941174
  0
ARC
  5
113C
  8
0
 10
192.86992338089959
 20
81.823320930659136
 30
0.0
 40
2.3192978228672518
 50
241.56261201708119
 51
285.88235294117618
  0
ARC
  5
113D
  8
0
 10
200.0987772192841
 20
80.005435556131815
 30
0.0
 40
5.2422811085402277
 50
111.191595241684
 51
172.65038585998261
  0
ARC
  5
113E
  8
0
 10
192.88661364971111
 20
81.828072102896627
 30
0.0
 40
2.3192978228672572
 50
285.8974775946283
 51
330.21721851872348
  0
ARC
  5
113F
  8
0
 10
211.606066149431
 20
85.737280128378174
 30
0.0
 40
5.2422811085402063
 50
60.305915264054619
 51
121.7647058823531
  0
ARC
  5
1140
  8
0
 10
214.49606101982761
 20
92.591857940684406
 30
0.0
 40
2.3192978228673922
 50
262.73908260531562
 51
307.05882352941052
  0
ARC
  5
1141
  8
0
 10
211.62172257807819
 20
85.746977037494688
 30
0.0
 40
5.2422811085402161
 50
121.77983053580201
 51
183.2386211541008
  0
ARC
  5
1142
  8
0
 10
204.19745121204491
 20
86.213348155142015
 30
0.0
 40
2.3192978228672581
 50
296.4857128887441
 51
340.80545381283912
  0
ARC
  5
1143
  8
0
 10
204.1819181523843
 20
86.205611051794193
 30
0.0
 40
1.21621715101575
 50
296.47058823529591
 51
346.50810522117899
  0
LINE
  5
1144
  8
0
 10
205.36457127902381
 20
85.921858095025982
 30
0.0
 11
205.989154030305
 21
88.5250547350212
 31
0.0
  0
ARC
  5
1145
  8
0
 10
174.8796997357492
 20
145.05239850436061
 30
0.0
 40
64.522389448331253
 50
296.47058823529562
 51
298.82590030635077
  0
ARC
  5
1146
  8
0
 10
223.47280540099609
 20
100.7774114413477
 30
0.0
 40
1.2162171510157569
 50
267.62466649109513
 51
317.6621834769785
  0
LINE
  5
1147
  8
0
 10
223.42239865359321
 20
99.562239306116965
 30
0.0
 11
220.7476228058033
 21
99.673192105815076
 31
0.0
  0
ARC
  5
1148
  8
0
 10
174.8796997357498
 20
145.05239850436601
 30
0.0
 40
64.522389448335161
 50
315.30687140592158
 51
317.66218347697679
  0
ARC
  5
1149
  8
0
 10
221.8798543703528
 20
93.495684855872227
 30
0.0
 40
5.2422811085402303
 50
70.894150558172086
 51
132.35294117647049
  0
ARC
  5
114A
  8
0
 10
223.46111621832989
 20
100.7645856189871
 30
0.0
 40
2.3192978228673118
 50
273.32731789943188
 51
317.64705882352717
  0
ARC
  5
114B
  8
0
 10
237.33867845082341
 20
113.97209548494121
 30
0.0
 40
5.2422811085402721
 50
153.54453641816681
 51
215.00332703645449
  0
ARC
  5
114C
  8
0
 10
230.78092295894839
 20
110.4602369677649
 30
0.0
 40
2.31929782286733
 50
328.25041877109652
 51
12.57015969519149
  0
ARC
  5
114D
  8
0
 10
223.46111621832981
 20
100.7645856189871
 30
0.0
 40
1.2162171510157249
 50
317.6470588235282
 51
7.6845758094107639
  0
LINE
  5
114E
  8
0
 10
224.6664108068278
 20
100.9272174527779
 30
0.0
 11
224.30843378571791
 21
103.5802513409969
 31
0.0
  0
ARC
  5
114F
  8
0
 10
174.87969973574789
 20
145.0523985043672
 30
0.0
 40
64.52238944833725
 50
317.64705882352803
 51
320.00237089458312
  0
ARC
  5
1150
  8
0
 10
230.56420495298471
 20
103.02448948403681
 30
0.0
 40
5.2422811085402339
 50
142.9563011240385
 51
204.41509174233531
  0
ARC
  5
1151
  8
0
 10
223.47280540099609
 20
100.77741144134789
 30
0.0
 40
2.3192978228673762
 50
317.66218347697333
 51
1.98192440106877
  0
ARC
  5
1152
  8
0
 10
230.55310869566571
 20
103.0097916312034
 30
0.0
 40
5.242281108540161
 50
81.482385852290307
 51
142.94117647058869
  0
ARC
  5
1153
  8
0
 10
230.7717895455045
 20
110.44548164772431
 30
0.0
 40
2.3192978228671421
 50
283.91555319355479
 51
328.23529411765008
  0
ARC
  5
1154
  8
0
 10
230.77178954550459
 20
110.4454816477247
 30
0.0
 40
1.216217151015744
 50
328.23529411763491
 51
18.272811103519508
  0
LINE
  5
1155
  8
0
 10
231.9266781821521
 20
110.8268166649567
 30
0.0
 11
231.0873027023847
 21
113.3688995046073
 31
0.0
  0
ARC
  5
1156
  8
0
 10
174.87969973574789
 20
145.05239850436391
 30
0.0
 40
64.522389448335304
 50
328.2352941176477
 51
330.59060618870279
  0
ARC
  5
1157
  8
0
 10
230.78092295894839
 20
110.4602369677649
 30
0.0
 40
1.2162171510157109
 50
278.21290178521087
 51
328.25041877109493
  0
LINE
  5
1158
  8
0
 10
230.9546617761215
 20
109.2564932318177
 30
0.0
 11
228.30504154661509
 21
108.8740680769567
 31
0.0
  0
ARC
  5
1159
  8
0
 10
174.87969973574849
 20
145.0523985043645
 30
0.0
 40
64.522389448335076
 50
325.8951067000408
 51
328.25041877109601
  0
ARC
  5
115A
  8
0
 10
241.9861863398084
 20
125.9781039284572
 30
0.0
 40
5.2422811085402587
 50
164.13277171227199
 51
225.5915623305703
  0
ARC
  5
115B
  8
0
 10
236.1853914061621
 20
121.32105706658621
 30
0.0
 40
2.3192978228672332
 50
338.83865406521528
 51
23.158394989310459
  0
ARC
  5
115C
  8
0
 10
237.33047185174269
 20
113.95560895905091
 30
0.0
 40
5.2422811085402437
 50
92.0706211464083
 51
153.52941176471771
  0
ARC
  5
115D
  8
0
 10
236.17912478938109
 20
121.304874723593
 30
0.0
 40
2.3192978228673109
 50
294.50378848766951
 51
338.82352941176453
  0
ARC
  5
115E
  8
0
 10
236.18539140616201
 20
121.32105706658631
 30
0.0
 40
1.216217151015786
 50
288.80113707932861
 51
338.83865406521198
  0
LINE
  5
115F
  8
0
 10
236.57735932086911
 20
120.1697337791187
 30
0.0
 11
234.0431243486926
 21
119.3069536996791
 31
0.0
  0
ARC
  5
1160
  8
0
 10
174.87969973574991
 20
145.0523985043657
 30
0.0
 40
64.522389448334252
 50
336.48334199415768
 51
338.8386540652121
  0
ARC
  5
1161
  8
0
 10
236.17912478938101
 20
121.3048747235928
 30
0.0
 40
1.2162171510158091
 50
338.82352941177408
 51
28.861046397656821
  0
LINE
  5
1162
  8
0
 10
237.244279126793
 20
121.8919270176155
 30
0.0
 11
235.952089113612
 21
124.2364912264858
 31
0.0
  0
ARC
  5
1163
  8
0
 10
174.87969973574889
 20
145.05239850436459
 30
0.0
 40
64.522389448334735
 50
338.8235294117643
 51
341.17884148281939
  0
ARC
  5
1164
  8
0
 10
241.9811488648549
 20
125.9603901583759
 30
0.0
 40
5.242281108540193
 50
102.6588564405256
 51
164.11764705882399
  0
ARC
  5
1165
  8
0
 10
239.49898163361291
 20
132.9729612398001
 30
0.0
 40
2.3192978228672891
 50
305.09202378178929
 51
349.41176470588391
  0
ARC
  5
1166
  8
0
 10
239.5021680516125
 20
132.9900195354644
 30
0.0
 40
1.216217151015877
 50
299.38937237344021
 51
349.42688935932301
  0
LINE
  5
1167
  8
0
 10
240.09901706663189
 20
131.93032363017099
 30
0.0
 11
237.76646768428299
 21
130.6165695669674
 31
0.0
  0
ARC
  5
1168
  8
0
 10
174.87969973574849
 20
145.05239850436499
 30
0.0
 40
64.522389448335161
 50
347.07157728827542
 51
349.42688935933057
  0
ARC
  5
1169
  8
0
 10
180.92801358653099
 20
210.51217468169691
 30
0.0
 40
1.2162171510158211
 50
34.683490020510533
 51
84.721007006392341
  0
LINE
  5
116A
  8
0
 10
181.92811873644831
 20
211.20425404675129
 30
0.0
 11
183.45148906130299
 21
209.0028728410006
 31
0.0
  0
ARC
  5
116B
  8
0
 10
174.87969973574869
 20
145.05239850436479
 30
0.0
 40
64.522389448333243
 50
82.365694935334616
 51
84.721007006389783
  0
ARC
  5
116C
  8
0
 10
187.6989243112067
 20
213.62919297008099
 30
0.0
 40
5.2422811085402801
 50
197.9529740875837
 51
259.41176470588198
  0
ARC
  5
116D
  8
0
 10
180.9452931200745
 20
210.5105757973509
 30
0.0
 40
2.319297822867378
 50
40.386141428847452
 51
84.705882352942425
  0
ARC
  5
116E
  8
0
 10
118.98760992599409
 20
179.65931536100319
 30
0.0
 40
1.216217151015788
 50
148.2352941176417
 51
198.27281110352521
  0
LINE
  5
116F
  8
0
 10
117.83272128934659
 20
179.27798034377111
 30
0.0
 11
118.67209676911391
 21
176.7358975041206
 31
0.0
  0
ARC
  5
1170
  8
0
 10
174.87969973575019
 20
145.0523985043653
 30
0.0
 40
64.522389448334295
 50
148.23529411764849
 51
150.5906061887037
  0
ARC
  5
1171
  8
0
 10
112.4207210206751
 20
176.13270152378681
 30
0.0
 40
5.2422811085403032
 50
333.54453641816468
 51
35.00332703645195
  0
ARC
  5
1172
  8
0
 10
118.9784765125502
 20
179.64456004096311
 30
0.0
 40
2.3192978228672438
 50
148.25041877109979
 51
192.5701596951948
  0
ARC
  5
1173
  8
0
 10
110.2604178378857
 20
157.13183576892769
 30
0.0
 40
1.2162171510157691
 50
169.4117647058863
 51
219.44928169176811
  0
LINE
  5
1174
  8
0
 10
109.3212703531578
 20
156.35905755989609
 30
0.0
 11
111.0222709186649
 21
154.29185330394441
 31
0.0
  0
ARC
  5
1175
  8
0
 10
174.87969973574991
 20
145.0523985043655
 30
0.0
 40
64.522389448334451
 50
169.41176470588371
 51
171.76707677693889
  0
ARC
  5
1176
  8
0
 10
105.4109361586471
 20
151.47113241206671
 30
0.0
 40
5.242281108540257
 50
354.72100700639061
 51
56.179797624689179
  0
ARC
  5
1177
  8
0
 10
110.2572314198862
 20
157.1147774732635
 30
0.0
 40
2.3192978228673131
 50
169.42688935932949
 51
213.74663028342459
  0
ARC
  5
1178
  8
0
 10
109.14109542682451
 20
145.0350451558287
 30
0.0
 40
1.216217151015812
 50
129.97760766756781
 51
180.01512465344999
  0
LINE
  5
1179
  8
0
 10
108.35969028885771
 20
145.967027005858
 30
0.0
 11
110.41112190974781
 21
147.6870167338775
 31
0.0
  0
ARC
  5
117A
  8
0
 10
174.87969973574991
 20
145.05239850436021
 30
0.0
 40
64.522389448334863
 50
177.65981258239049
 51
180.01512465344561
  0
ARC
  5
117B
  8
0
 10
105.4126329643055
 20
151.48947020514441
 30
0.0
 40
5.2422811085402383
 50
293.2470917346435
 51
354.70588235294201
  0
ARC
  5
117C
  8
0
 10
109.14109313639921
 20
145.05239850436391
 30
0.0
 40
2.3192978228672301
 50
135.6802590759018
 51
179.99999999999719
  0
ARC
  5
117D
  8
0
 10
105.4143346106237
 20
138.59698945905879
 30
0.0
 40
5.2422811085402898
 50
5.3092423005081608
 51
66.768032918806611
  0
ARC
  5
117E
  8
0
 10
109.14109542682441
 20
145.0350451558287
 30
0.0
 40
2.3192978228673349
 50
180.0151246534495
 51
224.33486557754469
  0
ARC
  5
117F
  8
0
 10
109.1410931363995
 20
145.05239850436391
 30
0.0
 40
1.2162171510158251
 50
179.9999999999973
 51
230.03751698587951
  0
LINE
  5
1180
  8
0
 10
108.3599340455647
 20
144.12021041538659
 30
0.0
 11
110.4118196292647
 21
142.40076227395161
 31
0.0
  0
ARC
  5
1181
  8
0
 10
174.87969973575079
 20
145.05239850436431
 30
0.0
 40
64.522389448335673
 50
180.0000000000002
 51
182.35531207105529
  0
ARC
  5
1182
  8
0
 10
113.5802746821176
 20
168.79992228513481
 30
0.0
 40
1.2162171510157589
 50
158.82352941176521
 51
208.8610463976473
  0
LINE
  5
1183
  8
0
 10
112.51512034470549
 20
168.21286999111231
 30
0.0
 11
113.80731035788661
 21
165.86830578224209
 31
0.0
  0
ARC
  5
1184
  8
0
 10
174.87969973574911
 20
145.0523985043632
 30
0.0
 40
64.522389448334124
 50
158.8235294117641
 51
161.17884148281919
  0
ARC
  5
1185
  8
0
 10
107.7732131316903
 20
164.1266930802704
 30
0.0
 40
5.2422811085402676
 50
344.13277171227401
 51
45.591562330572323
  0
ARC
  5
1186
  8
0
 10
113.5740080653366
 20
168.78373994214149
 30
0.0
 40
2.3192978228673091
 50
158.83865406521309
 51
203.15839498930771
  0
ARC
  5
1187
  8
0
 10
107.7782506066437
 20
164.144406850352
 30
0.0
 40
5.2422811085403271
 50
282.6588564405252
 51
344.11764705882348
  0
ARC
  5
1188
  8
0
 10
110.2604178378857
 20
157.13183576892769
 30
0.0
 40
2.319297822867302
 50
125.0920237817873
 51
169.41176470588181
  0
ARC
  5
1189
  8
0
 10
110.2572314198861
 20
157.11477747326359
 30
0.0
 40
1.216217151015728
 50
119.3893723734472
 51
169.4268893593312
  0
LINE
  5
118A
  8
0
 10
109.6603824048667
 20
158.1744733785568
 30
0.0
 11
111.9929317872156
 21
159.48822744176039
 31
0.0
  0
ARC
  5
118B
  8
0
 10
174.87969973574809
 20
145.05239850436419
 30
0.0
 40
64.522389448332845
 50
167.07157728827619
 51
169.42688935933131
  0
ARC
  5
118C
  8
0
 10
112.428927619756
 20
176.14918804967701
 30
0.0
 40
5.2422811085402952
 50
272.07062114640701
 51
333.5294117647166
  0
ARC
  5
118D
  8
0
 10
113.5802746821175
 20
168.7999222851349
 30
0.0
 40
2.3192978228672199
 50
114.50378848767041
 51
158.82352941176561
  0
ARC
  5
118E
  8
0
 10
113.5740080653366
 20
168.78373994214149
 30
0.0
 40
1.2162171510157811
 50
108.8011370793288
 51
158.83865406521261
  0
LINE
  5
118F
  8
0
 10
113.1820401506295
 20
169.93506322960911
 30
0.0
 11
115.716275122806
 21
170.79784330904869
 31
0.0
  0
ARC
  5
1190
  8
0
 10
174.87969973574911
 20
145.05239850436351
 30
0.0
 40
64.522389448334067
 50
156.48334199415891
 51
158.8386540652134
  0
ARC
  5
1191
  8
0
 10
138.13767689342041
 20
204.35781997123331
 30
0.0
 40
5.2422811085402579
 50
301.7798305358009
 51
3.2386211540995231
  0
ARC
  5
1192
  8
0
 10
145.56194825945391
 20
203.8914488535857
 30
0.0
 40
2.3192978228673979
 50
116.4857128887422
 51
160.80545381283761
  0
ARC
  5
1193
  8
0
 10
135.24949156087851
 20
197.50247951136029
 30
0.0
 40
1.2162171510158559
 50
77.036431196977944
 51
127.07394818286031
  0
LINE
  5
1194
  8
0
 10
135.5223273315309
 20
198.68769881624769
 30
0.0
 11
138.13117251414749
 21
198.087146426511
 31
0.0
  0
ARC
  5
1195
  8
0
 10
174.87969973574869
 20
145.05239850436001
 30
0.0
 40
64.52238944833698
 50
124.71863611180321
 51
127.0739481828583
  0
ARC
  5
1196
  8
0
 10
135.2633384516709
 20
197.51293906804349
 30
0.0
 40
1.2162171510156661
 50
127.0588235294082
 51
177.0963405152913
  0
LINE
  5
1197
  8
0
 10
134.04868277294219
 20
197.57454864973829
 30
0.0
 11
133.91307085728701
 21
194.90090960005099
 31
0.0
  0
ARC
  5
1198
  8
0
 10
174.879699735749
 20
145.05239850436311
 30
0.0
 40
64.522389448334494
 50
127.0588235294111
 51
129.4141356004663
  0
ARC
  5
1199
  8
0
 10
127.8659370553229
 20
196.59670349082921
 30
0.0
 40
5.2422811085402019
 50
312.36806582991898
 51
13.82685644821791
  0
ARC
  5
119A
  8
0
 10
135.2494915608784
 20
197.50247951136041
 30
0.0
 40
2.319297822867278
 50
127.07394818286269
 51
171.39368910695771
  0
ARC
  5
119B
  8
0
 10
119.2062907758329
 20
187.0950053775245
 30
0.0
 40
5.2422811085402143
 50
261.48238585229041
 51
322.94117647058903
  0
ARC
  5
119C
  8
0
 10
118.98760992599389
 20
179.65931536100331
 30
0.0
 40
2.3192978228672381
 50
103.9155531935485
 51
148.23529411764369
  0
ARC
  5
119D
  8
0
 10
118.97847651255
 20
179.64456004096289
 30
0.0
 40
1.216217151015756
 50
98.212901785207848
 51
148.25041877109149
  0
LINE
  5
119E
  8
0
 10
118.804737695377
 20
180.84830377691009
 30
0.0
 11
121.4543579248835
 21
181.23072893177101
 31
0.0
  0
ARC
  5
119F
  8
0
 10
174.8796997357469
 20
145.052398504362
 30
0.0
 40
64.522389448333229
 50
145.8951067000383
 51
148.25041877109351
  0
ARC
  5
11A0
  8
0
 10
126.2982832531689
 20
189.34021138974069
 30
0.0
 40
1.216217151015947
 50
137.6470588235286
 51
187.68457580941001
  0
LINE
  5
11A1
  8
0
 10
125.0929886646707
 20
189.17757955594979
 30
0.0
 11
125.4509656857808
 21
186.52454566773099
 31
0.0
  0
ARC
  5
11A2
  8
0
 10
174.8796997357492
 20
145.05239850436479
 30
0.0
 40
64.522389448333513
 50
137.6470588235299
 51
140.00237089458511
  0
ARC
  5
11A3
  8
0
 10
119.1951945185139
 20
187.08030752469119
 30
0.0
 40
5.2422811085402907
 50
322.95630112403671
 51
24.41509174233332
  0
ARC
  5
11A4
  8
0
 10
126.2865940705026
 20
189.32738556738019
 30
0.0
 40
2.319297822867326
 50
137.66218347697881
 51
181.98192440107371
  0
ARC
  5
11A5
  8
0
 10
126.2865940705024
 20
189.32738556738019
 30
0.0
 40
1.216217151015744
 50
87.62466649109237
 51
137.6621834769752
  0
LINE
  5
11A6
  8
0
 10
126.33700081790541
 20
190.54255770261079
 30
0.0
 11
129.01177666569509
 21
190.4316049029128
 31
0.0
  0
ARC
  5
11A7
  8
0
 10
174.879699735749
 20
145.05239850436331
 30
0.0
 40
64.522389448334437
 50
135.30687140592269
 51
137.66218347697779
  0
ARC
  5
11A8
  8
0
 10
127.87954510114579
 20
196.6091121528558
 30
0.0
 40
5.2422811085403422
 50
250.89415055817179
 51
312.35294117647032
  0
ARC
  5
11A9
  8
0
 10
126.2982832531689
 20
189.3402113897408
 30
0.0
 40
2.3192978228673078
 50
93.327317899436196
 51
137.6470588235311
  0
ARC
  5
11AA
  8
0
 10
138.15333332206779
 20
204.36751688034991
 30
0.0
 40
5.2422811085403023
 50
240.30591526405391
 51
301.76470588235242
  0
ARC
  5
11AB
  8
0
 10
135.26333845167099
 20
197.51293906804361
 30
0.0
 40
2.3192978228672718
 50
82.739082605316597
 51
127.058823529412
  0
ARC
  5
11AC
  8
0
 10
162.0604751602917
 20
213.62919297008099
 30
0.0
 40
5.2422811085401966
 50
219.1294446758196
 51
280.58823529411819
  0
ARC
  5
11AD
  8
0
 10
156.88947609059889
 20
208.28147607806861
 30
0.0
 40
2.3192978228672652
 50
61.562612017081371
 51
105.88235294117599
  0
ARC
  5
11AE
  8
0
 10
156.8727858217874
 20
208.276724905831
 30
0.0
 40
1.2162171510158519
 50
55.859960608745268
 51
105.8974775946282
  0
LINE
  5
11AF
  8
0
 10
157.55534819760351
 20
209.2833493450064
 30
0.0
 11
159.77107933530769
 21
207.78092733868189
 31
0.0
  0
ARC
  5
11B0
  8
0
 10
174.879699735749
 20
145.0523985043645
 30
0.0
 40
64.522389448333499
 50
103.54216552357011
 51
105.8974775946252
  0
ARC
  5
11B1
  8
0
 10
156.88947609059889
 20
208.28147607806861
 30
0.0
 40
1.216217151015746
 50
105.8823529411797
 51
155.91986992706461
  0
LINE
  5
11B2
  8
0
 10
155.77909934984041
 20
208.77770954329179
 30
0.0
 11
154.68681517942349
 21
206.33360405237349
 31
0.0
  0
ARC
  5
11B3
  8
0
 10
174.8796997357486
 20
145.05239850436411
 30
0.0
 40
64.522389448333712
 50
105.8823529411759
 51
108.2376650122311
  0
ARC
  5
11B4
  8
0
 10
149.6606222522143
 20
210.09936145259601
 30
0.0
 40
5.2422811085401957
 50
291.19159524168481
 51
352.65038585998292
  0
ARC
  5
11B5
  8
0
 10
156.8727858217874
 20
208.2767249058312
 30
0.0
 40
2.3192978228672638
 50
105.8974775946284
 51
150.2172185187232
  0
ARC
  5
11B6
  8
0
 10
145.56194825945391
 20
203.8914488535859
 30
0.0
 40
1.2162171510156661
 50
66.448195902860718
 51
116.48571288874319
  0
LINE
  5
11B7
  8
0
 10
146.04792195841659
 20
205.00635410621561
 30
0.0
 11
148.5019953821311
 21
203.93665321778971
 31
0.0
  0
ARC
  5
11B8
  8
0
 10
174.8796997357484
 20
145.05239850436149
 30
0.0
 40
64.522389448335915
 50
114.13040081768629
 51
116.4857128887415
  0
ARC
  5
11B9
  8
0
 10
145.57748131911441
 20
203.89918595693359
 30
0.0
 40
1.2162171510158011
 50
116.4705882352917
 51
166.50810522117439
  0
LINE
  5
11BA
  8
0
 10
144.3948281924749
 20
204.18293891370189
 30
0.0
 11
143.77024544119359
 21
201.5797422737067
 31
0.0
  0
ARC
  5
11BB
  8
0
 10
174.87969973574809
 20
145.05239850436169
 30
0.0
 40
64.522389448335502
 50
116.4705882352922
 51
118.82590030634741
  0
ARC
  5
11BC
  8
0
 10
149.67779390278619
 20
210.10601639219311
 30
0.0
 40
5.2422811085403334
 50
229.717679969937
 51
291.17647058823542
  0
ARC
  5
11BD
  8
0
 10
145.57748131911441
 20
203.89918595693359
 30
0.0
 40
2.3192978228673251
 50
72.150847311200067
 51
116.4705882352953
  0
ARC
  5
11BE
  8
0
 10
162.04237304776041
 20
213.62580662598981
 30
0.0
 40
5.2422811085402818
 50
280.60335994756582
 51
342.0621505658645
  0
ARC
  5
11BF
  8
0
 10
168.796827240548
 20
210.508972351696
 30
0.0
 40
2.3192978228672678
 50
95.309242300510974
 51
139.62898322460589
  0
ARC
  5
11C0
  8
0
 10
174.87969973574931
 20
214.8170690612383
 30
0.0
 40
5.2422811085403387
 50
208.54120938170141
 51
270.0
  0
ARC
  5
11C1
  8
0
 10
168.81410635142379
 20
210.51057579735101
 30
0.0
 40
2.319297822867306
 50
50.974376722961381
 51
95.294117647056368
  0
ARC
  5
11C2
  8
0
 10
168.81410635142379
 20
210.51057579735101
 30
0.0
 40
1.2162171510157189
 50
95.294117647057561
 51
145.33163463294051
  0
LINE
  5
11C3
  8
0
 10
167.8138185447028
 20
211.2023911355374
 30
0.0
 11
166.2910293825235
 21
209.00060787480771
 31
0.0
  0
ARC
  5
11C4
  8
0
 10
174.87969973575071
 20
145.0523985043655
 30
0.0
 40
64.522389448332632
 50
95.294117647060204
 51
97.649429718115357
  0
ARC
  5
11C5
  8
0
 10
168.796827240548
 20
210.5089723516958
 30
0.0
 40
1.216217151015708
 50
45.271725314627247
 51
95.309242300510917
  0
LINE
  5
11C6
  8
0
 10
169.65273445015239
 20
211.37303658945359
 30
0.0
 11
171.55466923542849
 21
209.48905664469919
 31
0.0
  0
ARC
  5
11C7
  8
0
 10
174.87969973574849
 20
145.0523985043626
 30
0.0
 40
64.522389448335346
 50
92.953930229451842
 51
95.309242300507037
  0
ARC
  5
11C8
  8
0
 10
174.8612836069893
 20
214.81706663053961
 30
0.0
 40
5.2422811085403334
 50
270.01512465344911
 51
331.47391527174773
  0
ARC
  5
11C9
  8
0
 10
180.92801358653099
 20
210.51217468169699
 30
0.0
 40
2.3192978228672509
 50
84.721007006390835
 51
129.04074793048571
  0
ARC
  5
11CA
  8
0
 10
180.94529312007441
 20
210.51057579735109
 30
0.0
 40
1.216217151015611
 50
84.705882352939284
 51
134.74339933882271
  0
LINE
  5
11CB
  8
0
 10
180.0891578489358
 20
211.37441406689979
 30
0.0
 11
178.18772045352759
 21
209.48993212455491
 31
0.0
  0
ARC
  5
11CC
  8
0
 10
174.87969973575051
 20
145.05239850436419
 30
0.0
 40
64.522389448333769
 50
84.705882352942353
 51
87.061194423997506
  0
ARC
  5
11CD
  8
0
 10
230.76265223734319
 20
179.67406826953689
 30
0.0
 40
1.2162171510157731
 50
341.74231354992202
 51
31.77983053580386
  0
LINE
  5
11CE
  8
0
 10
231.91764149666309
 20
179.29303812731641
 30
0.0
 11
231.07893709245289
 21
176.75073380209511
 31
0.0
  0
ARC
  5
11CF
  8
0
 10
174.87969973574991
 20
145.05239850436649
 30
0.0
 40
64.522389448332291
 50
29.424518464745191
 51
31.77983053580035
  0
ARC
  5
11D0
  8
0
 10
237.3304718517426
 20
176.14918804967709
 30
0.0
 40
5.2422811085402694
 50
145.0117976169953
 51
206.4705882352828
  0
ARC
  5
11D1
  8
0
 10
230.7717895455045
 20
179.65931536100331
 30
0.0
 40
2.3192978228672918
 50
347.44496495826121
 51
31.764705882356179
  0
ARC
  5
11D2
  8
0
 10
244.34676650719311
 20
151.48947020514441
 30
0.0
 40
5.2422811085402969
 50
123.83532702875991
 51
185.29411764705819
  0
ARC
  5
11D3
  8
0
 10
239.49898163361291
 20
157.1318357689276
 30
0.0
 40
2.31929782286727
 50
326.2684943700238
 51
10.58823529411907
  0
ARC
  5
11D4
  8
0
 10
239.49579071276079
 20
157.14889322286271
 30
0.0
 40
1.2162171510157671
 50
320.5658429616862
 51
10.603359947567659
  0
LINE
  5
11D5
  8
0
 10
240.43514215889371
 20
156.3763629522112
 30
0.0
 11
238.73468734289079
 21
154.30870974666311
 31
0.0
  0
ARC
  5
11D6
  8
0
 10
174.87969973575019
 20
145.05239850436371
 30
0.0
 40
64.522389448333243
 50
8.248047876511837
 51
10.603359947567
  0
ARC
  5
11D7
  8
0
 10
244.34676650719311
 20
138.6153268035834
 30
0.0
 40
5.2422811085403023
 50
113.24709173464259
 51
174.7058823529411
  0
ARC
  5
11D8
  8
0
 10
240.61830633509931
 20
145.05239850436411
 30
0.0
 40
2.31929782286733
 50
315.6802590759014
 51
359.99999999999721
  0
ARC
  5
11D9
  8
0
 10
244.34506486087491
 20
151.50780754966911
 30
0.0
 40
5.242281108540352
 50
185.30924230050871
 51
246.76803291880699
  0
ARC
  5
11DA
  8
0
 10
240.61830404467409
 20
145.06975185289929
 30
0.0
 40
2.3192978228673158
 50
0.015124653447368
 51
44.334865577542203
  0
ARC
  5
11DB
  8
0
 10
240.61830633509931
 20
145.05239850436399
 30
0.0
 40
1.216217151015712
 50
359.99999999999869
 51
50.037516985882711
  0
LINE
  5
11DC
  8
0
 10
241.39946542593401
 20
145.98458659334131
 30
0.0
 11
239.3475798422339
 21
147.70403473477629
 31
0.0
  0
ARC
  5
11DD
  8
0
 10
174.8796997357498
 20
145.0523985043651
 30
0.0
 40
64.52238944833357
 50
359.99999999999898
 51
2.355312071054203
  0
ARC
  5
11DE
  8
0
 10
240.61830404467409
 20
145.06975185289929
 30
0.0
 40
1.216217151015812
 50
309.97760766756397
 51
0.0151246534473351
  0
LINE
  5
11DF
  8
0
 10
241.39970918264089
 20
144.1377700028699
 30
0.0
 11
239.3482775617509
 21
142.4177802748504
 31
0.0
  0
ARC
  5
11E0
  8
0
 10
174.8796997357486
 20
145.05239850435939
 30
0.0
 40
64.522389448334692
 50
357.65981258239788
 51
0.0151246534530794
  0
ARC
  5
11E1
  8
0
 10
236.17285390108441
 20
168.81610297333421
 30
0.0
 40
1.216217151015808
 50
331.15407825580547
 51
21.19159524168694
  0
LINE
  5
11E2
  8
0
 10
237.23816316851321
 20
168.22933187387929
 30
0.0
 11
235.94659210668561
 21
165.88442664084101
 31
0.0
  0
ARC
  5
11E3
  8
0
 10
174.8796997357482
 20
145.0523985043684
 30
0.0
 40
64.52238944833357
 50
18.836283170625169
 51
21.19159524168025
  0
ARC
  5
11E4
  8
0
 10
241.9811488648549
 20
164.144406850352
 30
0.0
 40
5.2422811085403032
 50
134.4235623228771
 51
195.88235294117561
  0
ARC
  5
11E5
  8
0
 10
236.17912478938109
 20
168.79992228513481
 30
0.0
 40
2.319297822867219
 50
336.85672966414262
 51
21.17647058823751
  0
ARC
  5
11E6
  8
0
 10
241.97610671408449
 20
164.16211929004871
 30
0.0
 40
5.2422811085402197
 50
195.8974775946246
 51
257.35626821292311
  0
ARC
  5
11E7
  8
0
 10
239.49579071276079
 20
157.1488932228628
 30
0.0
 40
2.3192978228673069
 50
10.603359947567229
 51
54.923100871662491
  0
ARC
  5
11E8
  8
0
 10
239.49898163361291
 20
157.1318357689278
 30
0.0
 40
1.2162171510157129
 50
10.58823529411417
 51
60.625752279997009
  0
LINE
  5
11E9
  8
0
 10
240.09555089461301
 20
158.19168919051711
 30
0.0
 11
237.7626547953073
 21
159.50482747322951
 31
0.0
  0
ARC
  5
11EA
  8
0
 10
174.87969973574869
 20
145.05239850436371
 30
0.0
 40
64.52238944833465
 50
10.58823529411776
 51
12.94354736517292
  0
ARC
  5
11EB
  8
0
 10
237.3222609009172
 20
176.16567240865601
 30
0.0
 40
5.2422811085402783
 50
206.48571288873231
 51
267.9445035070421
  0
ARC
  5
11EC
  8
0
 10
236.17285390108449
 20
168.8161029733343
 30
0.0
 40
2.3192978228672461
 50
21.191595241683569
 51
65.51133616577853
  0
ARC
  5
11ED
  8
0
 10
236.17912478938109
 20
168.7999222851349
 30
0.0
 40
1.2162171510158331
 50
21.17647058823626
 51
71.213987574118946
  0
LINE
  5
11EE
  8
0
 10
236.5707887698691
 20
169.95134900221819
 30
0.0
 11
234.0363261336193
 21
170.81346007692599
 31
0.0
  0
ARC
  5
11EF
  8
0
 10
174.87969973574951
 20
145.05239850436459
 30
0.0
 40
64.522389448333698
 50
21.17647058823475
 51
23.531782659289139
  0
ARC
  5
11F0
  8
0
 10
221.8662430494274
 20
196.62151722226579
 30
0.0
 40
5.242281108540177
 50
227.66218347697861
 51
289.12097409527712
  0
ARC
  5
11F1
  8
0
 10
223.4494236503742
 20
189.3530341260026
 30
0.0
 40
2.3192978228672718
 50
42.368065829918578
 51
86.687806754013764
  0
ARC
  5
11F2
  8
0
 10
223.46111621832969
 20
189.34021138974069
 30
0.0
 40
1.2162171510158239
 50
42.352941176472982
 51
92.390458162356353
  0
LINE
  5
11F3
  8
0
 10
223.41038869762119
 20
190.55537017651221
 30
0.0
 11
220.73564223178951
 21
190.4437113067313
 31
0.0
  0
ARC
  5
11F4
  8
0
 10
174.87969973574931
 20
145.0523985043659
 30
0.0
 40
64.522389448332717
 50
42.35294117646945
 51
44.708253247524603
  0
ARC
  5
11F5
  8
0
 10
214.48221136845581
 20
197.52339496912961
 30
0.0
 40
1.2162171510156941
 50
2.9187841381469419
 51
52.956301124029608
  0
LINE
  5
11F6
  8
0
 10
215.69685074147509
 20
197.58532518740779
 30
0.0
 11
215.8331684262678
 21
194.91172202902891
 31
0.0
  0
ARC
  5
11F7
  8
0
 10
174.87969973574741
 20
145.0523985043645
 30
0.0
 40
64.522389448334806
 50
50.600989052980481
 51
52.956301124035647
  0
ARC
  5
11F8
  8
0
 10
214.49606101982749
 20
197.51293906804361
 30
0.0
 40
1.2162171510158479
 50
52.941176470591522
 51
102.9786934564742
  0
LINE
  5
11F9
  8
0
 10
214.2229123904176
 20
198.69808630981419
 30
0.0
 11
211.61422582951261
 21
198.09684527110019
 31
0.0
  0
ARC
  5
11FA
  8
0
 10
174.8796997357517
 20
145.05239850436541
 30
0.0
 40
64.522389448331467
 50
52.941176470589291
 51
55.29648854164445
  0
ARC
  5
11FB
  8
0
 10
221.87985437035269
 20
196.60911215285569
 30
0.0
 40
5.2422811085402818
 50
166.18826820523151
 51
227.64705882352999
  0
ARC
  5
11FC
  8
0
 10
214.49606101982741
 20
197.51293906804369
 30
0.0
 40
2.3192978228672598
 50
8.621435546491762
 51
52.941176470586477
  0
ARC
  5
11FD
  8
0
 10
204.1819181523841
 20
203.89918595693359
 30
0.0
 40
1.2162171510158519
 50
63.529411764703482
 51
113.5669287505863
  0
LINE
  5
11FE
  8
0
 10
203.69565016324171
 20
205.0139628858125
 30
0.0
 11
201.2418591993204
 21
203.94361422062971
 31
0.0
  0
ARC
  5
11FF
  8
0
 10
174.8796997357496
 20
145.05239850436561
 30
0.0
 40
64.522389448332405
 50
63.5294117647056
 51
65.884723835760767
  0
ARC
  5
1200
  8
0
 10
200.064432162001
 20
210.11266679867191
 30
0.0
 40
5.2422811085403014
 50
248.83865406521409
 51
310.29744468351271
  0
ARC
  5
1201
  8
0
 10
204.16638305086289
 20
203.90691895967279
 30
0.0
 40
2.3192978228671062
 50
63.544536418154649
 51
107.86427734224981
  0
ARC
  5
1202
  8
0
 10
192.85323185847881
 20
208.28622284432689
 30
0.0
 40
1.216217151015911
 50
24.09525472639157
 51
74.132771712276082
  0
LINE
  5
1203
  8
0
 10
193.9634775673224
 20
208.78274940395849
 30
0.0
 11
195.0564068824242
 21
206.33893233390771
 31
0.0
  0
ARC
  5
1204
  8
0
 10
174.87969973574869
 20
145.05239850436291
 30
0.0
 40
64.522389448335176
 50
71.777459641217362
 51
74.132771712272515
  0
ARC
  5
1205
  8
0
 10
192.86992338089951
 20
208.28147607806861
 30
0.0
 40
1.2162171510158011
 50
74.117647058821049
 51
124.15516404470399
  0
LINE
  5
1206
  8
0
 10
192.18709530518061
 20
209.2879203027702
 30
0.0
 11
189.97176084652159
 21
207.7849134511697
 31
0.0
  0
ARC
  5
1207
  8
0
 10
174.87969973575031
 20
145.0523985043659
 30
0.0
 40
64.52238944833195
 50
74.117647058824105
 51
76.472959129879271
  0
ARC
  5
1208
  8
0
 10
187.68082130539571
 20
213.6325745355492
 30
0.0
 40
5.2422811085403431
 50
259.4268893593316
 51
320.88567997763022
  0
ARC
  5
1209
  8
0
 10
192.85323185847901
 20
208.286222844327
 30
0.0
 40
2.319297822867318
 50
74.132771712275485
 51
118.4525126363702
  0
ARC
  5
120A
  8
0
 10
200.0816055687124
 20
210.10601639219311
 30
0.0
 40
5.2422811085403858
 50
187.3647387934663
 51
248.8235294117647
  0
ARC
  5
120B
  8
0
 10
192.86992338089959
 20
208.28147607806881
 30
0.0
 40
2.3192978228672381
 50
29.797906134728692
 51
74.117647058823749
  0
ARC
  5
120C
  8
0
 10
211.59040716158731
 20
204.3772096562229
 30
0.0
 40
5.2422811085403129
 50
238.2504187710976
 51
299.70920938939611
  0
ARC
  5
120D
  8
0
 10
214.48221136845581
 20
197.5233949691295
 30
0.0
 40
2.3192978228672412
 50
52.956301124035463
 51
97.276042048130236
  0
ARC
  5
120E
  8
0
 10
204.16638305086289
 20
203.90691895967259
 30
0.0
 40
1.2162171510157509
 50
13.507019432266301
 51
63.544536418150798
  0
LINE
  5
120F
  8
0
 10
205.348961232611
 20
204.1909840974109
 30
0.0
 11
205.9742311409583
 21
201.58795242234521
 31
0.0
  0
ARC
  5
1210
  8
0
 10
174.87969973574809
 20
145.0523985043649
 30
0.0
 40
64.522389448333811
 50
61.189224347098481
 51
63.544536418153641
  0
ARC
  5
1211
  8
0
 10
211.60606614943069
 20
204.36751688034991
 30
0.0
 40
5.2422811085402481
 50
176.7765034993491
 51
238.2352941176479
  0
ARC
  5
1212
  8
0
 10
204.18191815238421
 20
203.89918595693359
 30
0.0
 40
2.3192978228672372
 50
19.209670840613249
 51
63.529411764708392
  0
ARC
  5
1213
  8
0
 10
223.4494236503742
 20
189.35303412600251
 30
0.0
 40
1.216217151015786
 50
352.3305488440426
 51
42.368065829924049
  0
LINE
  5
1214
  8
0
 10
224.65476112761621
 20
189.19072046551449
 30
0.0
 11
224.2974844535936
 21
186.53759217274759
 31
0.0
  0
ARC
  5
1215
  8
0
 10
174.8796997357486
 20
145.05239850436439
 30
0.0
 40
64.522389448334309
 50
40.012753758863781
 51
42.368065829918947
  0
ARC
  5
1216
  8
0
 10
230.5531086956654
 20
187.0950053775245
 30
0.0
 40
5.2422811085402143
 50
155.600032911114
 51
217.058823529411
  0
ARC
  5
1217
  8
0
 10
223.46111621832981
 20
189.340211389741
 30
0.0
 40
2.3192978228671639
 50
358.0332002523715
 51
42.352941176467191
  0
ARC
  5
1218
  8
0
 10
230.54200855886731
 20
187.1097003007113
 30
0.0
 40
5.2422811085400598
 50
217.0739481828609
 51
278.53273880115938
  0
ARC
  5
1219
  8
0
 10
230.7626522373431
 20
179.674068269537
 30
0.0
 40
2.3192978228673371
 50
31.779830535800269
 51
76.099571459895131
  0
ARC
  5
121A
  8
0
 10
230.7717895455045
 20
179.65931536100339
 30
0.0
 40
1.216217151015758
 50
31.76470588235604
 51
81.802222868239028
  0
LINE
  5
121B
  8
0
 10
230.94521059837419
 20
180.8631049177144
 30
0.0
 11
228.29548951050481
 21
181.24483062575669
 31
0.0
  0
ARC
  5
121C
  8
0
 10
174.87969973575159
 20
145.05239850436379
 30
0.0
 40
64.522389448332305
 50
31.764705882354271
 51
34.120017953409423
  0
LINE
  5
122D
  8
1
 10
248.6296809357309
 20
145.05239850436391
 30
0.0
 11
101.12971853576769
 21
145.05239850436391
 31
0.0
  0
LINE
  5
122E
  8
1
 10
174.87969973574931
 20
218.8023797043455
 30
0.0
 11
174.87969973574931
 21
71.302417304382388
 31
0.0
  0
CIRCLE
  5
122F
  8
0
 10
174.87969973574931
 20
145.05239850436391
 30
0.0
 40
57.700000000000003
  0
TEXT
  5
13AA
  8
0
 62
     3
 10
0.0
 20
0.0
 30
0.0
 40
10.0
  1
908-034-01
  7
STANDARD1
  0
ENDSEC
  0
EOF
