  0
SECTION
  2
HEADER
  9
$ACADVER
  1
AC1009
  9
$INSBASE
 10
0.0
 20
0.0
 30
0.0
  9
$EXTMIN
 10
-0.0204638472032742
 20
-2.960436562073669
 30
0.0
  9
$EXTMAX
 10
139.5
 20
167.8000139005018
 30
0.0
  9
$LIMMIN
 10
0.0
 20
0.0
  9
$LIMMAX
 10
187.5
 20
135.0
  9
$ORTHOMODE
 70
     1
  9
$REGENMODE
 70
     1
  9
$FILLMODE
 70
     1
  9
$QTEXTMODE
 70
     0
  9
$MIRRTEXT
 70
     0
  9
$DRAGMODE
 70
     2
  9
$LTSCALE
 40
5.0
  9
$OSMODE
 70
    37
  9
$ATTMODE
 70
     1
  9
$TEXTSIZE
 40
4.0
  9
$TRACEWID
 40
0.05
  9
$TEXTSTYLE
  7
STANDARD
  9
$CLAYER
  8
0
  9
$CELTYPE
  6
BYLAYER
  9
$CECOLOR
 62
   256
  9
$DIMSCALE
 40
0.5
  9
$DIMASZ
 40
3.0
  9
$DIMEXO
 40
2.0
  9
$DIMDLI
 40
0.38
  9
$DIMRND
 40
0.0
  9
$DIMDLE
 40
0.0
  9
$DIMEXE
 40
2.0
  9
$DIMTP
 40
0.0
  9
$DIMTM
 40
0.0
  9
$DIMTXT
 40
3.0
  9
$DIMCEN
 40
0.0
  9
$DIMTSZ
 40
0.0
  9
$DIMTOL
 70
     0
  9
$DIMLIM
 70
     0
  9
$DIMTIH
 70
     0
  9
$DIMTOH
 70
     0
  9
$DIMSE1
 70
     0
  9
$DIMSE2
 70
     0
  9
$DIMTAD
 70
     1
  9
$DIMZIN
 70
     0
  9
$DIMBLK
  1

  9
$DIMASO
 70
     0
  9
$DIMSHO
 70
     0
  9
$DIMPOST
  1

  9
$DIMAPOST
  1

  9
$DIMALT
 70
     0
  9
$DIMALTD
 70
     2
  9
$DIMALTF
 40
25.399999999999999
  9
$DIMLFAC
 40
1.0
  9
$DIMTOFL
 70
     0
  9
$DIMTVP
 40
1.6000000000000001
  9
$DIMTIX
 70
     1
  9
$DIMSOXD
 70
     0
  9
$DIMSAH
 70
     0
  9
$DIMBLK1
  1

  9
$DIMBLK2
  1

  9
$DIMSTYLE
  2
STANDARD
  9
$DIMCLRD
 70
     0
  9
$DIMCLRE
 70
     0
  9
$DIMCLRT
 70
     0
  9
$DIMTFAC
 40
1.0
  9
$DIMGAP
 40
0.09
  9
$LUNITS
 70
     2
  9
$LUPREC
 70
     4
  9
$SKETCHINC
 40
0.1
  9
$FILLETRAD
 40
1.0
  9
$AUNITS
 70
     0
  9
$AUPREC
 70
     0
  9
$MENU
  1
E:\r13\win\SUPPORT\ACAD
  9
$ELEVATION
 40
0.0
  9
$PELEVATION
 40
0.0
  9
$THICKNESS
 40
0.0
  9
$LIMCHECK
 70
     0
  9
$BLIPMODE
 70
     0
  9
$CHAMFERA
 40
0.0
  9
$CHAMFERB
 40
0.0
  9
$SKPOLY
 70
     0
  9
$TDCREATE
 40
2449840.6143865739
  9
$TDUPDATE
 40
2458820.7242147801
  9
$TDINDWG
 40
0.3728819907
  9
$TDUSRTIMER
 40
0.3728819907
  9
$USRTIMER
 70
     1
  9
$ANGBASE
 50
0.0
  9
$ANGDIR
 70
     0
  9
$PDMODE
 70
     0
  9
$PDSIZE
 40
0.0
  9
$PLINEWID
 40
0.0
  9
$COORDS
 70
     1
  9
$SPLFRAME
 70
     0
  9
$SPLINETYPE
 70
     6
  9
$SPLINESEGS
 70
     8
  9
$ATTDIA
 70
     0
  9
$ATTREQ
 70
     1
  9
$HANDLING
 70
     1
  9
$HANDSEED
  5
222C
  9
$SURFTAB1
 70
     6
  9
$SURFTAB2
 70
     6
  9
$SURFTYPE
 70
     6
  9
$SURFU
 70
     6
  9
$SURFV
 70
     6
  9
$UCSNAME
  2

  9
$UCSORG
 10
0.0
 20
0.0
 30
0.0
  9
$UCSXDIR
 10
1.0
 20
0.0
 30
0.0
  9
$UCSYDIR
 10
0.0
 20
1.0
 30
0.0
  9
$PUCSNAME
  2

  9
$PUCSORG
 10
0.0
 20
0.0
 30
0.0
  9
$PUCSXDIR
 10
1.0
 20
0.0
 30
0.0
  9
$PUCSYDIR
 10
0.0
 20
1.0
 30
0.0
  9
$USERI1
 70
     0
  9
$USERI2
 70
     1
  9
$USERI3
 70
     1
  9
$USERI4
 70
     0
  9
$USERI5
 70
     0
  9
$USERR1
 40
0.0
  9
$USERR2
 40
0.0
  9
$USERR3
 40
0.0
  9
$USERR4
 40
0.0
  9
$USERR5
 40
0.0
  9
$WORLDVIEW
 70
     1
  9
$SHADEDGE
 70
     3
  9
$SHADEDIF
 70
    70
  9
$TILEMODE
 70
     1
  9
$MAXACTVP
 70
    16
  9
$PLIMCHECK
 70
     0
  9
$PEXTMIN
 10
1.0000000000000000E+020
 20
1.0000000000000000E+020
 30
1.0000000000000000E+020
  9
$PEXTMAX
 10
-1.0000000000000000E+020
 20
-1.0000000000000000E+020
 30
-1.0000000000000000E+020
  9
$PLIMMIN
 10
0.0
 20
0.0
  9
$PLIMMAX
 10
12.0
 20
9.0
  9
$UNITMODE
 70
     0
  9
$VISRETAIN
 70
     0
  9
$PLINEGEN
 70
     0
  9
$PSLTSCALE
 70
     0
  0
ENDSEC
  0
SECTION
  2
TABLES
  0
TABLE
  2
VPORT
 70
     1
  0
VPORT
  2
*ACTIVE
 70
     0
 10
0.0
 20
0.0
 11
1.0
 21
1.0
 12
162.5886282732566
 22
82.420521774428295
 13
0.0
 23
0.0
 14
5.0
 24
5.0
 15
5.0
 25
5.0
 16
0.0
 26
0.0
 36
1.0
 17
0.0
 27
0.0
 37
0.0
 40
172.2662934200485
 41
2.415644171779141
 42
50.0
 43
0.0
 44
0.0
 50
0.0
 51
0.0
 71
     0
 72
   100
 73
     1
 74
     0
 75
     0
 76
     0
 77
     0
 78
     0
  0
ENDTAB
  0
TABLE
  2
LTYPE
 70
     4
  0
LTYPE
  2
CONTINUOUS
 70
     0
  3
Solid Line
 72
    65
 73
     0
 40
0.0
  0
LTYPE
  2
CENTER
 70
     0
  3
____ _ ____ _ ____ _ ____ _ ____ _ ____ _ ____
 72
    65
 73
     4
 40
2.0
 49
1.25
 49
-0.25
 49
0.25
 49
-0.25
  0
LTYPE
  2
HIDDEN
 70
     0
  3
_ _ _ _ _ _ _ _ _ _ _ _ _ _ _ _ _ _ _ _ _ _ _
 72
    65
 73
     2
 40
0.375
 49
0.25
 49
-0.125
  0
LTYPE
  2
PHANTOM2
 70
     0
  3
___ _ _ ___ _ _ ___ _ _ ___ _ _
 72
    65
 73
     6
 40
1.25
 49
0.625
 49
-0.125
 49
0.125
 49
-0.125
 49
0.125
 49
-0.125
  0
ENDTAB
  0
TABLE
  2
LAYER
 70
     3
  0
LAYER
  2
0
 70
     0
 62
     7
  6
CONTINUOUS
  0
LAYER
  2
1
 70
     0
 62
     1
  6
CENTER
  0
LAYER
  2
2
 70
     0
 62
     2
  6
HIDDEN
  0
ENDTAB
  0
TABLE
  2
STYLE
 70
     2
  0
STYLE
  2
STANDARD
 70
     0
 40
0.0
 41
1.0
 50
0.0
 71
     0
 42
4.0
  3
TXT
  4
BIGFONT
  0
STYLE
  2
STANDARD1
 70
     0
 40
0.0
 41
1.0
 50
0.0
 71
     0
 42
3.0
  3
txt
  4

  0
ENDTAB
  0
TABLE
  2
VIEW
 70
     1
  0
VIEW
  2
ALL
 70
     0
 40
179.66152299999999
 10
141.903918
 20
89.830760999999995
 41
0.0
 11
0.0
 21
0.0
 31
1.0
 12
0.0
 22
0.0
 32
0.0
 42
0.0
 43
0.0
 44
0.0
 50
0.0
 71
     0
  0
ENDTAB
  0
TABLE
  2
UCS
 70
     0
  0
ENDTAB
  0
TABLE
  2
APPID
 70
     5
  0
APPID
  2
ACAD
 70
     0
  0
APPID
  2
DCO15
 70
     0
  0
APPID
  2
ACAD_EXEMPT_FROM_CAD_STANDARDS
 70
     0
  0
APPID
  2
ACAD_MLEADERVER
 70
     0
  0
APPID
  2
ACAD_NAV_VCDISPLAY
 70
     0
  0
ENDTAB
  0
TABLE
  2
DIMSTYLE
 70
     1
  0
DIMSTYLE
  2
STANDARD
 70
     0
  3

  4

  5

  6

  7

 40
1.0
 41
0.18
 42
0.0625
 43
0.38
 44
0.18
 45
0.0
 46
0.0
 47
0.0
 48
0.0
140
0.18
141
0.09
142
0.0
143
25.399999999999999
144
1.0
145
0.0
146
1.0
147
0.09
 71
     0
 72
     0
 73
     1
 74
     1
 75
     0
 76
     0
 77
     0
 78
     0
170
     0
171
     2
172
     0
173
     0
174
     0
175
     0
176
     0
177
     0
178
     0
  0
ENDTAB
  0
ENDSEC
  0
SECTION
  2
BLOCKS
  0
BLOCK
  8
0
  2
$MODEL_SPACE
 70
     0
 10
0.0
 20
0.0
 30
0.0
  3
$MODEL_SPACE
  1

  0
ENDBLK
  5
1BD
  8
0
  0
BLOCK
 67
     1
  8
0
  2
$PAPER_SPACE
 70
     0
 10
0.0
 20
0.0
 30
0.0
  3
$PAPER_SPACE
  1

  0
ENDBLK
  5
1BB
 67
     1
  8
0
  0
ENDSEC
  0
SECTION
  2
ENTITIES
  0
TEXT
  5
189A
  8
0
 62
     3
 10
0.0
 20
0.0
 30
0.0
 40
10.0
  1
ABLP06025-SUS
  7
STANDARD1
  0
LINE
  5
1ED1
  8
0
 10
47.39999999999997
 20
109.8
 30
0.0
 11
47.0
 21
109.40000000000001
 31
0.0
  0
LINE
  5
1ED2
  8
0
 10
53.0
 20
109.40000000000001
 30
0.0
 11
52.600000000000023
 21
109.8
 31
0.0
  0
LINE
  5
1ED3
  8
0
 10
52.600000000000023
 20
109.8
 30
0.0
 11
47.39999999999997
 21
109.8
 31
0.0
  0
LINE
  5
1ED4
  8
2
 10
47.0
 20
109.2999999999999
 30
0.0
 11
47.0
 21
105.1993670425869
 31
0.0
  0
LINE
  5
1ED5
  8
0
 10
47.0
 20
109.40000000000001
 30
0.0
 11
47.0
 21
109.2999999999999
 31
0.0
  0
LINE
  5
1ED6
  8
0
 10
53.0
 20
109.2999999999999
 30
0.0
 11
53.0
 21
109.40000000000001
 31
0.0
  0
LINE
  5
1ED7
  8
2
 10
53.0
 20
105.1993670425869
 30
0.0
 11
53.0
 21
109.2999999999999
 31
0.0
  0
LINE
  5
1ED8
  8
0
 10
53.0
 20
109.40000000000001
 30
0.0
 11
47.0
 21
109.40000000000001
 31
0.0
  0
LINE
  5
1ED9
  8
0
 10
52.422649730810413
 20
53.0
 30
0.0
 11
53.0
 21
54.0
 31
0.0
  0
LINE
  5
1EDA
  8
0
 10
47.0
 20
54.0
 30
0.0
 11
47.577350269189587
 21
53.0
 31
0.0
  0
LINE
  5
1EDB
  8
0
 10
52.422649730810413
 20
53.0
 30
0.0
 11
47.577350269189587
 21
53.0
 31
0.0
  0
LINE
  5
1EDC
  8
0
 10
47.0
 20
84.799999999999983
 30
0.0
 11
47.0
 21
59.799999999999997
 31
0.0
  0
LINE
  5
1EDD
  8
0
 10
47.0
 20
57.799999999999997
 30
0.0
 11
47.0
 21
54.0
 31
0.0
  0
LINE
  5
1EDE
  8
0
 10
53.0
 20
54.0
 30
0.0
 11
53.0
 21
57.799999999999997
 31
0.0
  0
LINE
  5
1EDF
  8
0
 10
53.0
 20
59.799999999999997
 30
0.0
 11
53.0
 21
84.799999999999983
 31
0.0
  0
LINE
  5
1EE1
  8
0
 10
53.0
 20
54.0
 30
0.0
 11
47.0
 21
54.0
 31
0.0
  0
LINE
  5
1EE3
  8
0
 10
56.199999999999989
 20
95.799999999999983
 30
0.0
 11
43.800000000000011
 21
95.799999999999983
 31
0.0
  0
LINE
  5
1EE4
  8
0
 10
43.800000000000011
 20
97.0
 30
0.0
 11
43.800000000000011
 21
93.799999999999983
 31
0.0
  0
LINE
  5
1EE5
  8
0
 10
56.199999999999989
 20
93.799999999999983
 30
0.0
 11
56.199999999999989
 21
97.0
 31
0.0
  0
LINE
  5
1EE6
  8
0
 10
43.25
 20
93.249999999999972
 30
0.0
 11
43.25
 21
85.099999999999966
 31
0.0
  0
LINE
  5
1EE7
  8
0
 10
56.75
 20
85.099999999999966
 30
0.0
 11
56.75
 21
93.249999999999972
 31
0.0
  0
LINE
  5
1EE8
  8
0
 10
56.199999999999989
 20
97.0
 30
0.0
 11
56.75
 21
97.549999999999983
 31
0.0
  0
LINE
  5
1EE9
  8
0
 10
43.25
 20
97.549999999999983
 30
0.0
 11
43.800000000000011
 21
97.0
 31
0.0
  0
LINE
  5
1EEA
  8
0
 10
56.199999999999989
 20
97.0
 30
0.0
 11
43.800000000000011
 21
97.0
 31
0.0
  0
LINE
  5
1EEB
  8
0
 10
43.25
 20
101.3
 30
0.0
 11
43.25
 21
97.549999999999983
 31
0.0
  0
LINE
  5
1EEC
  8
0
 10
56.75
 20
97.549999999999983
 30
0.0
 11
56.75
 21
101.3
 31
0.0
  0
LINE
  5
1EED
  8
0
 10
56.75
 20
97.549999999999983
 30
0.0
 11
43.25
 21
97.549999999999983
 31
0.0
  0
LINE
  5
1EEE
  8
0
 10
56.449999999999989
 20
84.799999999999983
 30
0.0
 11
56.75
 21
85.099999999999966
 31
0.0
  0
LINE
  5
1EEF
  8
0
 10
43.25
 20
85.099999999999966
 30
0.0
 11
43.550000000000011
 21
84.799999999999983
 31
0.0
  0
LINE
  5
1EF0
  8
0
 10
56.75
 20
85.099999999999966
 30
0.0
 11
43.25
 21
85.099999999999966
 31
0.0
  0
LINE
  5
1EF1
  8
0
 10
56.449999999999989
 20
84.799999999999983
 30
0.0
 11
43.550000000000011
 21
84.799999999999983
 31
0.0
  0
LINE
  5
1EF2
  8
0
 10
43.800000000000011
 20
93.799999999999983
 30
0.0
 11
43.25
 21
93.249999999999972
 31
0.0
  0
LINE
  5
1EF3
  8
0
 10
56.75
 20
93.249999999999972
 30
0.0
 11
56.199999999999989
 21
93.799999999999983
 31
0.0
  0
LINE
  5
1EF4
  8
0
 10
56.199999999999989
 20
93.799999999999983
 30
0.0
 11
43.800000000000011
 21
93.799999999999983
 31
0.0
  0
LINE
  5
1EF5
  8
0
 10
56.75
 20
93.249999999999972
 30
0.0
 11
43.25
 21
93.249999999999972
 31
0.0
  0
LINE
  5
1EF6
  8
0
 10
43.75
 20
101.8
 30
0.0
 11
43.25
 21
101.3
 31
0.0
  0
LINE
  5
1EF7
  8
0
 10
56.75
 20
101.3
 30
0.0
 11
56.25
 21
101.8
 31
0.0
  0
LINE
  5
1EF8
  8
0
 10
56.25
 20
101.8
 30
0.0
 11
43.75
 21
101.8
 31
0.0
  0
LINE
  5
1EF9
  8
0
 10
56.75
 20
101.3
 30
0.0
 11
43.25
 21
101.3
 31
0.0
  0
LINE
  5
1EFA
  8
2
 10
46.990000000000002
 20
105.1993670425869
 30
0.0
 11
53.009999999999991
 21
105.1993670425869
 31
0.0
  0
ARC
  5
1EFB
  8
2
 10
50.399999999999977
 20
114.59999999999989
 30
0.0
 40
9.9999999999999734
 50
213.53051008109949
 51
250.06218882016179
  0
ARC
  5
1EFF
  8
2
 10
41.647286135146423
 20
108.8
 30
0.0
 40
0.5000000000000056
 50
33.530510081101248
 51
90.0
  0
LINE
  5
1F00
  8
0
 10
40.499999999999993
 20
106.10005515562641
 30
0.0
 11
44.490000000000002
 21
101.8
 31
0.0
  0
LINE
  5
1F01
  8
0
 10
40.799999999999997
 20
109.2999999999999
 30
0.0
 11
59.199999999999989
 21
109.2999999999999
 31
0.0
  0
ARC
  5
1F02
  8
0
 10
57.700006950250952
 20
108.3050020850752
 30
0.0
 40
1.7999999999999881
 50
359.84077848196898
 51
33.557709986018779
  0
ARC
  5
1F03
  8
0
 10
42.299993049749048
 20
108.3050020850752
 30
0.0
 40
1.7999999999999681
 50
146.44229001398119
 51
180.1592215180309
  0
LINE
  5
1F04
  8
0
 10
40.499999999999993
 20
106.10005515562641
 30
0.0
 11
59.5
 21
106.10005515562641
 31
0.0
  0
LINE
  5
1F05
  8
0
 10
40.499999999999993
 20
108.3
 30
0.0
 11
59.5
 21
108.3
 31
0.0
  0
LINE
  5
1F06
  8
0
 10
59.5
 20
106.10005515562641
 30
0.0
 11
59.5
 21
108.3
 31
0.0
  0
LINE
  5
1F07
  8
0
 10
40.499999999999993
 20
108.3
 30
0.0
 11
40.499999999999993
 21
106.10005515562641
 31
0.0
  0
LINE
  5
1F08
  8
1
 10
50.0
 20
112.8
 30
0.0
 11
50.0
 21
50.0
 31
0.0
  0
LINE
  5
1F0A
  8
1
 10
57.25
 20
100.67521202275439
 30
0.0
 11
57.25
 21
112.2999999999999
 31
0.0
  0
ARC
  5
1F0F
  8
0
 10
49.999999999999893
 20
155.30000695025089
 30
0.0
 40
6.2500000000001004
 50
353.61295795630917
 51
6.3870420436900153
  0
ARC
  5
1F10
  8
0
 10
50.0
 20
155.30000695025089
 30
0.0
 40
6.7500000000000133
 50
350.60627333637251
 51
9.3937266636264471
  0
CIRCLE
  5
1F13
  8
0
 10
50.0
 20
155.30000695025089
 30
0.0
 40
9.5000069502509472
  0
CIRCLE
  5
1F15
  8
0
 10
50.0
 20
155.30000695025089
 30
0.0
 40
9.1999999999999993
  0
ARC
  5
1F18
  8
0
 10
50.0
 20
155.30000695025029
 30
0.0
 40
8.3527138648535981
 50
4.33519780016025
 51
355.66480219984879
  0
CIRCLE
  5
1F19
  8
0
 10
50.0
 20
155.30000695025089
 30
0.0
 40
3.0
  0
CIRCLE
  5
1F1A
  8
0
 10
50.0
 20
155.30000695025089
 30
0.0
 40
2.6000000000000001
  0
LINE
  5
1F1B
  8
1
 10
37.499993049748412
 20
155.30000695025089
 30
0.0
 11
62.500006950250281
 21
155.30000695025089
 31
0.0
  0
LINE
  5
1F1C
  8
1
 10
50.0
 20
142.80000000000001
 30
0.0
 11
50.0
 21
167.8000139005018
 31
0.0
  0
LINE
  5
1F1F
  8
2
 10
127.0
 20
109.2999999999999
 30
0.0
 11
127.0
 21
105.1993670425869
 31
0.0
  0
LINE
  5
1F20
  8
0
 10
127.0
 20
109.40000000000001
 30
0.0
 11
127.0
 21
109.2999999999999
 31
0.0
  0
LINE
  5
1F21
  8
0
 10
133.0
 20
109.2999999999999
 30
0.0
 11
133.0
 21
109.40000000000001
 31
0.0
  0
LINE
  5
1F22
  8
2
 10
133.0
 20
105.1993670425869
 30
0.0
 11
133.0
 21
109.2999999999999
 31
0.0
  0
LINE
  5
1F23
  8
0
 10
133.0
 20
109.40000000000001
 30
0.0
 11
127.0
 21
109.40000000000001
 31
0.0
  0
LINE
  5
1F24
  8
0
 10
132.59999999999999
 20
109.8
 30
0.0
 11
127.40000000000001
 21
109.8
 31
0.0
  0
LINE
  5
1F25
  8
0
 10
127.40000000000001
 20
109.8
 30
0.0
 11
127.0
 21
109.40000000000001
 31
0.0
  0
LINE
  5
1F26
  8
0
 10
133.0
 20
109.40000000000001
 30
0.0
 11
132.59999999999999
 21
109.8
 31
0.0
  0
LINE
  5
1F27
  8
0
 10
132.42264973081029
 20
53.0
 30
0.0
 11
127.57735026918959
 21
53.0
 31
0.0
  0
LINE
  5
1F28
  8
0
 10
132.42264973081029
 20
53.0
 30
0.0
 11
133.0
 21
54.0
 31
0.0
  0
LINE
  5
1F29
  8
0
 10
127.0
 20
54.0
 30
0.0
 11
127.57735026918959
 21
53.0
 31
0.0
  0
LINE
  5
1F2B
  8
0
 10
133.0
 20
54.0
 30
0.0
 11
127.0
 21
54.0
 31
0.0
  0
LINE
  5
1F2C
  8
0
 10
127.0
 20
84.799999999999983
 30
0.0
 11
127.0
 21
54.0
 31
0.0
  0
LINE
  5
1F2D
  8
0
 10
133.0
 20
54.0
 30
0.0
 11
133.0
 21
84.799999999999983
 31
0.0
  0
LINE
  5
1F2E
  8
0
 10
136.19999999999999
 20
95.800000000000011
 30
0.0
 11
123.7999999999999
 21
95.800000000000011
 31
0.0
  0
LINE
  5
1F2F
  8
0
 10
123.7999999999999
 20
97.0
 30
0.0
 11
123.7999999999999
 21
93.799999999999997
 31
0.0
  0
LINE
  5
1F30
  8
0
 10
136.19999999999999
 20
93.799999999999997
 30
0.0
 11
136.19999999999999
 21
97.0
 31
0.0
  0
LINE
  5
1F31
  8
0
 10
123.25
 20
93.249999999999972
 30
0.0
 11
123.25
 21
85.099999999999994
 31
0.0
  0
LINE
  5
1F32
  8
0
 10
136.75
 20
85.099999999999994
 30
0.0
 11
136.75
 21
93.249999999999972
 31
0.0
  0
LINE
  5
1F33
  8
0
 10
136.75
 20
85.099999999999994
 30
0.0
 11
123.25
 21
85.099999999999994
 31
0.0
  0
LINE
  5
1F34
  8
0
 10
136.44999999999999
 20
84.799999999999983
 30
0.0
 11
123.5499999999999
 21
84.799999999999983
 31
0.0
  0
LINE
  5
1F35
  8
0
 10
136.44999999999999
 20
84.799999999999983
 30
0.0
 11
136.75
 21
85.099999999999994
 31
0.0
  0
LINE
  5
1F36
  8
0
 10
123.25
 20
85.099999999999994
 30
0.0
 11
123.5499999999999
 21
84.799999999999983
 31
0.0
  0
LINE
  5
1F37
  8
0
 10
136.19999999999999
 20
97.0
 30
0.0
 11
123.7999999999999
 21
97.0
 31
0.0
  0
LINE
  5
1F38
  8
0
 10
136.19999999999999
 20
97.0
 30
0.0
 11
136.75
 21
97.550000000000026
 31
0.0
  0
LINE
  5
1F39
  8
0
 10
123.25
 20
97.550000000000026
 30
0.0
 11
123.7999999999999
 21
97.0
 31
0.0
  0
LINE
  5
1F3A
  8
0
 10
136.75
 20
97.550000000000026
 30
0.0
 11
123.25
 21
97.550000000000026
 31
0.0
  0
LINE
  5
1F3B
  8
0
 10
123.25
 20
101.3
 30
0.0
 11
123.25
 21
97.550000000000026
 31
0.0
  0
LINE
  5
1F3C
  8
0
 10
136.75
 20
97.550000000000026
 30
0.0
 11
136.75
 21
101.3
 31
0.0
  0
LINE
  5
1F3D
  8
0
 10
136.25
 20
101.8
 30
0.0
 11
123.75
 21
101.8
 31
0.0
  0
LINE
  5
1F3E
  8
0
 10
136.75
 20
101.3
 30
0.0
 11
123.25
 21
101.3
 31
0.0
  0
LINE
  5
1F3F
  8
0
 10
123.75
 20
101.8
 30
0.0
 11
123.25
 21
101.3
 31
0.0
  0
LINE
  5
1F40
  8
0
 10
136.75
 20
101.3
 30
0.0
 11
136.25
 21
101.8
 31
0.0
  0
LINE
  5
1F41
  8
0
 10
136.19999999999999
 20
93.799999999999997
 30
0.0
 11
123.7999999999999
 21
93.799999999999997
 31
0.0
  0
LINE
  5
1F42
  8
0
 10
136.75
 20
93.249999999999972
 30
0.0
 11
123.25
 21
93.249999999999972
 31
0.0
  0
LINE
  5
1F43
  8
0
 10
123.7999999999999
 20
93.799999999999997
 30
0.0
 11
123.25
 21
93.249999999999972
 31
0.0
  0
LINE
  5
1F44
  8
0
 10
136.75
 20
93.249999999999972
 30
0.0
 11
136.19999999999999
 21
93.799999999999997
 31
0.0
  0
LINE
  5
1F45
  8
2
 10
126.98999999999999
 20
105.1993670425869
 30
0.0
 11
133.00999999999999
 21
105.1993670425869
 31
0.0
  0
ARC
  5
1F46
  8
2
 10
130.40000000000001
 20
114.59999999999989
 30
0.0
 40
9.9999999999999734
 50
213.53051008109821
 51
250.06218882016191
  0
ARC
  5
1F47
  8
2
 10
129.59999999999991
 20
114.59999999999999
 30
0.0
 40
10.000000000000011
 50
289.93781117983821
 51
326.46948991890048
  0
ARC
  5
1F48
  8
2
 10
138.35271386485351
 20
108.8
 30
0.0
 40
0.5000000000000036
 50
90.0
 51
146.46948991889869
  0
ARC
  5
1F49
  8
2
 10
121.6472861351464
 20
108.8
 30
0.0
 40
0.5000000000000056
 50
33.530510081101241
 51
90.0
  0
POLYLINE
  5
1F4A
  8
0
 66
     1
 10
0.0
 20
0.0
 30
0.0
  0
VERTEX
  5
21F3
  8
0
 10
128.7500000082313
 20
103.7903415460592
 30
0.0
  0
VERTEX
  5
21F4
  8
0
 10
128.7566767078124
 20
103.9263582483164
 30
0.0
  0
VERTEX
  5
21F5
  8
0
 10
128.7820022650516
 20
104.0835495407578
 30
0.0
  0
VERTEX
  5
21F6
  8
0
 10
128.8285606563685
 20
104.240911763699
 30
0.0
  0
VERTEX
  5
21F7
  8
0
 10
128.8980635646364
 20
104.39423272590859
 30
0.0
  0
VERTEX
  5
21F8
  8
0
 10
129.0086120161852
 20
104.5615789112865
 30
0.0
  0
VERTEX
  5
21F9
  8
0
 10
129.1576509822369
 20
104.7171861105823
 30
0.0
  0
VERTEX
  5
21FA
  8
0
 10
129.29724967974369
 20
104.8213618848979
 30
0.0
  0
VERTEX
  5
21FB
  8
0
 10
129.46353325668849
 20
104.9104634458202
 30
0.0
  0
VERTEX
  5
21FC
  8
0
 10
129.61133319571729
 20
104.96521360035921
 30
0.0
  0
VERTEX
  5
21FD
  8
0
 10
129.7747301528201
 20
105.0035148149064
 30
0.0
  0
VERTEX
  5
21FE
  8
0
 10
129.9411990772908
 20
105.02107500289129
 30
0.0
  0
VERTEX
  5
21FF
  8
0
 10
130.11546801776609
 20
105.01743293344769
 30
0.0
  0
VERTEX
  5
2200
  8
0
 10
130.26646973994349
 20
104.9958972157297
 30
0.0
  0
VERTEX
  5
2201
  8
0
 10
130.41428590435021
 20
104.9571725413895
 30
0.0
  0
VERTEX
  5
2202
  8
0
 10
130.554516531594
 20
104.9023127336056
 30
0.0
  0
VERTEX
  5
2203
  8
0
 10
130.68458134096659
 20
104.8327461543863
 30
0.0
  0
VERTEX
  5
2204
  8
0
 10
130.84791274251691
 20
104.7123300554014
 30
0.0
  0
VERTEX
  5
2205
  8
0
 10
130.98441589465921
 20
104.5702795811161
 30
0.0
  0
VERTEX
  5
2206
  8
0
 10
131.057925075627
 20
104.4686046949171
 30
0.0
  0
VERTEX
  5
2207
  8
0
 10
131.11907652909991
 20
104.36141642305481
 30
0.0
  0
VERTEX
  5
2208
  8
0
 10
131.2063644994482
 20
104.1308884691117
 30
0.0
  0
VERTEX
  5
2209
  8
0
 10
131.2368028951885
 20
103.980612351937
 30
0.0
  0
VERTEX
  5
220A
  8
0
 10
131.24953741572611
 20
103.82652518301499
 30
0.0
  0
VERTEX
  5
220B
  8
0
 10
131.2499999968002
 20
103.7903989097785
 30
0.0
  0
SEQEND
  5
220C
  8
0
  0
POLYLINE
  5
1F4B
  8
0
 66
     1
 10
0.0
 20
0.0
 30
0.0
  0
VERTEX
  5
220D
  8
0
 10
131.2499999968002
 20
103.7903989097785
 30
0.0
  0
VERTEX
  5
220E
  8
0
 10
131.24469888865559
 20
103.66740554554249
 30
0.0
  0
VERTEX
  5
220F
  8
0
 10
131.22210385972761
 20
103.5065099937986
 30
0.0
  0
VERTEX
  5
2210
  8
0
 10
131.1831422322162
 20
103.34990102996341
 30
0.0
  0
VERTEX
  5
2211
  8
0
 10
131.126962408108
 20
103.193691206498
 30
0.0
  0
VERTEX
  5
2212
  8
0
 10
131.0514819466633
 20
103.0368045244233
 30
0.0
  0
VERTEX
  5
2213
  8
0
 10
130.95599312322079
 20
102.88328710164809
 30
0.0
  0
VERTEX
  5
2214
  8
0
 10
130.79656386544141
 20
102.69120390124461
 30
0.0
  0
VERTEX
  5
2215
  8
0
 10
130.6991008739451
 20
102.600716273351
 30
0.0
  0
VERTEX
  5
2216
  8
0
 10
130.58896854473079
 20
102.5173218378649
 30
0.0
  0
SEQEND
  5
2217
  8
0
  0
POLYLINE
  5
1F4C
  8
0
 66
     1
 10
0.0
 20
0.0
 30
0.0
  0
VERTEX
  5
2218
  8
0
 10
130.58896854473079
 20
102.5173218378649
 30
0.0
  0
VERTEX
  5
2219
  8
0
 10
130.4677030136159
 20
102.4452526114442
 30
0.0
  0
VERTEX
  5
221A
  8
0
 10
130.3318857918286
 20
102.3862391615661
 30
0.0
  0
VERTEX
  5
221B
  8
0
 10
130.1880805939208
 20
102.3465821605442
 30
0.0
  0
VERTEX
  5
221C
  8
0
 10
130.0319389310221
 20
102.32860837357541
 30
0.0
  0
VERTEX
  5
221D
  8
0
 10
129.89637702440029
 20
102.3336773616072
 30
0.0
  0
VERTEX
  5
221E
  8
0
 10
129.7597767097007
 20
102.3583481285719
 30
0.0
  0
VERTEX
  5
221F
  8
0
 10
129.6392213599224
 20
102.3969838237401
 30
0.0
  0
VERTEX
  5
2220
  8
0
 10
129.5243127013139
 20
102.44941266300989
 30
0.0
  0
VERTEX
  5
2221
  8
0
 10
129.36013768262251
 20
102.55357984558719
 30
0.0
  0
VERTEX
  5
2222
  8
0
 10
129.21511392480249
 20
102.6794331454646
 30
0.0
  0
VERTEX
  5
2223
  8
0
 10
129.12174594685891
 20
102.7816526105468
 30
0.0
  0
VERTEX
  5
2224
  8
0
 10
129.03940315609279
 20
102.8898761277799
 30
0.0
  0
VERTEX
  5
2225
  8
0
 10
128.90492071506739
 20
103.1221902664264
 30
0.0
  0
VERTEX
  5
2226
  8
0
 10
128.8401925460816
 20
103.2788589803493
 30
0.0
  0
VERTEX
  5
2227
  8
0
 10
128.79268856218869
 20
103.4387157297123
 30
0.0
  0
VERTEX
  5
2228
  8
0
 10
128.7622506895423
 20
103.6028678950355
 30
0.0
  0
VERTEX
  5
2229
  8
0
 10
128.75018112798841
 20
103.7678627032585
 30
0.0
  0
VERTEX
  5
222A
  8
0
 10
128.7500000082313
 20
103.7903415460592
 30
0.0
  0
SEQEND
  5
222B
  8
0
  0
LINE
  5
1F4D
  8
0
 10
135.50999999999999
 20
101.8
 30
0.0
 11
139.5
 21
106.10005515562641
 31
0.0
  0
LINE
  5
1F4E
  8
0
 10
120.5
 20
106.10005515562641
 30
0.0
 11
124.48999999999999
 21
101.8
 31
0.0
  0
LINE
  5
1F4F
  8
0
 10
120.7999999999999
 20
109.2999999999999
 30
0.0
 11
139.19999999999999
 21
109.2999999999999
 31
0.0
  0
ARC
  5
1F50
  8
0
 10
137.70000695025089
 20
108.3050020850752
 30
0.0
 40
1.7999999999999881
 50
359.84077848196898
 51
33.5577099860174
  0
ARC
  5
1F51
  8
0
 10
122.29999304974901
 20
108.3050020850752
 30
0.0
 40
1.7999999999999681
 50
146.44229001398119
 51
180.1592215180309
  0
LINE
  5
1F52
  8
0
 10
120.5
 20
106.10005515562641
 30
0.0
 11
139.5
 21
106.10005515562641
 31
0.0
  0
LINE
  5
1F53
  8
0
 10
120.5
 20
108.3
 30
0.0
 11
139.5
 21
108.3
 31
0.0
  0
LINE
  5
1F54
  8
0
 10
139.5
 20
106.10005515562641
 30
0.0
 11
139.5
 21
108.3
 31
0.0
  0
LINE
  5
1F55
  8
0
 10
120.5
 20
108.3
 30
0.0
 11
120.5
 21
106.10005515562641
 31
0.0
  0
LINE
  5
1F57
  8
0
 10
59.5
 20
106.10005515562641
 30
0.0
 11
55.509999999999991
 21
101.8
 31
0.0
  0
CIRCLE
  5
1F63
  8
0
 10
130.0
 20
58.79999999999999
 30
0.0
 40
1.0
  0
LINE
  5
1F6B
  8
1
 10
130.0
 20
112.8
 30
0.0
 11
130.0
 21
50.0
 31
0.0
  0
CIRCLE
  5
1F6C
  8
0
 10
57.249999999999829
 20
155.3000069502508
 30
0.0
 40
1.2500000000001701
  0
ARC
  5
1F72
  8
2
 10
49.600000000000023
 20
114.59999999999989
 30
0.0
 40
9.9999999999999734
 50
289.93781117983821
 51
326.46948991890167
  0
ARC
  5
1F73
  8
2
 10
58.35271386485357
 20
108.8
 30
0.0
 40
0.5000000000000056
 50
90.0
 51
146.4694899188996
  0
ARC
  5
2113
  8
0
 10
52.425000000000011
 20
58.79999999999999
 30
0.0
 40
1.0
 50
301.76636496131158
 51
58.233635038687801
  0
LINE
  5
2114
  8
1
 10
126.0
 20
58.79999999999999
 30
0.0
 11
134.0
 21
58.799999999999997
 31
0.0
  0
ARC
  5
2115
  8
0
 10
55.830470555692209
 20
58.799999999999983
 30
0.0
 40
3.00192664244824
 50
160.541779901929
 51
199.45822009807
  0
LINE
  5
2116
  8
1
 10
51.328543913243969
 20
58.799999999999983
 30
0.0
 11
54.925000000000011
 21
58.799999999999947
 31
0.0
  0
ARC
  5
2117
  8
0
 10
47.574999999999989
 20
58.79999999999999
 30
0.0
 40
1.0
 50
121.76636496131221
 51
238.2336350386887
  0
ARC
  5
2118
  8
0
 10
44.169529444307777
 20
58.799999999999983
 30
0.0
 40
3.00192664244824
 50
340.54177990192989
 51
19.45822009807096
  0
LINE
  5
2119
  8
1
 10
48.671456086756031
 20
58.799999999999983
 30
0.0
 11
45.074999999999989
 21
58.799999999999947
 31
0.0
  0
ENDSEC
  0
EOF
