  0
SECTION
  2
HEADER
  9
$ACADVER
  1
AC1009
  9
$INSBASE
 10
0.0
 20
0.0
 30
0.0
  9
$EXTMIN
 10
-0.0204638472032742
 20
-2.960436562073669
 30
0.0
  9
$EXTMAX
 10
162.5
 20
203.90000000000001
 30
0.0
  9
$LIMMIN
 10
0.0
 20
0.0
  9
$LIMMAX
 10
187.5
 20
135.0
  9
$ORTHOMODE
 70
     1
  9
$REGENMODE
 70
     1
  9
$FILLMODE
 70
     1
  9
$QTEXTMODE
 70
     0
  9
$MIRRTEXT
 70
     0
  9
$DRAGMODE
 70
     2
  9
$LTSCALE
 40
5.0
  9
$OSMODE
 70
    37
  9
$ATTMODE
 70
     1
  9
$TEXTSIZE
 40
4.0
  9
$TRACEWID
 40
0.05
  9
$TEXTSTYLE
  7
STANDARD
  9
$CLAYER
  8
0
  9
$CELTYPE
  6
BYLAYER
  9
$CECOLOR
 62
   256
  9
$DIMSCALE
 40
0.5
  9
$DIMASZ
 40
3.0
  9
$DIMEXO
 40
2.0
  9
$DIMDLI
 40
0.38
  9
$DIMRND
 40
0.0
  9
$DIMDLE
 40
0.0
  9
$DIMEXE
 40
2.0
  9
$DIMTP
 40
0.0
  9
$DIMTM
 40
0.0
  9
$DIMTXT
 40
3.0
  9
$DIMCEN
 40
0.0
  9
$DIMTSZ
 40
0.0
  9
$DIMTOL
 70
     0
  9
$DIMLIM
 70
     0
  9
$DIMTIH
 70
     0
  9
$DIMTOH
 70
     0
  9
$DIMSE1
 70
     0
  9
$DIMSE2
 70
     0
  9
$DIMTAD
 70
     1
  9
$DIMZIN
 70
     0
  9
$DIMBLK
  1

  9
$DIMASO
 70
     0
  9
$DIMSHO
 70
     0
  9
$DIMPOST
  1

  9
$DIMAPOST
  1

  9
$DIMALT
 70
     0
  9
$DIMALTD
 70
     2
  9
$DIMALTF
 40
25.399999999999999
  9
$DIMLFAC
 40
1.0
  9
$DIMTOFL
 70
     0
  9
$DIMTVP
 40
1.6000000000000001
  9
$DIMTIX
 70
     1
  9
$DIMSOXD
 70
     0
  9
$DIMSAH
 70
     0
  9
$DIMBLK1
  1

  9
$DIMBLK2
  1

  9
$DIMSTYLE
  2
STANDARD
  9
$DIMCLRD
 70
     0
  9
$DIMCLRE
 70
     0
  9
$DIMCLRT
 70
     0
  9
$DIMTFAC
 40
1.0
  9
$DIMGAP
 40
0.09
  9
$LUNITS
 70
     2
  9
$LUPREC
 70
     4
  9
$SKETCHINC
 40
0.1
  9
$FILLETRAD
 40
1.0
  9
$AUNITS
 70
     0
  9
$AUPREC
 70
     0
  9
$MENU
  1
E:\r13\win\SUPPORT\ACAD
  9
$ELEVATION
 40
0.0
  9
$PELEVATION
 40
0.0
  9
$THICKNESS
 40
0.0
  9
$LIMCHECK
 70
     0
  9
$BLIPMODE
 70
     0
  9
$CHAMFERA
 40
0.0
  9
$CHAMFERB
 40
0.0
  9
$SKPOLY
 70
     0
  9
$TDCREATE
 40
2449840.6143865739
  9
$TDUPDATE
 40
2458820.7242741091
  9
$TDINDWG
 40
0.4090738889
  9
$TDUSRTIMER
 40
0.4090738889
  9
$USRTIMER
 70
     1
  9
$ANGBASE
 50
0.0
  9
$ANGDIR
 70
     0
  9
$PDMODE
 70
     0
  9
$PDSIZE
 40
0.0
  9
$PLINEWID
 40
0.0
  9
$COORDS
 70
     1
  9
$SPLFRAME
 70
     0
  9
$SPLINETYPE
 70
     6
  9
$SPLINESEGS
 70
     8
  9
$ATTDIA
 70
     0
  9
$ATTREQ
 70
     1
  9
$HANDLING
 70
     1
  9
$HANDSEED
  5
2933
  9
$SURFTAB1
 70
     6
  9
$SURFTAB2
 70
     6
  9
$SURFTYPE
 70
     6
  9
$SURFU
 70
     6
  9
$SURFV
 70
     6
  9
$UCSNAME
  2

  9
$UCSORG
 10
0.0
 20
0.0
 30
0.0
  9
$UCSXDIR
 10
1.0
 20
0.0
 30
0.0
  9
$UCSYDIR
 10
0.0
 20
1.0
 30
0.0
  9
$PUCSNAME
  2

  9
$PUCSORG
 10
0.0
 20
0.0
 30
0.0
  9
$PUCSXDIR
 10
1.0
 20
0.0
 30
0.0
  9
$PUCSYDIR
 10
0.0
 20
1.0
 30
0.0
  9
$USERI1
 70
     0
  9
$USERI2
 70
     1
  9
$USERI3
 70
     1
  9
$USERI4
 70
     0
  9
$USERI5
 70
     0
  9
$USERR1
 40
0.0
  9
$USERR2
 40
0.0
  9
$USERR3
 40
0.0
  9
$USERR4
 40
0.0
  9
$USERR5
 40
0.0
  9
$WORLDVIEW
 70
     1
  9
$SHADEDGE
 70
     3
  9
$SHADEDIF
 70
    70
  9
$TILEMODE
 70
     1
  9
$MAXACTVP
 70
    16
  9
$PLIMCHECK
 70
     0
  9
$PEXTMIN
 10
1.0000000000000000E+020
 20
1.0000000000000000E+020
 30
1.0000000000000000E+020
  9
$PEXTMAX
 10
-1.0000000000000000E+020
 20
-1.0000000000000000E+020
 30
-1.0000000000000000E+020
  9
$PLIMMIN
 10
0.0
 20
0.0
  9
$PLIMMAX
 10
12.0
 20
9.0
  9
$UNITMODE
 70
     0
  9
$VISRETAIN
 70
     0
  9
$PLINEGEN
 70
     0
  9
$PSLTSCALE
 70
     0
  0
ENDSEC
  0
SECTION
  2
TABLES
  0
TABLE
  2
VPORT
 70
     1
  0
VPORT
  2
*ACTIVE
 70
     0
 10
0.0
 20
0.0
 11
1.0
 21
1.0
 12
193.71333789002799
 22
100.46752646613849
 13
0.0
 23
0.0
 14
5.0
 24
5.0
 15
5.0
 25
5.0
 16
0.0
 26
0.0
 36
1.0
 17
0.0
 27
0.0
 37
0.0
 40
208.66820282576549
 41
2.415644171779141
 42
50.0
 43
0.0
 44
0.0
 50
0.0
 51
0.0
 71
     0
 72
   100
 73
     1
 74
     0
 75
     0
 76
     0
 77
     0
 78
     0
  0
ENDTAB
  0
TABLE
  2
LTYPE
 70
     4
  0
LTYPE
  2
CONTINUOUS
 70
     0
  3
Solid Line
 72
    65
 73
     0
 40
0.0
  0
LTYPE
  2
CENTER
 70
     0
  3
____ _ ____ _ ____ _ ____ _ ____ _ ____ _ ____
 72
    65
 73
     4
 40
2.0
 49
1.25
 49
-0.25
 49
0.25
 49
-0.25
  0
LTYPE
  2
HIDDEN
 70
     0
  3
_ _ _ _ _ _ _ _ _ _ _ _ _ _ _ _ _ _ _ _ _ _ _
 72
    65
 73
     2
 40
0.375
 49
0.25
 49
-0.125
  0
LTYPE
  2
PHANTOM2
 70
     0
  3
___ _ _ ___ _ _ ___ _ _ ___ _ _
 72
    65
 73
     6
 40
1.25
 49
0.625
 49
-0.125
 49
0.125
 49
-0.125
 49
0.125
 49
-0.125
  0
ENDTAB
  0
TABLE
  2
LAYER
 70
     3
  0
LAYER
  2
0
 70
     0
 62
     7
  6
CONTINUOUS
  0
LAYER
  2
1
 70
     0
 62
     1
  6
CENTER
  0
LAYER
  2
2
 70
     0
 62
     2
  6
HIDDEN
  0
ENDTAB
  0
TABLE
  2
STYLE
 70
     2
  0
STYLE
  2
STANDARD
 70
     0
 40
0.0
 41
1.0
 50
0.0
 71
     0
 42
4.0
  3
TXT
  4
BIGFONT
  0
STYLE
  2
STANDARD1
 70
     0
 40
0.0
 41
1.0
 50
0.0
 71
     0
 42
3.0
  3
txt
  4

  0
ENDTAB
  0
TABLE
  2
VIEW
 70
     1
  0
VIEW
  2
ALL
 70
     0
 40
179.66152299999999
 10
141.903918
 20
89.830760999999995
 41
0.0
 11
0.0
 21
0.0
 31
1.0
 12
0.0
 22
0.0
 32
0.0
 42
0.0
 43
0.0
 44
0.0
 50
0.0
 71
     0
  0
ENDTAB
  0
TABLE
  2
UCS
 70
     0
  0
ENDTAB
  0
TABLE
  2
APPID
 70
     5
  0
APPID
  2
ACAD
 70
     0
  0
APPID
  2
DCO15
 70
     0
  0
APPID
  2
ACAD_EXEMPT_FROM_CAD_STANDARDS
 70
     0
  0
APPID
  2
ACAD_MLEADERVER
 70
     0
  0
APPID
  2
ACAD_NAV_VCDISPLAY
 70
     0
  0
ENDTAB
  0
TABLE
  2
DIMSTYLE
 70
     1
  0
DIMSTYLE
  2
STANDARD
 70
     0
  3

  4

  5

  6

  7

 40
1.0
 41
0.18
 42
0.0625
 43
0.38
 44
0.18
 45
0.0
 46
0.0
 47
0.0
 48
0.0
140
0.18
141
0.09
142
0.0
143
25.399999999999999
144
1.0
145
0.0
146
1.0
147
0.09
 71
     0
 72
     0
 73
     1
 74
     1
 75
     0
 76
     0
 77
     0
 78
     0
170
     0
171
     2
172
     0
173
     0
174
     0
175
     0
176
     0
177
     0
178
     0
  0
ENDTAB
  0
ENDSEC
  0
SECTION
  2
BLOCKS
  0
BLOCK
  8
0
  2
$MODEL_SPACE
 70
     0
 10
0.0
 20
0.0
 30
0.0
  3
$MODEL_SPACE
  1

  0
ENDBLK
  5
1BD
  8
0
  0
BLOCK
 67
     1
  8
0
  2
$PAPER_SPACE
 70
     0
 10
0.0
 20
0.0
 30
0.0
  3
$PAPER_SPACE
  1

  0
ENDBLK
  5
1BB
 67
     1
  8
0
  0
ENDSEC
  0
SECTION
  2
ENTITIES
  0
TEXT
  5
189A
  8
0
 62
     3
 10
0.0
 20
0.0
 30
0.0
 40
10.0
  1
ABLP10025-SUS
  7
STANDARD1
  0
LINE
  5
263C
  8
0
 10
46.5
 20
119.90000000000001
 30
0.0
 11
46.0
 21
119.40000000000001
 31
0.0
  0
LINE
  5
263D
  8
0
 10
54.0
 20
119.40000000000001
 30
0.0
 11
53.5
 21
119.90000000000001
 31
0.0
  0
LINE
  5
263E
  8
0
 10
53.5
 20
119.90000000000001
 30
0.0
 11
46.5
 21
119.90000000000001
 31
0.0
  0
LINE
  5
263F
  8
2
 10
46.0
 20
119.40000000000001
 30
0.0
 11
46.0
 21
114.38856944811209
 31
0.0
  0
LINE
  5
2640
  8
2
 10
54.0
 20
114.38856944811209
 30
0.0
 11
54.0
 21
119.40000000000001
 31
0.0
  0
LINE
  5
2641
  8
0
 10
54.13397459621558
 20
52.999999999999993
 30
0.0
 11
55.0
 21
54.499999999999993
 31
0.0
  0
LINE
  5
2642
  8
0
 10
45.0
 20
54.499999999999993
 30
0.0
 11
45.86602540378442
 21
52.999999999999993
 31
0.0
  0
LINE
  5
2643
  8
0
 10
54.13397459621558
 20
52.999999999999993
 30
0.0
 11
45.86602540378442
 21
52.999999999999993
 31
0.0
  0
LINE
  5
2644
  8
0
 10
45.0
 20
86.899999999999991
 30
0.0
 11
45.0
 21
61.900000000000027
 31
0.0
  0
LINE
  5
2645
  8
0
 10
45.0
 20
57.899999999999537
 30
0.0
 11
45.0
 21
54.499999999999993
 31
0.0
  0
LINE
  5
2646
  8
0
 10
55.0
 20
54.499999999999993
 30
0.0
 11
55.0
 21
57.899999999999949
 31
0.0
  0
LINE
  5
2647
  8
0
 10
55.0
 20
61.900000000000432
 30
0.0
 11
55.0
 21
86.899999999999991
 31
0.0
  0
LINE
  5
2649
  8
0
 10
55.0
 20
54.499999999999993
 30
0.0
 11
45.0
 21
54.499999999999993
 31
0.0
  0
LINE
  5
264C
  8
0
 10
57.949999999999989
 20
101.90000000000001
 30
0.0
 11
42.049999999999997
 21
101.90000000000001
 31
0.0
  0
LINE
  5
264E
  8
0
 10
42.049999999999997
 20
103.15000000000001
 30
0.0
 11
42.049999999999997
 21
98.900000000000006
 31
0.0
  0
LINE
  5
264F
  8
0
 10
57.949999999999989
 20
98.900000000000006
 30
0.0
 11
57.949999999999989
 21
103.15000000000001
 31
0.0
  0
LINE
  5
2650
  8
0
 10
41.5
 20
98.349999999999994
 30
0.0
 11
41.5
 21
87.199999999999974
 31
0.0
  0
LINE
  5
2651
  8
0
 10
58.5
 20
87.199999999999974
 30
0.0
 11
58.5
 21
98.349999999999994
 31
0.0
  0
LINE
  5
2652
  8
0
 10
57.949999999999989
 20
103.15000000000001
 30
0.0
 11
58.5
 21
103.7
 31
0.0
  0
LINE
  5
2653
  8
0
 10
41.5
 20
103.7
 30
0.0
 11
42.049999999999997
 21
103.15000000000001
 31
0.0
  0
LINE
  5
2654
  8
0
 10
57.949999999999989
 20
103.15000000000001
 30
0.0
 11
42.049999999999997
 21
103.15000000000001
 31
0.0
  0
LINE
  5
2655
  8
0
 10
41.5
 20
108.90000000000001
 30
0.0
 11
41.5
 21
103.7
 31
0.0
  0
LINE
  5
2656
  8
0
 10
58.5
 20
103.7
 30
0.0
 11
58.5
 21
108.90000000000001
 31
0.0
  0
LINE
  5
2657
  8
0
 10
58.5
 20
103.7
 30
0.0
 11
41.5
 21
103.7
 31
0.0
  0
LINE
  5
2658
  8
0
 10
42.049999999999997
 20
98.900000000000006
 30
0.0
 11
41.5
 21
98.349999999999994
 31
0.0
  0
LINE
  5
2659
  8
0
 10
58.5
 20
98.349999999999994
 30
0.0
 11
57.949999999999989
 21
98.900000000000006
 31
0.0
  0
LINE
  5
265A
  8
0
 10
57.949999999999989
 20
98.900000000000006
 30
0.0
 11
42.049999999999997
 21
98.900000000000006
 31
0.0
  0
LINE
  5
265B
  8
0
 10
58.5
 20
98.349999999999994
 30
0.0
 11
41.5
 21
98.349999999999994
 31
0.0
  0
LINE
  5
265C
  8
0
 10
58.199999999999989
 20
86.899999999999991
 30
0.0
 11
58.5
 21
87.199999999999974
 31
0.0
  0
LINE
  5
265D
  8
0
 10
41.5
 20
87.199999999999974
 30
0.0
 11
41.800000000000011
 21
86.899999999999991
 31
0.0
  0
LINE
  5
265E
  8
0
 10
58.5
 20
87.199999999999974
 30
0.0
 11
41.5
 21
87.199999999999974
 31
0.0
  0
LINE
  5
265F
  8
0
 10
58.199999999999989
 20
86.899999999999991
 30
0.0
 11
41.800000000000011
 21
86.899999999999991
 31
0.0
  0
LINE
  5
2660
  8
0
 10
42.0
 20
109.40000000000001
 30
0.0
 11
41.5
 21
108.90000000000001
 31
0.0
  0
LINE
  5
2661
  8
0
 10
58.5
 20
108.90000000000001
 30
0.0
 11
58.0
 21
109.40000000000001
 31
0.0
  0
LINE
  5
2662
  8
0
 10
58.0
 20
109.40000000000001
 30
0.0
 11
42.0
 21
109.40000000000001
 31
0.0
  0
LINE
  5
2663
  8
0
 10
58.5
 20
108.90000000000001
 30
0.0
 11
41.5
 21
108.90000000000001
 31
0.0
  0
LINE
  5
2664
  8
2
 10
45.990000000000009
 20
114.38856944811209
 30
0.0
 11
54.009999999999991
 21
114.38856944811209
 31
0.0
  0
ARC
  5
2665
  8
2
 10
51.600000000000144
 20
128.30000000000021
 30
0.0
 40
15.000000000000281
 50
220.79912950919899
 51
248.03747978651509
  0
ARC
  5
2666
  8
2
 10
38.27671211749896
 20
116.8
 30
0.0
 40
2.5999999999999721
 50
40.79912334451511
 51
90.0
  0
LINE
  5
2667
  8
0
 10
38.199999999999989
 20
119.40000000000001
 30
0.0
 11
61.800000000000011
 21
119.40000000000001
 31
0.0
  0
ARC
  5
2668
  8
0
 10
60.500099538503378
 20
117.8800464513015
 30
0.0
 40
2.000000000000008
 50
0.5716365467034278
 51
49.462150409497838
  0
ARC
  5
2669
  8
0
 10
39.499900461496622
 20
117.8800464513015
 30
0.0
 40
2.0000000000000271
 50
130.53784959050219
 51
179.4283634532961
  0
LINE
  5
266C
  8
0
 10
37.5
 20
115.35262797813679
 30
0.0
 11
42.990000000000009
 21
109.40000000000001
 31
0.0
  0
LINE
  5
266E
  8
0
 10
37.5
 20
115.35262797813679
 30
0.0
 11
62.5
 21
115.35262797813679
 31
0.0
  0
LINE
  5
266F
  8
0
 10
37.5
 20
117.90000000000001
 30
0.0
 11
62.5
 21
117.90000000000001
 31
0.0
  0
LINE
  5
2670
  8
0
 10
62.5
 20
115.35262797813679
 30
0.0
 11
62.5
 21
117.90000000000001
 31
0.0
  0
LINE
  5
2671
  8
0
 10
37.5
 20
117.90000000000001
 30
0.0
 11
37.5
 21
115.35262797813679
 31
0.0
  0
LINE
  5
2672
  8
1
 10
50.0
 20
122.90000000000001
 30
0.0
 11
50.0
 21
50.0
 31
0.0
  0
ARC
  5
2679
  8
0
 10
49.999999999999773
 20
188.40000000000001
 30
0.0
 40
8.5000000000002292
 50
352.86675912601879
 51
7.1332408739812152
  0
CIRCLE
  5
267B
  8
0
 10
50.0
 20
188.40000000000001
 30
0.0
 40
12.5
  0
CIRCLE
  5
267C
  8
0
 10
50.0
 20
188.40000000000001
 30
0.0
 40
11.800000000000001
  0
CIRCLE
  5
267E
  8
0
 10
50.0
 20
188.40000000000001
 30
0.0
 40
4.0
  0
CIRCLE
  5
267F
  8
0
 10
50.0
 20
188.40000000000001
 30
0.0
 40
3.5
  0
LINE
  5
2680
  8
1
 10
34.5
 20
188.40000000000001
 30
0.0
 11
65.5
 21
188.40000000000001
 31
0.0
  0
LINE
  5
2681
  8
1
 10
50.0
 20
172.90000000000001
 30
0.0
 11
50.0
 21
203.90000000000001
 31
0.0
  0
LINE
  5
2684
  8
0
 10
153.5
 20
119.90000000000001
 30
0.0
 11
146.5
 21
119.90000000000001
 31
0.0
  0
LINE
  5
2685
  8
0
 10
146.5
 20
119.90000000000001
 30
0.0
 11
146.0
 21
119.40000000000001
 31
0.0
  0
LINE
  5
2686
  8
0
 10
154.0
 20
119.40000000000001
 30
0.0
 11
153.5
 21
119.90000000000001
 31
0.0
  0
LINE
  5
2687
  8
2
 10
146.0
 20
119.40000000000001
 30
0.0
 11
146.0
 21
114.38856944811209
 31
0.0
  0
LINE
  5
2688
  8
2
 10
154.0
 20
114.38856944811209
 30
0.0
 11
154.0
 21
119.40000000000001
 31
0.0
  0
LINE
  5
2689
  8
0
 10
154.13397459621561
 20
52.999999999999979
 30
0.0
 11
145.86602540378439
 21
52.999999999999979
 31
0.0
  0
LINE
  5
268A
  8
0
 10
154.13397459621561
 20
52.999999999999979
 30
0.0
 11
155.0
 21
54.499999999999993
 31
0.0
  0
LINE
  5
268B
  8
0
 10
145.0
 20
54.499999999999993
 30
0.0
 11
145.86602540378439
 21
52.999999999999979
 31
0.0
  0
LINE
  5
268D
  8
0
 10
155.0
 20
54.499999999999993
 30
0.0
 11
145.0
 21
54.499999999999993
 31
0.0
  0
LINE
  5
268E
  8
0
 10
145.0
 20
86.899999999999991
 30
0.0
 11
145.0
 21
54.499999999999993
 31
0.0
  0
LINE
  5
268F
  8
0
 10
155.0
 20
54.499999999999993
 30
0.0
 11
155.0
 21
86.899999999999991
 31
0.0
  0
LINE
  5
2690
  8
0
 10
157.94999999999999
 20
101.90000000000001
 30
0.0
 11
142.05000000000001
 21
101.90000000000001
 31
0.0
  0
LINE
  5
2691
  8
0
 10
142.05000000000001
 20
103.15000000000001
 30
0.0
 11
142.05000000000001
 21
98.900000000000006
 31
0.0
  0
LINE
  5
2692
  8
0
 10
157.94999999999999
 20
98.900000000000006
 30
0.0
 11
157.94999999999999
 21
103.15000000000001
 31
0.0
  0
LINE
  5
2693
  8
0
 10
141.5
 20
98.349999999999994
 30
0.0
 11
141.5
 21
87.199999999999974
 31
0.0
  0
LINE
  5
2694
  8
0
 10
158.5
 20
87.199999999999974
 30
0.0
 11
158.5
 21
98.349999999999994
 31
0.0
  0
LINE
  5
2695
  8
0
 10
157.94999999999999
 20
103.15000000000001
 30
0.0
 11
142.05000000000001
 21
103.15000000000001
 31
0.0
  0
LINE
  5
2696
  8
0
 10
157.94999999999999
 20
103.15000000000001
 30
0.0
 11
158.5
 21
103.6999999999999
 31
0.0
  0
LINE
  5
2697
  8
0
 10
141.5
 20
103.6999999999999
 30
0.0
 11
142.05000000000001
 21
103.15000000000001
 31
0.0
  0
LINE
  5
2698
  8
0
 10
158.5
 20
103.6999999999999
 30
0.0
 11
141.5
 21
103.6999999999999
 31
0.0
  0
LINE
  5
2699
  8
0
 10
141.5
 20
108.90000000000001
 30
0.0
 11
141.5
 21
103.6999999999999
 31
0.0
  0
LINE
  5
269A
  8
0
 10
158.5
 20
103.6999999999999
 30
0.0
 11
158.5
 21
108.90000000000001
 31
0.0
  0
LINE
  5
269B
  8
0
 10
158.5
 20
87.199999999999974
 30
0.0
 11
141.5
 21
87.199999999999974
 31
0.0
  0
LINE
  5
269C
  8
0
 10
158.19999999999999
 20
86.899999999999991
 30
0.0
 11
141.80000000000001
 21
86.899999999999991
 31
0.0
  0
LINE
  5
269D
  8
0
 10
158.19999999999999
 20
86.899999999999991
 30
0.0
 11
158.5
 21
87.199999999999974
 31
0.0
  0
LINE
  5
269E
  8
0
 10
141.5
 20
87.199999999999974
 30
0.0
 11
141.80000000000001
 21
86.899999999999991
 31
0.0
  0
LINE
  5
269F
  8
0
 10
157.94999999999999
 20
98.900000000000006
 30
0.0
 11
142.05000000000001
 21
98.900000000000006
 31
0.0
  0
LINE
  5
26A0
  8
0
 10
158.5
 20
98.349999999999994
 30
0.0
 11
141.5
 21
98.349999999999994
 31
0.0
  0
LINE
  5
26A1
  8
0
 10
142.05000000000001
 20
98.900000000000006
 30
0.0
 11
141.5
 21
98.349999999999994
 31
0.0
  0
LINE
  5
26A2
  8
0
 10
158.5
 20
98.349999999999994
 30
0.0
 11
157.94999999999999
 21
98.900000000000006
 31
0.0
  0
LINE
  5
26A3
  8
0
 10
158.0
 20
109.40000000000001
 30
0.0
 11
142.0
 21
109.40000000000001
 31
0.0
  0
LINE
  5
26A4
  8
0
 10
158.5
 20
108.90000000000001
 30
0.0
 11
141.5
 21
108.90000000000001
 31
0.0
  0
LINE
  5
26A5
  8
0
 10
142.0
 20
109.40000000000001
 30
0.0
 11
141.5
 21
108.90000000000001
 31
0.0
  0
LINE
  5
26A6
  8
0
 10
158.5
 20
108.90000000000001
 30
0.0
 11
158.0
 21
109.40000000000001
 31
0.0
  0
LINE
  5
26A7
  8
2
 10
145.99000000000001
 20
114.38856944811209
 30
0.0
 11
154.00999999999999
 21
114.38856944811209
 31
0.0
  0
ARC
  5
26A8
  8
2
 10
151.60000000000011
 20
128.30000000000021
 30
0.0
 40
15.000000000000281
 50
220.79912950919899
 51
248.03747978651509
  0
ARC
  5
26A9
  8
2
 10
148.39999999999989
 20
128.3000000000001
 30
0.0
 40
15.000000000000149
 50
291.96252021348488
 51
319.20087049080092
  0
POLYLINE
  5
26AA
  8
0
 66
     1
 10
0.0
 20
0.0
 30
0.0
  0
VERTEX
  5
28FC
  8
0
 10
148.50000001281751
 20
112.2272254175637
 30
0.0
  0
VERTEX
  5
28FD
  8
0
 10
148.50713136256479
 20
112.3827446318943
 30
0.0
  0
VERTEX
  5
28FE
  8
0
 10
148.53631044253561
 20
112.57304327442429
 30
0.0
  0
VERTEX
  5
28FF
  8
0
 10
148.590669792293
 20
112.7637147776061
 30
0.0
  0
VERTEX
  5
2900
  8
0
 10
148.67220833756079
 20
112.9497938761771
 30
0.0
  0
VERTEX
  5
2901
  8
0
 10
148.80406759972519
 20
113.1557929068327
 30
0.0
  0
VERTEX
  5
2902
  8
0
 10
148.9827225372527
 20
113.3478480826675
 30
0.0
  0
VERTEX
  5
2903
  8
0
 10
149.14943007770651
 20
113.47594645779969
 30
0.0
  0
VERTEX
  5
2904
  8
0
 10
149.34848870474281
 20
113.58599202833911
 30
0.0
  0
VERTEX
  5
2905
  8
0
 10
149.5245143422691
 20
113.65356758233921
 30
0.0
  0
VERTEX
  5
2906
  8
0
 10
149.71949549431699
 20
113.7014226931435
 30
0.0
  0
VERTEX
  5
2907
  8
0
 10
149.91862327956949
 20
113.72415816031859
 30
0.0
  0
VERTEX
  5
2908
  8
0
 10
150.12758299580679
 20
113.72113578731791
 30
0.0
  0
VERTEX
  5
2909
  8
0
 10
150.3077875476198
 20
113.69630158624921
 30
0.0
  0
VERTEX
  5
290A
  8
0
 10
150.48445541323221
 20
113.6507130477669
 30
0.0
  0
VERTEX
  5
290B
  8
0
 10
150.65180038611811
 20
113.58585990285761
 30
0.0
  0
VERTEX
  5
290C
  8
0
 10
150.80728935336469
 20
113.50336915579081
 30
0.0
  0
VERTEX
  5
290D
  8
0
 10
151.0039978166235
 20
113.3595521657807
 30
0.0
  0
VERTEX
  5
290E
  8
0
 10
151.16901332744831
 20
113.1896710485929
 30
0.0
  0
VERTEX
  5
290F
  8
0
 10
151.33385412056469
 20
112.93810989707551
 30
0.0
  0
VERTEX
  5
2910
  8
0
 10
151.44212880396071
 20
112.6603760217693
 30
0.0
  0
VERTEX
  5
2911
  8
0
 10
151.48113822642131
 20
112.4783796492494
 30
0.0
  0
VERTEX
  5
2912
  8
0
 10
151.49878925419171
 20
112.2917709809598
 30
0.0
  0
VERTEX
  5
2913
  8
0
 10
151.49999999239131
 20
112.2272736248915
 30
0.0
  0
SEQEND
  5
2914
  8
0
  0
POLYLINE
  5
26AB
  8
0
 66
     1
 10
0.0
 20
0.0
 30
0.0
  0
VERTEX
  5
2915
  8
0
 10
151.49999999239131
 20
112.2272736248915
 30
0.0
  0
VERTEX
  5
2916
  8
0
 10
151.49526402321951
 20
112.0990864724929
 30
0.0
  0
VERTEX
  5
2917
  8
0
 10
151.4702906914448
 20
111.9042760535781
 30
0.0
  0
VERTEX
  5
2918
  8
0
 10
151.4254390974771
 20
111.7146308082597
 30
0.0
  0
VERTEX
  5
2919
  8
0
 10
151.3597288106468
 20
111.5254886314613
 30
0.0
  0
VERTEX
  5
291A
  8
0
 10
151.2706412632686
 20
111.33553163591201
 30
0.0
  0
VERTEX
  5
291B
  8
0
 10
151.157258005914
 20
111.14964753036961
 30
0.0
  0
VERTEX
  5
291C
  8
0
 10
150.9677449655947
 20
110.91775685113301
 30
0.0
  0
VERTEX
  5
291D
  8
0
 10
150.85161715432821
 20
110.80841028302061
 30
0.0
  0
VERTEX
  5
291E
  8
0
 10
150.72023341439581
 20
110.707469372348
 30
0.0
  0
SEQEND
  5
291F
  8
0
  0
ARC
  5
26AC
  8
2
 10
161.72328788250101
 20
116.8
 30
0.0
 40
2.5999999999999721
 50
90.0
 51
139.2008766554849
  0
ARC
  5
26AD
  8
2
 10
138.2767121174989
 20
116.8
 30
0.0
 40
2.5999999999999721
 50
40.79912334451511
 51
90.0
  0
LINE
  5
26AE
  8
0
 10
138.19999999999999
 20
119.40000000000001
 30
0.0
 11
161.80000000000001
 21
119.40000000000001
 31
0.0
  0
ARC
  5
26AF
  8
0
 10
160.50009953850329
 20
117.8800464513015
 30
0.0
 40
2.000000000000008
 50
0.5716365467034278
 51
49.462150409497838
  0
ARC
  5
26B0
  8
0
 10
139.49990046149659
 20
117.8800464513015
 30
0.0
 40
2.0000000000000271
 50
130.53784959050219
 51
179.4283634532961
  0
POLYLINE
  5
26B1
  8
0
 66
     1
 10
0.0
 20
0.0
 30
0.0
  0
VERTEX
  5
2920
  8
0
 10
150.72023341439581
 20
110.707469372348
 30
0.0
  0
VERTEX
  5
2921
  8
0
 10
150.5738385464158
 20
110.61911704270931
 30
0.0
  0
VERTEX
  5
2922
  8
0
 10
150.40953087913249
 20
110.5464924985408
 30
0.0
  0
VERTEX
  5
2923
  8
0
 10
150.2352360554242
 20
110.4972893485992
 30
0.0
  0
VERTEX
  5
2924
  8
0
 10
150.04560085468901
 20
110.4743173499985
 30
0.0
  0
VERTEX
  5
2925
  8
0
 10
149.88123805778059
 20
110.47948557183091
 30
0.0
  0
VERTEX
  5
2926
  8
0
 10
149.7153803844287
 20
110.5084406442115
 30
0.0
  0
VERTEX
  5
2927
  8
0
 10
149.56967982627981
 20
110.554229812648
 30
0.0
  0
VERTEX
  5
2928
  8
0
 10
149.43070957478199
 20
110.6167431154288
 30
0.0
  0
VERTEX
  5
2929
  8
0
 10
149.23422457184441
 20
110.73997401572019
 30
0.0
  0
VERTEX
  5
292A
  8
0
 10
149.06049139236009
 20
110.8892238962865
 30
0.0
  0
VERTEX
  5
292B
  8
0
 10
148.85055313317909
 20
111.13842030445301
 30
0.0
  0
VERTEX
  5
292C
  8
0
 10
148.6895107049329
 20
111.4140949450677
 30
0.0
  0
VERTEX
  5
292D
  8
0
 10
148.6109678821409
 20
111.6022907394222
 30
0.0
  0
VERTEX
  5
292E
  8
0
 10
148.55315873477579
 20
111.79455940614869
 30
0.0
  0
VERTEX
  5
292F
  8
0
 10
148.51580203558009
 20
111.9922093646752
 30
0.0
  0
VERTEX
  5
2930
  8
0
 10
148.5003827694284
 20
112.19108175914219
 30
0.0
  0
VERTEX
  5
2931
  8
0
 10
148.50000001281751
 20
112.2272254175637
 30
0.0
  0
SEQEND
  5
2932
  8
0
  0
LINE
  5
26B2
  8
0
 10
157.00999999999999
 20
109.40000000000001
 30
0.0
 11
162.5
 21
115.35262797813679
 31
0.0
  0
LINE
  5
26B3
  8
0
 10
137.5
 20
115.35262797813679
 30
0.0
 11
142.99000000000001
 21
109.40000000000001
 31
0.0
  0
LINE
  5
26B4
  8
0
 10
137.5
 20
115.35262797813679
 30
0.0
 11
162.5
 21
115.35262797813679
 31
0.0
  0
LINE
  5
26B5
  8
0
 10
137.5
 20
117.90000000000001
 30
0.0
 11
162.5
 21
117.90000000000001
 31
0.0
  0
LINE
  5
26B6
  8
0
 10
162.5
 20
115.35262797813679
 30
0.0
 11
162.5
 21
117.90000000000001
 31
0.0
  0
LINE
  5
26B7
  8
0
 10
137.5
 20
117.90000000000001
 30
0.0
 11
137.5
 21
115.35262797813679
 31
0.0
  0
LINE
  5
26B8
  8
1
 10
150.0
 20
122.90000000000001
 30
0.0
 11
150.0
 21
50.0
 31
0.0
  0
ARC
  5
26B9
  8
2
 10
48.399999999999856
 20
128.30000000000021
 30
0.0
 40
15.000000000000281
 50
291.96252021348488
 51
319.20087049080092
  0
ARC
  5
26BA
  8
2
 10
61.72328788250104
 20
116.8
 30
0.0
 40
2.5999999999999721
 50
90.0
 51
139.2008766554849
  0
LINE
  5
26C0
  8
0
 10
62.5
 20
115.35262797813679
 30
0.0
 11
57.009999999999991
 21
109.40000000000001
 31
0.0
  0
CIRCLE
  5
271B
  8
0
 10
150.0
 20
59.899999999999991
 30
0.0
 40
2.0000000000004472
  0
CIRCLE
  5
2726
  8
0
 10
59.5
 20
188.40000000000001
 30
0.0
 40
1.5
  0
ARC
  5
2815
  8
0
 10
54.0
 20
59.899999999999537
 30
0.0
 40
1.9999999999999949
 50
297.08668721526232
 51
62.913312784750609
  0
LINE
  5
2816
  8
1
 10
145.0
 20
59.899999999999999
 30
0.0
 11
155.0
 21
59.900000000000013
 31
0.0
  0
ARC
  5
2817
  8
0
 10
59.59760630143311
 20
59.900000000000169
 30
0.0
 40
5.0137793831578383
 50
156.4905274185052
 51
203.50947258149921
  0
LINE
  5
2818
  8
1
 10
53.083826918275278
 20
59.899999999999991
 30
0.0
 11
57.5
 21
59.900000000001683
 31
0.0
  0
ARC
  5
2819
  8
0
 10
46.0
 20
59.899999999999537
 30
0.0
 40
1.9999999999999949
 50
117.0866872152494
 51
242.9133127847376
  0
ARC
  5
281A
  8
0
 10
40.402393698566883
 20
59.900000000000169
 30
0.0
 40
5.0137793831578383
 50
336.4905274185009
 51
23.50947258149478
  0
LINE
  5
281B
  8
1
 10
46.916173081724722
 20
59.899999999999991
 30
0.0
 11
42.5
 21
59.900000000001683
 31
0.0
  0
LINE
  5
2823
  8
1
 10
59.5
 20
109.0998258042915
 30
0.0
 11
59.5
 21
122.40000000000001
 31
0.0
  0
ENDSEC
  0
EOF
