  0
SECTION
  2
HEADER
  9
$ACADVER
  1
AC1009
  9
$INSBASE
 10
0.0
 20
0.0
 30
0.0
  9
$EXTMIN
 10
-0.0102319236016371
 20
-1.4802182810368341
 30
0.0
  9
$EXTMAX
 10
1342.963225868941
 20
265.89684184886562
 30
0.0
  9
$LIMMIN
 10
0.0
 20
0.0
  9
$LIMMAX
 10
1125.0
 20
810.0
  9
$ORTHOMODE
 70
     1
  9
$REGENMODE
 70
     1
  9
$FILLMODE
 70
     1
  9
$QTEXTMODE
 70
     0
  9
$MIRRTEXT
 70
     0
  9
$DRAGMODE
 70
     2
  9
$LTSCALE
 40
30.0
  9
$OSMODE
 70
  3071
  9
$ATTMODE
 70
     1
  9
$TEXTSIZE
 40
0.2
  9
$TRACEWID
 40
0.05
  9
$TEXTSTYLE
  7
STANDARD
  9
$CLAYER
  8
0
  9
$CELTYPE
  6
BYLAYER
  9
$CECOLOR
 62
   256
  9
$DIMSCALE
 40
3.0
  9
$DIMASZ
 40
3.0
  9
$DIMEXO
 40
2.0
  9
$DIMDLI
 40
0.38
  9
$DIMRND
 40
0.0
  9
$DIMDLE
 40
0.0
  9
$DIMEXE
 40
2.0
  9
$DIMTP
 40
0.0
  9
$DIMTM
 40
0.0
  9
$DIMTXT
 40
3.2000000000000002
  9
$DIMCEN
 40
0.0
  9
$DIMTSZ
 40
0.0
  9
$DIMTOL
 70
     0
  9
$DIMLIM
 70
     0
  9
$DIMTIH
 70
     0
  9
$DIMTOH
 70
     0
  9
$DIMSE1
 70
     0
  9
$DIMSE2
 70
     0
  9
$DIMTAD
 70
     1
  9
$DIMZIN
 70
     0
  9
$DIMBLK
  1

  9
$DIMASO
 70
     0
  9
$DIMSHO
 70
     0
  9
$DIMPOST
  1

  9
$DIMAPOST
  1

  9
$DIMALT
 70
     0
  9
$DIMALTD
 70
     2
  9
$DIMALTF
 40
25.399999999999999
  9
$DIMLFAC
 40
1.0
  9
$DIMTOFL
 70
     1
  9
$DIMTVP
 40
1.6000000000000001
  9
$DIMTIX
 70
     1
  9
$DIMSOXD
 70
     0
  9
$DIMSAH
 70
     0
  9
$DIMBLK1
  1

  9
$DIMBLK2
  1

  9
$DIMSTYLE
  2
STANDARD
  9
$DIMCLRD
 70
     0
  9
$DIMCLRE
 70
     0
  9
$DIMCLRT
 70
     0
  9
$DIMTFAC
 40
1.0
  9
$DIMGAP
 40
0.09
  9
$LUNITS
 70
     2
  9
$LUPREC
 70
     4
  9
$SKETCHINC
 40
0.1
  9
$FILLETRAD
 40
0.0
  9
$AUNITS
 70
     0
  9
$AUPREC
 70
     4
  9
$MENU
  1
E:\r13\win\SUPPORT\ACAD
  9
$ELEVATION
 40
0.0
  9
$PELEVATION
 40
0.0
  9
$THICKNESS
 40
0.0
  9
$LIMCHECK
 70
     0
  9
$BLIPMODE
 70
     0
  9
$CHAMFERA
 40
0.0
  9
$CHAMFERB
 40
0.0
  9
$SKPOLY
 70
     0
  9
$TDCREATE
 40
2449839.627581019
  9
$TDUPDATE
 40
2456597.497958669
  9
$TDINDWG
 40
0.0242191667
  9
$TDUSRTIMER
 40
0.0242191667
  9
$USRTIMER
 70
     1
  9
$ANGBASE
 50
0.0
  9
$ANGDIR
 70
     0
  9
$PDMODE
 70
     0
  9
$PDSIZE
 40
0.0
  9
$PLINEWID
 40
0.0
  9
$COORDS
 70
     1
  9
$SPLFRAME
 70
     0
  9
$SPLINETYPE
 70
     6
  9
$SPLINESEGS
 70
     8
  9
$ATTDIA
 70
     0
  9
$ATTREQ
 70
     1
  9
$HANDLING
 70
     1
  9
$HANDSEED
  5
11A8
  9
$SURFTAB1
 70
     6
  9
$SURFTAB2
 70
     6
  9
$SURFTYPE
 70
     6
  9
$SURFU
 70
     6
  9
$SURFV
 70
     6
  9
$UCSNAME
  2

  9
$UCSORG
 10
0.0
 20
0.0
 30
0.0
  9
$UCSXDIR
 10
1.0
 20
0.0
 30
0.0
  9
$UCSYDIR
 10
0.0
 20
1.0
 30
0.0
  9
$PUCSNAME
  2

  9
$PUCSORG
 10
0.0
 20
0.0
 30
0.0
  9
$PUCSXDIR
 10
1.0
 20
0.0
 30
0.0
  9
$PUCSYDIR
 10
0.0
 20
1.0
 30
0.0
  9
$USERI1
 70
     0
  9
$USERI2
 70
     1
  9
$USERI3
 70
     0
  9
$USERI4
 70
     0
  9
$USERI5
 70
     0
  9
$USERR1
 40
0.0
  9
$USERR2
 40
0.0
  9
$USERR3
 40
0.0
  9
$USERR4
 40
0.0
  9
$USERR5
 40
0.0
  9
$WORLDVIEW
 70
     1
  9
$SHADEDGE
 70
     3
  9
$SHADEDIF
 70
    70
  9
$TILEMODE
 70
     1
  9
$MAXACTVP
 70
    16
  9
$PLIMCHECK
 70
     0
  9
$PEXTMIN
 10
1.0000000000000000E+020
 20
1.0000000000000000E+020
 30
1.0000000000000000E+020
  9
$PEXTMAX
 10
-1.0000000000000000E+020
 20
-1.0000000000000000E+020
 30
-1.0000000000000000E+020
  9
$PLIMMIN
 10
0.0
 20
0.0
  9
$PLIMMAX
 10
12.0
 20
9.0
  9
$UNITMODE
 70
     0
  9
$VISRETAIN
 70
     0
  9
$PLINEGEN
 70
     0
  9
$PSLTSCALE
 70
     0
  0
ENDSEC
  0
SECTION
  2
TABLES
  0
TABLE
  2
VPORT
 70
     1
  0
VPORT
  2
*ACTIVE
 70
     0
 10
0.0
 20
0.0
 11
1.0
 21
1.0
 12
671.48161606130009
 22
497.7545321195048
 13
0.0
 23
0.0
 14
30.0
 24
30.0
 15
30.0
 25
30.0
 16
0.0
 26
0.0
 36
1.0
 17
0.0
 27
0.0
 37
0.0
 40
1011.720057486521
 41
1.831871345029239
 42
50.0
 43
0.0
 44
0.0
 50
0.0
 51
0.0
 71
     0
 72
   500
 73
     1
 74
     0
 75
     0
 76
     0
 77
     0
 78
     2
  0
ENDTAB
  0
TABLE
  2
LTYPE
 70
     4
  0
LTYPE
  2
CONTINUOUS
 70
     0
  3
Solid Line
 72
    65
 73
     0
 40
0.0
  0
LTYPE
  2
CENTER
 70
     0
  3
____ _ ____ _ ____ _ ____ _ ____ _ ____ _ ____
 72
    65
 73
     4
 40
2.0
 49
1.25
 49
-0.25
 49
0.25
 49
-0.25
  0
LTYPE
  2
HIDDEN
 70
     0
  3
_ _ _ _ _ _ _ _ _ _ _ _ _ _ _ _ _ _ _ _ _ _ _
 72
    65
 73
     2
 40
0.375
 49
0.25
 49
-0.125
  0
LTYPE
  2
PHANTOM2
 70
     0
  3
___ _ _ ___ _ _ ___ _ _ ___ _ _
 72
    65
 73
     6
 40
1.25
 49
0.625
 49
-0.125
 49
0.125
 49
-0.125
 49
0.125
 49
-0.125
  0
ENDTAB
  0
TABLE
  2
LAYER
 70
     6
  0
LAYER
  2
0
 70
     0
 62
     7
  6
CONTINUOUS
  0
LAYER
  2
1
 70
     0
 62
     1
  6
CENTER
  0
LAYER
  2
3
 70
     0
 62
     3
  6
CONTINUOUS
  0
LAYER
  2
11
 70
     0
 62
     3
  6
CONTINUOUS
  0
LAYER
  2
ITTEN
 70
     0
 62
     1
  6
CENTER
  0
LAYER
  2
2
 70
     0
 62
     2
  6
HIDDEN
  0
ENDTAB
  0
TABLE
  2
STYLE
 70
     2
  0
STYLE
  2
STANDARD
 70
     0
 40
0.0
 41
1.0
 50
0.0
 71
     0
 42
0.2
  3
TXT
  4
BIGFONT
  0
STYLE
  2
STANDARD1
 70
     0
 40
0.0
 41
1.0
 50
0.0
 71
     0
 42
3.0
  3
txt
  4

  0
ENDTAB
  0
TABLE
  2
VIEW
 70
     1
  0
VIEW
  2
ALL
 70
     0
 40
810.0
 10
662.97478991596643
 20
405.0
 41
0.0
 11
0.0
 21
0.0
 31
1.0
 12
0.0
 22
0.0
 32
0.0
 42
0.0
 43
0.0
 44
0.0
 50
0.0
 71
     0
  0
ENDTAB
  0
TABLE
  2
UCS
 70
     0
  0
ENDTAB
  0
TABLE
  2
APPID
 70
     4
  0
APPID
  2
ACAD
 70
     0
  0
APPID
  2
DCO15
 70
     0
  0
APPID
  2
ACAD_MLEADERVER
 70
     0
  0
APPID
  2
ACAD_NAV_VCDISPLAY
 70
     0
  0
ENDTAB
  0
TABLE
  2
DIMSTYLE
 70
     1
  0
DIMSTYLE
  2
STANDARD
 70
     0
  3

  4

  5

  6

  7

 40
1.0
 41
0.18
 42
0.0625
 43
0.38
 44
0.18
 45
0.0
 46
0.0
 47
0.0
 48
0.0
140
0.18
141
0.09
142
0.0
143
25.399999999999999
144
1.0
145
0.0
146
1.0
147
0.09
 71
     0
 72
     0
 73
     1
 74
     1
 75
     0
 76
     0
 77
     0
 78
     0
170
     0
171
     2
172
     0
173
     0
174
     0
175
     0
176
     0
177
     0
178
     0
  0
ENDTAB
  0
ENDSEC
  0
SECTION
  2
BLOCKS
  0
BLOCK
  8
0
  2
$MODEL_SPACE
 70
     0
 10
0.0
 20
0.0
 30
0.0
  3
$MODEL_SPACE
  1

  0
ENDBLK
  5
16D
  8
0
  0
BLOCK
 67
     1
  8
0
  2
$PAPER_SPACE
 70
     0
 10
0.0
 20
0.0
 30
0.0
  3
$PAPER_SPACE
  1

  0
ENDBLK
  5
16B
 67
     1
  8
0
  0
BLOCK
  8
0
  2
STDGX5
 70
     0
 10
0.0
 20
0.0
 30
0.0
  3
STDGX5
  1

  0
ENDBLK
  5
339
  8
0
  0
BLOCK
  8
0
  2
BATU
 70
     0
 10
0.0
 20
0.0
 30
0.0
  3
BATU
  1

  0
LINE
  5
7CF
  8
ITTEN
 10
0.5
 20
0.0
 30
0.0
 11
-0.5
 21
0.0
 31
0.0
  0
LINE
  5
7D0
  8
ITTEN
 10
0.0
 20
0.5
 30
0.0
 11
0.0
 21
-0.5
 31
0.0
  0
ENDBLK
  5
7D1
  8
0
  0
ENDSEC
  0
SECTION
  2
ENTITIES
  0
INSERT
  5
B2E
  8
11
  2
STDGX5
 10
1334.5155063424691
 20
-1.4582556483273941
 30
0.0
  0
INSERT
  5
B2F
  8
11
  2
STDGX5
 10
1334.5155063424691
 20
-1.4582556483273941
 30
0.0
  0
INSERT
  5
B30
  8
11
  2
STDGX5
 10
1334.5155063424691
 20
-1.4582556483273941
 30
0.0
  0
INSERT
  5
B31
  8
11
  2
STDGX5
 10
1334.5155063424691
 20
-1.4582556483273941
 30
0.0
  0
INSERT
  5
B32
  8
11
  2
STDGX5
 10
1334.5155063424691
 20
-1.4582556483273941
 30
0.0
  0
INSERT
  5
B33
  8
11
  2
STDGX5
 10
1334.5155063424691
 20
-1.4582556483273941
 30
0.0
  0
INSERT
  5
B34
  8
11
  2
STDGX5
 10
1334.5155063424691
 20
-1.4582556483273941
 30
0.0
  0
INSERT
  5
B35
  8
0
  2
BATU
 10
1342.9627258689411
 20
265.89634184886569
 30
0.0
 41
0.0009999999999764
 42
0.0009999999999764
 43
0.0009999999999764
  0
ARC
  5
F24
  8
0
 10
242.87319299999999
 20
40.526432
 30
0.0
 40
0.5
 50
96.519801999999999
 51
180.0
  0
ARC
  5
F25
  8
0
 10
242.87319299999999
 20
40.472543999999992
 30
0.0
 40
0.5
 50
180.0
 51
270.0
  0
LINE
  5
F26
  8
0
 10
242.81641999999999
 20
41.023198000000001
 30
0.0
 11
245.87319299999999
 21
41.372543999999998
 31
0.0
  0
LINE
  5
F27
  8
0
 10
242.37319299999999
 20
40.472543999999992
 30
0.0
 11
242.37319299999999
 21
40.526432
 31
0.0
  0
ARC
  5
F28
  8
0
 10
239.673193
 20
85.372544000000005
 30
0.0
 40
1.0
 50
90.0
 51
180.0
  0
ARC
  5
F29
  8
0
 10
250.073193
 20
38.879095000000007
 30
0.0
 40
1.0
 50
0.0
 51
52.528006999999988
  0
LINE
  5
F2A
  8
0
 10
248.070425
 20
41.674318
 30
0.0
 11
250.681567
 21
39.672744999999992
 31
0.0
  0
ARC
  5
F2B
  8
0
 10
245.20968999999999
 20
41.588494999999988
 30
0.0
 40
2.8620209999999999
 50
1.718386
 51
76.595156000000003
  0
ARC
  5
F2C
  8
0
 10
250.573193
 20
38.872544000000012
 30
0.0
 40
0.5
 50
270.0
 51
0.0
  0
ARC
  5
F2D
  8
0
 10
250.573193
 20
38.872544000000012
 30
0.0
 40
0.5
 50
180.0
 51
270.0
  0
LINE
  5
F2E
  8
0
 10
245.87319299999999
 20
39.972543999999999
 30
0.0
 11
250.073193
 21
39.372543999999998
 31
0.0
  0
LINE
  5
F2F
  8
0
 10
250.073193
 20
39.372543999999998
 30
0.0
 11
250.073193
 21
38.872544000000012
 31
0.0
  0
LINE
  5
F30
  8
0
 10
251.073193
 20
38.879095000000007
 30
0.0
 11
251.073193
 21
38.872544000000012
 31
0.0
  0
LINE
  5
F31
  8
0
 10
245.44319300000001
 20
42.372543999999998
 30
0.0
 11
245.44319300000001
 21
41.372543999999998
 31
0.0
  0
ARC
  5
F32
  8
0
 10
240.87319299999999
 20
45.372544000000012
 30
0.0
 40
1.0
 50
180.0
 51
270.0
  0
ARC
  5
F33
  8
0
 10
240.673193
 20
44.372543999999998
 30
0.0
 40
2.0
 50
180.0
 51
270.0
  0
LINE
  5
F34
  8
0
 10
245.87319299999999
 20
44.372543999999998
 30
0.0
 11
245.87319299999999
 21
39.972543999999999
 31
0.0
  0
LINE
  5
F35
  8
0
 10
239.87319299999999
 20
86.372543999999991
 30
0.0
 11
239.87319299999999
 21
45.372544000000012
 31
0.0
  0
LINE
  5
F36
  8
0
 10
238.673193
 20
85.372544000000005
 30
0.0
 11
238.673193
 21
44.372543999999998
 31
0.0
  0
LINE
  5
F37
  8
0
 10
240.87319299999999
 20
44.372543999999998
 30
0.0
 11
245.87319299999999
 21
44.372543999999998
 31
0.0
  0
LINE
  5
F38
  8
0
 10
240.673193
 20
42.372543999999998
 30
0.0
 11
245.44319300000001
 21
42.372543999999998
 31
0.0
  0
LINE
  5
F39
  8
0
 10
242.87319299999999
 20
39.972543999999999
 30
0.0
 11
245.87319299999999
 21
39.972543999999999
 31
0.0
  0
LINE
  5
F3A
  8
0
 10
250.573193
 20
38.372544000000012
 30
0.0
 11
250.573193
 21
38.372544000000012
 31
0.0
  0
LINE
  5
F3B
  8
1
 10
197.89809500000001
 20
33.372544000000012
 30
0.0
 11
197.89809500000001
 21
91.372543999999991
 31
0.0
  0
LINE
  5
F3C
  8
0
 10
202.89809500000001
 20
44.372543999999998
 30
0.0
 11
202.89809500000001
 21
82.372544000000005
 31
0.0
  0
LINE
  5
F3D
  8
0
 10
192.89809500000001
 20
44.372543999999998
 30
0.0
 11
192.89809500000001
 21
82.372544000000005
 31
0.0
  0
LINE
  5
F3E
  8
0
 10
194.49809500000001
 20
86.372543999999991
 30
0.0
 11
201.29809499999999
 21
86.372543999999991
 31
0.0
  0
LINE
  5
F3F
  8
0
 10
193.99809500000001
 20
42.372543999999998
 30
0.0
 11
201.79809499999999
 21
42.372543999999998
 31
0.0
  0
LINE
  5
F40
  8
0
 10
192.89809500000001
 20
82.372544000000005
 30
0.0
 11
193.49809500000001
 21
82.372544000000005
 31
0.0
  0
LINE
  5
F41
  8
0
 10
201.79809499999999
 20
82.872544000000005
 30
0.0
 11
201.79809499999999
 21
85.872543999999991
 31
0.0
  0
LINE
  5
F42
  8
0
 10
193.99809500000001
 20
82.872544000000005
 30
0.0
 11
193.99809500000001
 21
85.872543999999991
 31
0.0
  0
LINE
  5
F43
  8
0
 10
202.29809499999999
 20
82.372544000000005
 30
0.0
 11
202.89809500000001
 21
82.372544000000005
 31
0.0
  0
LINE
  5
F44
  8
0
 10
193.99809500000001
 20
85.872543999999991
 30
0.0
 11
194.49809500000001
 21
86.372543999999991
 31
0.0
  0
LINE
  5
F45
  8
0
 10
201.29809499999999
 20
86.372543999999991
 30
0.0
 11
201.79809499999999
 21
85.872543999999991
 31
0.0
  0
ARC
  5
F46
  8
0
 10
193.49809500000001
 20
82.872544000000005
 30
0.0
 40
0.5
 50
270.0
 51
0.0
  0
ARC
  5
F47
  8
0
 10
202.29809499999999
 20
82.872544000000005
 30
0.0
 40
0.5
 50
180.0
 51
270.0
  0
LINE
  5
F48
  8
0
 10
196.29809499999999
 20
38.372544000000012
 30
0.0
 11
199.49809500000001
 21
38.372544000000012
 31
0.0
  0
LINE
  5
F49
  8
0
 10
199.698095
 20
38.572544000000001
 30
0.0
 11
199.698095
 21
39.972543999999999
 31
0.0
  0
LINE
  5
F4A
  8
0
 10
196.098095
 20
38.572544000000001
 30
0.0
 11
196.098095
 21
39.972543999999999
 31
0.0
  0
LINE
  5
F4B
  8
0
 10
196.098095
 20
39.372543999999998
 30
0.0
 11
199.698095
 21
39.372543999999998
 31
0.0
  0
LINE
  5
F4C
  8
0
 10
205.39809500000001
 20
40.072543999999994
 30
0.0
 11
205.39809500000001
 21
41.272543999999982
 31
0.0
  0
LINE
  5
F4D
  8
0
 10
190.39809500000001
 20
40.072543999999994
 30
0.0
 11
190.39809500000001
 21
41.272543999999982
 31
0.0
  0
LINE
  5
F4E
  8
0
 10
201.79809499999999
 20
41.372543999999998
 30
0.0
 11
201.79809499999999
 21
42.372543999999998
 31
0.0
  0
LINE
  5
F4F
  8
0
 10
193.99809500000001
 20
41.372543999999998
 30
0.0
 11
193.99809500000001
 21
42.372543999999998
 31
0.0
  0
LINE
  5
F50
  8
0
 10
190.49809500000001
 20
41.372543999999998
 30
0.0
 11
205.29809499999999
 21
41.372543999999998
 31
0.0
  0
ARC
  5
F51
  8
0
 10
204.649742
 20
42.106637999999997
 30
0.0
 40
2.8640180000000002
 50
127.705635
 51
174.67277799999999
  0
ARC
  5
F52
  8
0
 10
191.14644799999999
 20
42.106637999999997
 30
0.0
 40
2.8640180000000002
 50
5.327221999999999
 51
52.294364999999999
  0
LINE
  5
F53
  8
0
 10
205.29809499999999
 20
39.972543999999999
 30
0.0
 11
190.49809500000001
 21
39.972543999999999
 31
0.0
  0
ARC
  5
F54
  8
0
 10
199.49809500000001
 20
38.572544000000001
 30
0.0
 40
0.2
 50
270.0
 51
0.0
  0
ARC
  5
F55
  8
0
 10
196.29809499999999
 20
38.572544000000001
 30
0.0
 40
0.2
 50
180.0
 51
270.0
  0
ARC
  5
F56
  8
0
 10
205.29809499999999
 20
40.072543999999994
 30
0.0
 40
0.1
 50
270.0
 51
0.0
  0
ARC
  5
F57
  8
0
 10
205.29809499999999
 20
41.272543999999982
 30
0.0
 40
0.1
 50
0.0
 51
90.0
  0
ARC
  5
F58
  8
0
 10
190.49809500000001
 20
40.072543999999994
 30
0.0
 40
0.1
 50
180.0
 51
270.0
  0
ARC
  5
F59
  8
0
 10
190.49809500000001
 20
41.272543999999982
 30
0.0
 40
0.1
 50
90.0
 51
180.0
  0
LINE
  5
F5A
  8
0
 10
66.798094999999989
 20
146.990556
 30
0.0
 11
76.998094999999992
 21
146.990556
 31
0.0
  0
LINE
  5
F5B
  8
0
 10
76.998094999999992
 20
146.990556
 30
0.0
 11
76.998094999999992
 21
141.990556
 31
0.0
  0
LINE
  5
F5C
  8
0
 10
66.798094999999989
 20
146.990556
 30
0.0
 11
66.798094999999989
 21
141.990556
 31
0.0
  0
LINE
  5
F5D
  8
0
 10
114.994523
 20
146.990556
 30
0.0
 11
114.994523
 21
141.990556
 31
0.0
  0
LINE
  5
F5E
  8
0
 10
125.194523
 20
146.990556
 30
0.0
 11
125.194523
 21
141.990556
 31
0.0
  0
LINE
  5
F5F
  8
0
 10
114.994523
 20
146.990556
 30
0.0
 11
125.194523
 21
146.990556
 31
0.0
  0
LINE
  5
F60
  8
1
 10
60.898094999999969
 20
192.24378399999989
 30
0.0
 11
82.898094999999955
 21
192.24378399999989
 31
0.0
  0
LINE
  5
F61
  8
0
 10
250.573193
 20
167.990556
 30
0.0
 11
250.573193
 21
167.990556
 31
0.0
  0
LINE
  5
F62
  8
0
 10
242.87319299999999
 20
166.390556
 30
0.0
 11
245.87319299999999
 21
166.390556
 31
0.0
  0
LINE
  5
F63
  8
0
 10
240.673193
 20
163.990556
 30
0.0
 11
245.44319300000001
 21
163.990556
 31
0.0
  0
LINE
  5
F64
  8
0
 10
240.87319299999999
 20
161.990556
 30
0.0
 11
245.87319299999999
 21
161.990556
 31
0.0
  0
LINE
  5
F65
  8
0
 10
238.673193
 20
120.990556
 30
0.0
 11
238.673193
 21
161.990556
 31
0.0
  0
LINE
  5
F66
  8
0
 10
239.87319299999999
 20
119.990556
 30
0.0
 11
239.87319299999999
 21
160.990556
 31
0.0
  0
LINE
  5
F67
  8
0
 10
245.87319299999999
 20
161.990556
 30
0.0
 11
245.87319299999999
 21
166.390556
 31
0.0
  0
ARC
  5
F68
  8
0
 10
240.673193
 20
161.990556
 30
0.0
 40
2.0
 50
90.0
 51
180.0
  0
ARC
  5
F69
  8
0
 10
240.87319299999999
 20
160.990556
 30
0.0
 40
1.0
 50
90.0
 51
180.0
  0
LINE
  5
F6A
  8
0
 10
245.44319300000001
 20
163.990556
 30
0.0
 11
245.44319300000001
 21
164.990556
 31
0.0
  0
LINE
  5
F6B
  8
0
 10
251.073193
 20
167.48400599999999
 30
0.0
 11
251.073193
 21
167.490556
 31
0.0
  0
LINE
  5
F6C
  8
0
 10
250.073193
 20
166.990556
 30
0.0
 11
250.073193
 21
167.490556
 31
0.0
  0
LINE
  5
F6D
  8
0
 10
245.87319299999999
 20
166.390556
 30
0.0
 11
250.073193
 21
166.990556
 31
0.0
  0
ARC
  5
F6E
  8
0
 10
250.573193
 20
167.490556
 30
0.0
 40
0.5
 50
90.0
 51
180.0
  0
ARC
  5
F6F
  8
0
 10
250.573193
 20
167.490556
 30
0.0
 40
0.5
 50
0.0
 51
90.0
  0
ARC
  5
F70
  8
0
 10
245.20968999999999
 20
164.77460500000001
 30
0.0
 40
2.8620209999999999
 50
283.40484400000003
 51
358.28161399999999
  0
LINE
  5
F71
  8
0
 10
248.070425
 20
164.688782
 30
0.0
 11
250.681567
 21
166.69035500000001
 31
0.0
  0
ARC
  5
F72
  8
0
 10
250.073193
 20
167.48400599999999
 30
0.0
 40
1.0
 50
307.471993
 51
0.0
  0
ARC
  5
F73
  8
0
 10
239.673193
 20
120.990556
 30
0.0
 40
1.0
 50
180.0
 51
270.0
  0
LINE
  5
F74
  8
0
 10
205.39809500000001
 20
197.16131999999999
 30
0.0
 11
205.39809500000001
 21
200.26132000000001
 31
0.0
  0
LINE
  5
F75
  8
0
 10
190.39809500000001
 20
197.16131999999999
 30
0.0
 11
190.39809500000001
 21
200.26132000000001
 31
0.0
  0
LINE
  5
F76
  8
0
 10
199.698095
 20
200.46132
 30
0.0
 11
199.698095
 21
205.46132
 31
0.0
  0
LINE
  5
F77
  8
0
 10
196.098095
 20
200.46132
 30
0.0
 11
196.098095
 21
205.46132
 31
0.0
  0
LINE
  5
F78
  8
0
 10
205.198095
 20
200.46132
 30
0.0
 11
190.598095
 21
200.46132
 31
0.0
  0
LINE
  5
F79
  8
0
 10
199.49809500000001
 20
205.66131999999999
 30
0.0
 11
196.29809499999999
 21
205.66131999999999
 31
0.0
  0
LINE
  5
F7A
  8
0
 10
199.698095
 20
204.66131999999999
 30
0.0
 11
196.098095
 21
204.66131999999999
 31
0.0
  0
LINE
  5
F7B
  8
0
 10
201.79809499999999
 20
196.96132
 30
0.0
 11
201.79809499999999
 21
194.36132000000001
 31
0.0
  0
LINE
  5
F7C
  8
0
 10
193.99809500000001
 20
196.96132
 30
0.0
 11
193.99809500000001
 21
194.36132000000001
 31
0.0
  0
LINE
  5
F7D
  8
0
 10
242.37319299999999
 20
165.890556
 30
0.0
 11
242.37319299999999
 21
165.836668
 31
0.0
  0
LINE
  5
F7E
  8
0
 10
242.81641999999999
 20
165.339902
 30
0.0
 11
245.87319299999999
 21
164.990556
 31
0.0
  0
ARC
  5
F7F
  8
0
 10
242.87319299999999
 20
165.890556
 30
0.0
 40
0.5
 50
90.0
 51
180.0
  0
ARC
  5
F80
  8
0
 10
242.87319299999999
 20
165.836668
 30
0.0
 40
0.5
 50
180.0
 51
263.48019799999997
  0
LINE
  5
F81
  8
0
 10
205.198095
 20
196.96132
 30
0.0
 11
190.598095
 21
196.96132
 31
0.0
  0
ARC
  5
F82
  8
0
 10
202.89809500000001
 20
194.36132000000001
 30
0.0
 40
1.1000000000000001
 50
180.0
 51
270.0
  0
ARC
  5
F83
  8
0
 10
192.89809500000001
 20
194.36132000000001
 30
0.0
 40
1.1000000000000001
 50
270.0
 51
0.0
  0
LINE
  5
F84
  8
0
 10
192.89809500000001
 20
193.26132000000001
 30
0.0
 11
202.89809500000001
 21
193.26132000000001
 31
0.0
  0
LINE
  5
F85
  8
1
 10
197.89809500000001
 20
209.66131999999999
 30
0.0
 11
197.89809500000001
 21
189.2613199999999
 31
0.0
  0
ARC
  5
F86
  8
3
 10
199.49809500000001
 20
205.46132
 30
0.0
 40
0.2
 50
0.0
 51
90.0
  0
ARC
  5
F87
  8
0
 10
196.29809499999999
 20
205.46132
 30
0.0
 40
0.2
 50
90.0
 51
180.0
  0
ARC
  5
F88
  8
0
 10
205.198095
 20
200.26132000000001
 30
0.0
 40
0.2
 50
0.0
 51
90.0
  0
ARC
  5
F89
  8
0
 10
205.198095
 20
197.16131999999999
 30
0.0
 40
0.2
 50
270.0
 51
0.0
  0
ARC
  5
F8A
  8
0
 10
190.598095
 20
200.26132000000001
 30
0.0
 40
0.2
 50
90.0
 51
180.0
  0
ARC
  5
F8B
  8
0
 10
190.598095
 20
197.16131999999999
 30
0.0
 40
0.2
 50
180.0
 51
270.0
  0
ARC
  5
F8C
  8
0
 10
190.49809500000001
 20
165.09055599999999
 30
0.0
 40
0.1
 50
180.0
 51
270.0
  0
ARC
  5
F8D
  8
0
 10
190.49809500000001
 20
166.29055600000001
 30
0.0
 40
0.1
 50
90.0
 51
180.0
  0
ARC
  5
F8E
  8
0
 10
205.29809499999999
 20
165.09055599999999
 30
0.0
 40
0.1
 50
270.0
 51
0.0
  0
ARC
  5
F8F
  8
0
 10
205.29809499999999
 20
166.29055600000001
 30
0.0
 40
0.1
 50
0.0
 51
90.0
  0
ARC
  5
F90
  8
0
 10
196.29809499999999
 20
167.79055600000001
 30
0.0
 40
0.2
 50
90.0
 51
180.0
  0
ARC
  5
F91
  8
0
 10
199.49809500000001
 20
167.79055600000001
 30
0.0
 40
0.2
 50
0.0
 51
90.0
  0
LINE
  5
F92
  8
0
 10
205.29809499999999
 20
166.390556
 30
0.0
 11
190.49809500000001
 21
166.390556
 31
0.0
  0
LINE
  5
F93
  8
1
 10
197.89809500000001
 20
172.990556
 30
0.0
 11
197.89809500000001
 21
114.990556
 31
0.0
  0
ARC
  5
F94
  8
0
 10
191.14644799999999
 20
164.256462
 30
0.0
 40
2.8640180000000002
 50
307.70563499999997
 51
354.67277799999999
  0
ARC
  5
F95
  8
0
 10
204.649742
 20
164.256462
 30
0.0
 40
2.8640180000000002
 50
185.32722200000001
 51
232.294365
  0
LINE
  5
F96
  8
0
 10
190.49809500000001
 20
164.990556
 30
0.0
 11
205.29809499999999
 21
164.990556
 31
0.0
  0
LINE
  5
F97
  8
0
 10
193.99809500000001
 20
164.990556
 30
0.0
 11
193.99809500000001
 21
163.990556
 31
0.0
  0
LINE
  5
F98
  8
0
 10
201.79809499999999
 20
164.990556
 30
0.0
 11
201.79809499999999
 21
163.990556
 31
0.0
  0
LINE
  5
F99
  8
0
 10
190.39809500000001
 20
166.29055600000001
 30
0.0
 11
190.39809500000001
 21
165.09055599999999
 31
0.0
  0
LINE
  5
F9A
  8
0
 10
205.39809500000001
 20
166.29055600000001
 30
0.0
 11
205.39809500000001
 21
165.09055599999999
 31
0.0
  0
LINE
  5
F9B
  8
3
 10
196.098095
 20
166.990556
 30
0.0
 11
199.698095
 21
166.990556
 31
0.0
  0
LINE
  5
F9C
  8
0
 10
196.098095
 20
167.79055600000001
 30
0.0
 11
196.098095
 21
166.390556
 31
0.0
  0
LINE
  5
F9D
  8
0
 10
199.698095
 20
167.79055600000001
 30
0.0
 11
199.698095
 21
166.390556
 31
0.0
  0
LINE
  5
F9E
  8
0
 10
196.29809499999999
 20
167.990556
 30
0.0
 11
199.49809500000001
 21
167.990556
 31
0.0
  0
ARC
  5
F9F
  8
0
 10
202.29809499999999
 20
123.490556
 30
0.0
 40
0.5
 50
90.0
 51
180.0
  0
ARC
  5
FA0
  8
0
 10
193.49809500000001
 20
123.490556
 30
0.0
 40
0.5
 50
0.0
 51
90.0
  0
LINE
  5
FA1
  8
0
 10
201.29809499999999
 20
119.990556
 30
0.0
 11
201.79809499999999
 21
120.490556
 31
0.0
  0
LINE
  5
FA2
  8
0
 10
193.99809500000001
 20
120.490556
 30
0.0
 11
194.49809500000001
 21
119.990556
 31
0.0
  0
LINE
  5
FA3
  8
0
 10
202.29809499999999
 20
123.990556
 30
0.0
 11
202.89809500000001
 21
123.990556
 31
0.0
  0
LINE
  5
FA4
  8
0
 10
193.99809500000001
 20
123.490556
 30
0.0
 11
193.99809500000001
 21
120.490556
 31
0.0
  0
LINE
  5
FA5
  8
0
 10
201.79809499999999
 20
123.490556
 30
0.0
 11
201.79809499999999
 21
120.490556
 31
0.0
  0
LINE
  5
FA6
  8
0
 10
192.89809500000001
 20
123.990556
 30
0.0
 11
193.49809500000001
 21
123.990556
 31
0.0
  0
LINE
  5
FA7
  8
0
 10
193.99809500000001
 20
163.990556
 30
0.0
 11
201.79809499999999
 21
163.990556
 31
0.0
  0
LINE
  5
FA8
  8
0
 10
194.49809500000001
 20
119.990556
 30
0.0
 11
201.29809499999999
 21
119.990556
 31
0.0
  0
LINE
  5
FA9
  8
0
 10
192.89809500000001
 20
161.990556
 30
0.0
 11
192.89809500000001
 21
123.990556
 31
0.0
  0
LINE
  5
FAA
  8
0
 10
202.89809500000001
 20
161.990556
 30
0.0
 11
202.89809500000001
 21
123.990556
 31
0.0
  0
LINE
  5
FAB
  8
1
 10
71.898094999999984
 20
91.990555999999984
 30
0.0
 11
71.898095000000012
 21
157.990556
 31
0.0
  0
LINE
  5
FAC
  8
1
 10
71.898094999999984
 20
203.24378400000001
 30
0.0
 11
71.898094999999984
 21
181.24378400000001
 31
0.0
  0
LINE
  5
FAD
  8
0
 10
68.898094999999998
 20
97.990556000000026
 30
0.0
 11
74.898094999999984
 21
97.990556000000026
 31
0.0
  0
LINE
  5
FAE
  8
0
 10
69.898094999999984
 20
96.990556000000012
 30
0.0
 11
68.898094999999998
 21
97.990556000000026
 31
0.0
  0
LINE
  5
FAF
  8
0
 10
74.898094999999984
 20
97.990556000000026
 30
0.0
 11
73.898094999999998
 21
96.990556000000012
 31
0.0
  0
LINE
  5
FB0
  8
0
 10
74.898095000000012
 20
115.990556
 30
0.0
 11
74.898094999999984
 21
97.990556000000026
 31
0.0
  0
LINE
  5
FB1
  8
3
 10
74.356594999999984
 20
115.9905559999999
 30
0.0
 11
74.356594999999984
 21
97.449055999999999
 31
0.0
  0
LINE
  5
FB2
  8
3
 10
69.439594999999983
 20
115.9905559999999
 30
0.0
 11
69.439594999999997
 21
97.449055999999999
 31
0.0
  0
LINE
  5
FB3
  8
0
 10
68.898094999999998
 20
115.990556
 30
0.0
 11
68.898094999999998
 21
97.990556000000026
 31
0.0
  0
LINE
  5
FB4
  8
0
 10
73.898094999999998
 20
96.990556000000012
 30
0.0
 11
69.898094999999984
 21
96.990556000000012
 31
0.0
  0
LINE
  5
FB5
  8
0
 10
66.898094999999984
 20
146.990556
 30
0.0
 11
76.898094999999984
 21
146.990556
 31
0.0
  0
LINE
  5
FB6
  8
0
 10
76.898094999999984
 20
152.390556
 30
0.0
 11
76.898094999999984
 21
146.990556
 31
0.0
  0
LINE
  5
FB7
  8
0
 10
66.898094999999984
 20
146.990556
 30
0.0
 11
66.898094999999984
 21
152.390556
 31
0.0
  0
ARC
  5
FB8
  8
0
 10
67.498093999999995
 20
152.390556
 30
0.0
 40
0.6
 50
89.999956999999995
 51
180.00004300000001
  0
LINE
  5
FB9
  8
0
 10
67.498094999999992
 20
152.990556
 30
0.0
 11
76.298094999999989
 21
152.990556
 31
0.0
  0
ARC
  5
FBA
  8
0
 10
76.298094999999989
 20
152.390556
 30
0.0
 40
0.6
 50
359.99995699999999
 51
90.000043000000005
  0
ARC
  5
FBB
  8
0
 10
124.494523
 20
152.390556
 30
0.0
 40
0.6
 50
359.99995699999999
 51
90.000043000000005
  0
LINE
  5
FBC
  8
0
 10
115.694523
 20
152.990556
 30
0.0
 11
124.494523
 21
152.990556
 31
0.0
  0
ARC
  5
FBD
  8
0
 10
115.69452200000001
 20
152.390556
 30
0.0
 40
0.6
 50
89.999956999999995
 51
180.00004300000001
  0
LINE
  5
FBE
  8
0
 10
115.094523
 20
146.990556
 30
0.0
 11
115.094523
 21
152.390556
 31
0.0
  0
LINE
  5
FBF
  8
0
 10
125.094523
 20
152.390556
 30
0.0
 11
125.094523
 21
146.990556
 31
0.0
  0
LINE
  5
FC0
  8
0
 10
122.094523
 20
96.990556000000012
 30
0.0
 11
118.094523
 21
96.990556000000012
 31
0.0
  0
LINE
  5
FC1
  8
0
 10
117.094523
 20
115.990556
 30
0.0
 11
117.094523
 21
97.990556000000026
 31
0.0
  0
LINE
  5
FC2
  8
3
 10
117.63602299999999
 20
115.9905559999999
 30
0.0
 11
117.63602299999999
 21
97.449055999999999
 31
0.0
  0
LINE
  5
FC3
  8
3
 10
122.5530229999999
 20
115.9905559999999
 30
0.0
 11
122.553023
 21
97.449055999999999
 31
0.0
  0
LINE
  5
FC4
  8
0
 10
123.094523
 20
115.990556
 30
0.0
 11
123.094523
 21
97.990556000000026
 31
0.0
  0
LINE
  5
FC5
  8
0
 10
123.094523
 20
97.990556000000026
 30
0.0
 11
122.094523
 21
96.990556000000012
 31
0.0
  0
LINE
  5
FC6
  8
0
 10
118.094523
 20
96.990556000000012
 30
0.0
 11
117.094523
 21
97.990556000000026
 31
0.0
  0
LINE
  5
FC7
  8
0
 10
117.094523
 20
97.990556000000026
 30
0.0
 11
123.094523
 21
97.990556000000026
 31
0.0
  0
LINE
  5
FC8
  8
1
 10
120.094523
 20
91.990555999999984
 30
0.0
 11
120.094523
 21
157.990556
 31
0.0
  0
CIRCLE
  5
FC9
  8
0
 10
71.898094999999969
 20
192.24378399999989
 30
0.0
 40
6.0
  0
CIRCLE
  5
FCA
  8
0
 10
71.898094999999969
 20
192.24378399999989
 30
0.0
 40
5.0999999999999988
  0
CIRCLE
  5
FCB
  8
0
 10
71.898094999999969
 20
192.24378399999989
 30
0.0
 40
4.3071799999999998
  0
LINE
  5
FCC
  8
0
 10
74.898094999999969
 20
190.800409
 30
0.0
 11
74.898094999999969
 21
193.68716000000001
 31
0.0
  0
LINE
  5
FCD
  8
0
 10
68.898094999999969
 20
193.68716000000001
 30
0.0
 11
68.898094999999969
 21
190.800409
 31
0.0
  0
CIRCLE
  5
FCE
  8
0
 10
71.898094999999969
 20
192.24378399999989
 30
0.0
 40
5.0
  0
LINE
  5
FCF
  8
0
 10
68.898094999999969
 20
193.68716000000001
 30
0.0
 11
71.898094999999969
 21
195.57294899999999
 31
0.0
  0
LINE
  5
FD0
  8
0
 10
71.898094999999969
 20
195.57294899999999
 30
0.0
 11
74.898094999999969
 21
193.68716000000001
 31
0.0
  0
LINE
  5
FD1
  8
0
 10
74.898094999999969
 20
190.800409
 30
0.0
 11
71.898094999999969
 21
188.91462000000001
 31
0.0
  0
LINE
  5
FD2
  8
0
 10
71.898094999999969
 20
188.91462000000001
 30
0.0
 11
68.898094999999969
 21
190.800409
 31
0.0
  0
LINE
  5
FD3
  8
0
 10
67.898094999999984
 20
115.990556
 30
0.0
 11
75.89809389219144
 21
115.990556
 31
0.0
  0
LINE
  5
FD4
  8
0
 10
66.798095000000075
 20
141.99055599999991
 30
0.0
 11
69.552887000000027
 21
141.990556
 31
0.0
  0
LINE
  5
FD5
  8
0
 10
65.898205000000047
 20
138.99176700000001
 30
0.0
 11
65.898205000000047
 21
117.990556
 31
0.0
  0
LINE
  5
FD6
  8
0
 10
65.898205000000047
 20
138.99176700000001
 30
0.0
 11
68.735530000000011
 21
138.99176700000001
 31
0.0
  0
LINE
  5
FD7
  8
0
 10
75.06066000000007
 20
138.99176700000001
 30
0.0
 11
77.897985000000034
 21
138.99176700000001
 31
0.0
  0
LINE
  5
FD8
  8
0
 10
65.898205000000047
 20
117.990556
 30
0.0
 11
77.897985000000034
 21
117.990556
 31
0.0
  0
LINE
  5
FD9
  8
0
 10
74.243303000000054
 20
141.990556
 30
0.0
 11
76.998095000000006
 21
141.99055599999991
 31
0.0
  0
LINE
  5
FDA
  8
0
 10
77.897985000000034
 20
117.990556
 30
0.0
 11
77.897985000000034
 21
138.99176700000001
 31
0.0
  0
ARC
  5
FDB
  8
0
 10
78.383628000000016
 20
115.50502299999989
 30
0.0
 40
2.5325129999999998
 50
101.05318399999911
 51
168.9468160000001
  0
ARC
  5
FDC
  8
0
 10
65.412561000000068
 20
115.50502299999989
 30
0.0
 40
2.5325129999999998
 50
11.05318399999984
 51
78.946816000000879
  0
LINE
  5
FDD
  8
0
 10
76.998095000000006
 20
141.99055599999991
 30
0.0
 11
77.897985000000034
 21
138.99176700000001
 31
0.0
  0
LINE
  5
FDE
  8
0
 10
66.798095000000075
 20
141.99055599999991
 30
0.0
 11
65.898205000000047
 21
138.99176700000001
 31
0.0
  0
LINE
  5
FDF
  8
3
 10
76.951095000000095
 20
141.99055599999991
 30
0.0
 11
76.951095000000095
 21
117.9905559999999
 31
0.0
  0
LINE
  5
FE0
  8
3
 10
66.845094999999986
 20
141.99055599999991
 30
0.0
 11
66.8450950000001
 21
117.9905559999999
 31
0.0
  0
LINE
  5
FE1
  8
1
 10
62.496215999999968
 20
139.740556
 30
0.0
 11
81.299973999999978
 21
139.740556
 31
0.0
  0
CIRCLE
  5
FE2
  8
0
 10
71.898094999999984
 20
139.740556
 30
0.0
 40
3.25
  0
ARC
  5
FE3
  8
0
 10
113.60899000000001
 20
115.50502299999999
 30
0.0
 40
2.5325129999999998
 50
11.05318399999984
 51
78.946816000000879
  0
LINE
  5
FE4
  8
3
 10
115.041523
 20
117.990556
 30
0.0
 11
115.041523
 21
140.67341500000001
 31
0.0
  0
LINE
  5
FE5
  8
0
 10
114.094523
 20
117.990556
 30
0.0
 11
114.094523
 21
136.79055600000001
 31
0.0
  0
LINE
  5
FE6
  8
2
 10
114.994523
 20
142.990556
 30
0.0
 11
125.194523
 21
142.990556
 31
0.0
  0
ARC
  5
FE7
  8
0
 10
102.867976
 20
141.58553900000001
 30
0.0
 40
12.207670999999999
 50
336.8721350000003
 51
6.6089889999997649
  0
ARC
  5
FE8
  8
0
 10
126.580057
 20
115.50502299999999
 30
0.0
 40
2.5325129999999998
 50
101.05318399999911
 51
168.9468160000001
  0
LINE
  5
FE9
  8
3
 10
125.14752300000001
 20
117.990556
 30
0.0
 11
125.14752300000001
 21
140.67341500000001
 31
0.0
  0
LINE
  5
FEA
  8
0
 10
115.068926
 20
141.990556
 30
0.0
 11
125.12012
 21
141.990556
 31
0.0
  0
LINE
  5
FEB
  8
0
 10
126.094523
 20
117.990556
 30
0.0
 11
114.094523
 21
117.990556
 31
0.0
  0
LINE
  5
FEC
  8
0
 10
124.094523
 20
115.990556
 30
0.0
 11
116.094523
 21
115.990556
 31
0.0
  0
LINE
  5
FED
  8
0
 10
126.094523
 20
136.79055600000001
 30
0.0
 11
126.094523
 21
117.990556
 31
0.0
  0
LINE
  5
FEE
  8
2
 10
114.094523
 20
136.48984400000001
 30
0.0
 11
126.094523
 21
136.48984400000001
 31
0.0
  0
ARC
  5
FEF
  8
0
 10
137.32107000000011
 20
141.58553900000001
 30
0.0
 40
12.207670999999999
 50
173.39101100000019
 51
203.1278649999997
  0
LINE
  5
FF0
  8
1
 10
110.692644
 20
139.740556
 30
0.0
 11
129.49640199999999
 21
139.740556
 31
0.0
  0
LINE
  5
FF1
  8
1
 10
129.49640199999999
 20
49.723345999999992
 30
0.0
 11
110.692644
 21
49.723345999999992
 31
0.0
  0
ARC
  5
FF2
  8
0
 10
102.8679759999999
 20
47.878362999999972
 30
0.0
 40
12.207670999999999
 50
353.39101100000022
 51
23.127864999999741
  0
LINE
  5
FF3
  8
2
 10
126.094523
 20
52.974057999999992
 30
0.0
 11
114.094523
 21
52.974057999999992
 31
0.0
  0
LINE
  5
FF4
  8
0
 10
114.094523
 20
52.673345999999981
 30
0.0
 11
114.094523
 21
69.473345999999992
 31
0.0
  0
LINE
  5
FF5
  8
0
 10
125.12012
 20
47.473345999999992
 30
0.0
 11
115.068926
 21
47.473345999999992
 31
0.0
  0
LINE
  5
FF6
  8
3
 10
115.041523
 20
69.473345999999992
 30
0.0
 11
115.041523
 21
48.79048700000002
 31
0.0
  0
ARC
  5
FF7
  8
0
 10
137.32106999999999
 20
47.878362999999972
 30
0.0
 40
12.207670999999999
 50
156.8721350000003
 51
186.6089889999997
  0
LINE
  5
FF8
  8
2
 10
125.194523
 20
46.473345999999992
 30
0.0
 11
114.994523
 21
46.473345999999992
 31
0.0
  0
LINE
  5
FF9
  8
0
 10
126.094523
 20
69.473345999999992
 30
0.0
 11
126.094523
 21
52.673345999999981
 31
0.0
  0
LINE
  5
FFA
  8
3
 10
125.14752300000001
 20
69.473345999999992
 30
0.0
 11
125.14752300000001
 21
48.79048700000002
 31
0.0
  0
CIRCLE
  5
FFB
  8
0
 10
71.898095000000012
 20
49.723345999999992
 30
0.0
 40
3.25
  0
LINE
  5
FFC
  8
1
 10
81.29997400000002
 20
49.723345999999992
 30
0.0
 11
62.496216000000011
 21
49.723345999999992
 31
0.0
  0
LINE
  5
FFD
  8
3
 10
76.951094999999995
 20
47.473346000000021
 30
0.0
 11
76.95109499999991
 21
69.473345999999992
 31
0.0
  0
LINE
  5
FFE
  8
3
 10
66.845094999999887
 20
47.473346000000021
 30
0.0
 11
66.845094999999901
 21
69.473345999999992
 31
0.0
  0
LINE
  5
FFF
  8
0
 10
76.998094999999921
 20
47.473346000000021
 30
0.0
 11
77.897984999999949
 21
50.47213499999998
 31
0.0
  0
LINE
  5
1000
  8
0
 10
66.798094999999975
 20
47.473346000000021
 30
0.0
 11
65.898204999999933
 21
50.47213499999998
 31
0.0
  0
LINE
  5
1001
  8
0
 10
65.898204999999962
 20
69.473345999999992
 30
0.0
 11
65.898204999999933
 21
50.47213499999998
 31
0.0
  0
LINE
  5
1002
  8
0
 10
69.552886999999942
 20
47.473345999999992
 30
0.0
 11
66.798094999999975
 21
47.473346000000021
 31
0.0
  0
LINE
  5
1003
  8
0
 10
68.735529999999926
 20
50.47213499999998
 30
0.0
 11
65.898204999999933
 21
50.47213499999998
 31
0.0
  0
LINE
  5
1004
  8
0
 10
77.897984999999949
 20
50.47213499999998
 30
0.0
 11
75.060659999999984
 21
50.47213499999998
 31
0.0
  0
LINE
  5
1005
  8
0
 10
77.897984999999949
 20
50.47213499999998
 30
0.0
 11
77.897984999999949
 21
69.473345999999992
 31
0.0
  0
LINE
  5
1006
  8
0
 10
76.998094999999921
 20
47.473346000000021
 30
0.0
 11
74.243302999999969
 21
47.473345999999992
 31
0.0
  0
LINE
  5
1007
  8
0
 10
76.998095000000006
 20
73.473345999999992
 30
0.0
 11
66.798095000000004
 21
73.473345999999992
 31
0.0
  0
LINE
  5
1008
  8
1
 10
120.094523
 20
78.473345999999992
 30
0.0
 11
120.094523
 21
37.473345999999992
 31
0.0
  0
LINE
  5
1009
  8
0
 10
76.898094999999984
 20
42.473345999999992
 30
0.0
 11
66.898094999999984
 21
42.473345999999992
 31
0.0
  0
LINE
  5
100A
  8
1
 10
71.898094999999984
 20
78.473345999999992
 30
0.0
 11
71.898094999999984
 21
37.473345999999992
 31
0.0
  0
LINE
  5
100B
  8
0
 10
125.194523
 20
42.473345999999992
 30
0.0
 11
114.994523
 21
42.473345999999992
 31
0.0
  0
LINE
  5
100C
  8
0
 10
114.994523
 20
42.473345999999992
 30
0.0
 11
114.994523
 21
47.473345999999992
 31
0.0
  0
LINE
  5
100D
  8
0
 10
125.194523
 20
42.473345999999992
 30
0.0
 11
125.194523
 21
47.473345999999992
 31
0.0
  0
LINE
  5
100E
  8
0
 10
76.998095000000006
 20
42.473345999999992
 30
0.0
 11
76.998095000000006
 21
47.473345999999992
 31
0.0
  0
LINE
  5
100F
  8
0
 10
66.798095000000004
 20
42.473345999999992
 30
0.0
 11
66.798095000000004
 21
47.473345999999992
 31
0.0
  0
LINE
  5
1010
  8
0
 10
76.998095000000006
 20
42.473345999999992
 30
0.0
 11
66.798095000000004
 21
42.473345999999992
 31
0.0
  0
LINE
  5
1011
  8
0
 10
77.897984999999949
 20
69.473345999999992
 30
0.0
 11
65.898204999999976
 21
69.473345999999992
 31
0.0
  0
LINE
  5
1012
  8
0
 10
66.798095000000004
 20
69.473345999999992
 30
0.0
 11
66.798095000000004
 21
73.473345999999992
 31
0.0
  0
LINE
  5
1013
  8
0
 10
76.998095000000006
 20
69.473345999999992
 30
0.0
 11
76.998095000000021
 21
73.473345999999992
 31
0.0
  0
LINE
  5
1014
  8
0
 10
125.194523
 20
69.473345999999992
 30
0.0
 11
125.194523
 21
73.473345999999992
 31
0.0
  0
LINE
  5
1015
  8
0
 10
114.994523
 20
69.473345999999992
 30
0.0
 11
114.994523
 21
73.473345999999992
 31
0.0
  0
LINE
  5
1016
  8
0
 10
126.094523
 20
69.473345999999992
 30
0.0
 11
114.094523
 21
69.473345999999992
 31
0.0
  0
LINE
  5
1017
  8
0
 10
125.194523
 20
73.473345999999964
 30
0.0
 11
114.994523
 21
73.473345999999992
 31
0.0
  0
LINE
  5
1018
  8
0
 10
114.7969146810502
 20
138.99176700000001
 30
0.0
 11
125.39213131894979
 21
138.99176700000001
 31
0.0
  0
LINE
  5
1019
  8
0
 10
114.7969146810502
 20
50.472135000000009
 30
0.0
 11
125.39213131894979
 21
50.47213499999998
 31
0.0
  0
TEXT
  5
1113
  8
0
 62
     3
 10
0.0
 20
0.0
 30
0.0
 40
5.0
  1
ABT12
  7
STANDARD1
  0
ENDSEC
  0
EOF
