  0
SECTION
  2
HEADER
  9
$ACADVER
  1
AC1009
  9
$INSBASE
 10
0.0
 20
0.0
 30
0.0
  9
$EXTMIN
 10
-0.0204638472032742
 20
-2.960436562073669
 30
0.0
  9
$EXTMAX
 10
132.0
 20
111.0
 30
0.0
  9
$LIMMIN
 10
0.0
 20
0.0
  9
$LIMMAX
 10
187.5
 20
135.0
  9
$ORTHOMODE
 70
     1
  9
$REGENMODE
 70
     1
  9
$FILLMODE
 70
     1
  9
$QTEXTMODE
 70
     0
  9
$MIRRTEXT
 70
     0
  9
$DRAGMODE
 70
     2
  9
$LTSCALE
 40
5.0
  9
$OSMODE
 70
    37
  9
$ATTMODE
 70
     1
  9
$TEXTSIZE
 40
4.0000000000000471
  9
$TRACEWID
 40
0.05
  9
$TEXTSTYLE
  7
STANDARD
  9
$CLAYER
  8
0
  9
$CELTYPE
  6
BYLAYER
  9
$CECOLOR
 62
   256
  9
$DIMSCALE
 40
0.5
  9
$DIMASZ
 40
3.0
  9
$DIMEXO
 40
2.0
  9
$DIMDLI
 40
0.38
  9
$DIMRND
 40
0.0
  9
$DIMDLE
 40
0.0
  9
$DIMEXE
 40
2.0
  9
$DIMTP
 40
0.0
  9
$DIMTM
 40
0.0
  9
$DIMTXT
 40
3.2000000000000002
  9
$DIMCEN
 40
0.0
  9
$DIMTSZ
 40
0.0
  9
$DIMTOL
 70
     0
  9
$DIMLIM
 70
     0
  9
$DIMTIH
 70
     0
  9
$DIMTOH
 70
     0
  9
$DIMSE1
 70
     0
  9
$DIMSE2
 70
     0
  9
$DIMTAD
 70
     1
  9
$DIMZIN
 70
     0
  9
$DIMBLK
  1

  9
$DIMASO
 70
     1
  9
$DIMSHO
 70
     0
  9
$DIMPOST
  1

  9
$DIMAPOST
  1

  9
$DIMALT
 70
     0
  9
$DIMALTD
 70
     2
  9
$DIMALTF
 40
25.399999999999999
  9
$DIMLFAC
 40
1.0
  9
$DIMTOFL
 70
     0
  9
$DIMTVP
 40
1.6000000000000001
  9
$DIMTIX
 70
     0
  9
$DIMSOXD
 70
     0
  9
$DIMSAH
 70
     0
  9
$DIMBLK1
  1

  9
$DIMBLK2
  1

  9
$DIMSTYLE
  2
STANDARD
  9
$DIMCLRD
 70
     4
  9
$DIMCLRE
 70
     4
  9
$DIMCLRT
 70
     4
  9
$DIMTFAC
 40
1.0
  9
$DIMGAP
 40
0.5
  9
$LUNITS
 70
     2
  9
$LUPREC
 70
     1
  9
$SKETCHINC
 40
0.1
  9
$FILLETRAD
 40
0.0
  9
$AUNITS
 70
     0
  9
$AUPREC
 70
     1
  9
$MENU
  1
E:\r13\win\SUPPORT\ACAD
  9
$ELEVATION
 40
0.0
  9
$PELEVATION
 40
0.0
  9
$THICKNESS
 40
0.0
  9
$LIMCHECK
 70
     0
  9
$BLIPMODE
 70
     0
  9
$CHAMFERA
 40
1.1999999999999991
  9
$CHAMFERB
 40
1.1999999999999991
  9
$SKPOLY
 70
     0
  9
$TDCREATE
 40
2449954.699675926
  9
$TDUPDATE
 40
2457534.479019884
  9
$TDINDWG
 40
0.0831554051
  9
$TDUSRTIMER
 40
2456598.3202776392
  9
$USRTIMER
 70
     1
  9
$ANGBASE
 50
0.0
  9
$ANGDIR
 70
     0
  9
$PDMODE
 70
     0
  9
$PDSIZE
 40
0.0
  9
$PLINEWID
 40
0.0
  9
$COORDS
 70
     1
  9
$SPLFRAME
 70
     0
  9
$SPLINETYPE
 70
     6
  9
$SPLINESEGS
 70
     8
  9
$ATTDIA
 70
     0
  9
$ATTREQ
 70
     1
  9
$HANDLING
 70
     1
  9
$HANDSEED
  5
B83
  9
$SURFTAB1
 70
     6
  9
$SURFTAB2
 70
     6
  9
$SURFTYPE
 70
     6
  9
$SURFU
 70
     6
  9
$SURFV
 70
     6
  9
$UCSNAME
  2

  9
$UCSORG
 10
0.0
 20
0.0
 30
0.0
  9
$UCSXDIR
 10
1.0
 20
0.0
 30
0.0
  9
$UCSYDIR
 10
0.0
 20
1.0
 30
0.0
  9
$PUCSNAME
  2

  9
$PUCSORG
 10
0.0
 20
0.0
 30
0.0
  9
$PUCSXDIR
 10
1.0
 20
0.0
 30
0.0
  9
$PUCSYDIR
 10
0.0
 20
1.0
 30
0.0
  9
$USERI1
 70
     0
  9
$USERI2
 70
     1
  9
$USERI3
 70
     1
  9
$USERI4
 70
     0
  9
$USERI5
 70
     0
  9
$USERR1
 40
0.0
  9
$USERR2
 40
0.0
  9
$USERR3
 40
0.0
  9
$USERR4
 40
0.0
  9
$USERR5
 40
0.0
  9
$WORLDVIEW
 70
     1
  9
$SHADEDGE
 70
     3
  9
$SHADEDIF
 70
    70
  9
$TILEMODE
 70
     1
  9
$MAXACTVP
 70
    16
  9
$PLIMCHECK
 70
     0
  9
$PEXTMIN
 10
1.0000000000000000E+020
 20
1.0000000000000000E+020
 30
1.0000000000000000E+020
  9
$PEXTMAX
 10
-1.0000000000000000E+020
 20
-1.0000000000000000E+020
 30
-1.0000000000000000E+020
  9
$PLIMMIN
 10
0.0
 20
0.0
  9
$PLIMMAX
 10
12.0
 20
9.0
  9
$UNITMODE
 70
     0
  9
$VISRETAIN
 70
     0
  9
$PLINEGEN
 70
     0
  9
$PSLTSCALE
 70
     0
  0
ENDSEC
  0
SECTION
  2
TABLES
  0
TABLE
  2
VPORT
 70
     1
  0
VPORT
  2
*ACTIVE
 70
     0
 10
0.0
 20
0.0
 11
1.0
 21
1.0
 12
172.54273504273499
 22
95.000000000000014
 13
0.0
 23
0.0
 14
5.0
 24
5.0
 15
5.0
 25
5.0
 16
0.0
 26
0.0
 36
1.0
 17
0.0
 27
0.0
 37
0.0
 40
190.0
 41
1.816239316239316
 42
50.0
 43
0.0
 44
0.0
 50
0.0
 51
0.0
 71
     0
 72
   500
 73
     1
 74
     0
 75
     0
 76
     0
 77
     0
 78
     2
  0
ENDTAB
  0
TABLE
  2
LTYPE
 70
     4
  0
LTYPE
  2
CONTINUOUS
 70
     0
  3
Solid Line
 72
    65
 73
     0
 40
0.0
  0
LTYPE
  2
CENTER
 70
     0
  3
____ _ ____ _ ____ _ ____ _ ____ _ ____ _ ____
 72
    65
 73
     4
 40
2.0
 49
1.25
 49
-0.25
 49
0.25
 49
-0.25
  0
LTYPE
  2
HIDDEN
 70
     0
  3
_ _ _ _ _ _ _ _ _ _ _ _ _ _ _ _ _ _ _ _ _ _ _
 72
    65
 73
     2
 40
0.375
 49
0.25
 49
-0.125
  0
LTYPE
  2
PHANTOM2
 70
     0
  3
___ _ _ ___ _ _ ___ _ _ ___ _ _
 72
    65
 73
     6
 40
1.25
 49
0.625
 49
-0.125
 49
0.125
 49
-0.125
 49
0.125
 49
-0.125
  0
ENDTAB
  0
TABLE
  2
LAYER
 70
     4
  0
LAYER
  2
0
 70
     0
 62
     7
  6
CONTINUOUS
  0
LAYER
  2
1
 70
     0
 62
     1
  6
CENTER
  0
LAYER
  2
2
 70
     0
 62
     2
  6
HIDDEN
  0
LAYER
  2
DEFPOINTS
 70
     0
 62
     7
  6
CONTINUOUS
  0
ENDTAB
  0
TABLE
  2
STYLE
 70
     2
  0
STYLE
  2
STANDARD
 70
     0
 40
0.0
 41
1.0
 50
0.0
 71
     0
 42
4.0000000000000471
  3
SIMPLEX
  4
BIGFONT
  0
STYLE
  2
STANDARD1
 70
     0
 40
0.0
 41
1.0
 50
0.0
 71
     0
 42
3.0
  3
txt
  4

  0
ENDTAB
  0
TABLE
  2
VIEW
 70
     1
  0
VIEW
  2
ALL
 70
     0
 40
175.0
 10
143.10200668896309
 20
87.5
 41
286.20401337792629
 11
0.0
 21
0.0
 31
1.0
 12
0.0
 22
0.0
 32
0.0
 42
50.0
 43
0.0
 44
0.0
 50
0.0
 71
     0
  0
ENDTAB
  0
TABLE
  2
UCS
 70
     0
  0
ENDTAB
  0
TABLE
  2
APPID
 70
     7
  0
APPID
  2
ACAD
 70
     0
  0
APPID
  2
ACAD_EXEMPT_FROM_CAD_STANDARDS
 70
     0
  0
APPID
  2
ACAD_DSTYLE_DIMRADIAL_EXTENSION
 70
     0
  0
APPID
  2
ACAD_MLEADERVER
 70
     0
  0
APPID
  2
ACAD_NAV_VCDISPLAY
 70
     0
  0
APPID
  2
ACAD_DSTYLE_DIMJAG
 70
     0
  0
APPID
  2
ACAD_DSTYLE_DIMTALN
 70
     0
  0
ENDTAB
  0
TABLE
  2
DIMSTYLE
 70
     1
  0
DIMSTYLE
  2
STANDARD
 70
     0
  3

  4

  5

  6

  7

 40
1.0
 41
0.18
 42
0.0625
 43
0.38
 44
0.18
 45
0.0
 46
0.0
 47
0.0
 48
0.0
140
0.18
141
0.09
142
0.0
143
25.399999999999999
144
1.0
145
0.0
146
1.0
147
0.09
 71
     0
 72
     0
 73
     1
 74
     1
 75
     0
 76
     0
 77
     0
 78
     0
170
     0
171
     2
172
     0
173
     0
174
     0
175
     0
176
     0
177
     0
178
     0
  0
ENDTAB
  0
ENDSEC
  0
SECTION
  2
BLOCKS
  0
BLOCK
  8
0
  2
$MODEL_SPACE
 70
     0
 10
0.0
 20
0.0
 30
0.0
  3
$MODEL_SPACE
  1

  0
ENDBLK
  5
D5
  8
0
  0
BLOCK
 67
     1
  8
0
  2
$PAPER_SPACE
 70
     0
 10
0.0
 20
0.0
 30
0.0
  3
$PAPER_SPACE
  1

  0
ENDBLK
  5
D3
 67
     1
  8
0
  0
ENDSEC
  0
SECTION
  2
ENTITIES
  0
TEXT
  5
27E
  8
0
 62
     3
 10
0.0
 20
0.0
 30
0.0
 40
10.0
  1
AFG40-GR
  7
STANDARD1
  0
LINE
  5
80E
  8
2
 10
81.238890772884474
 20
44.0
 30
0.0
 11
80.750000000000014
 21
30.0
 31
0.0
  0
LINE
  5
80F
  8
2
 10
84.25
 20
30.0
 30
0.0
 11
83.761109227115526
 21
44.0
 31
0.0
  0
LINE
  5
810
  8
2
 10
83.761109227115526
 20
44.0
 30
0.0
 11
81.238890772884474
 21
44.0
 31
0.0
  0
LINE
  5
811
  8
2
 10
120.7388907728844
 20
44.0
 30
0.0
 11
120.25
 21
30.0
 31
0.0
  0
LINE
  5
812
  8
2
 10
123.75
 20
30.0
 30
0.0
 11
123.2611092271155
 21
44.0
 31
0.0
  0
LINE
  5
813
  8
2
 10
123.2611092271155
 20
44.0
 30
0.0
 11
120.7388907728844
 21
44.0
 31
0.0
  0
LINE
  5
814
  8
1
 10
82.500000000000028
 20
46.500000000000007
 30
0.0
 11
82.500000000000028
 21
27.5
 31
0.0
  0
LINE
  5
815
  8
1
 10
122.0
 20
46.500000000000007
 30
0.0
 11
121.9999999999999
 21
27.5
 31
0.0
  0
LINE
  5
818
  8
0
 10
127.0
 20
33.5
 30
0.0
 11
127.0
 21
38.75
 31
0.0
  0
LINE
  5
819
  8
0
 10
117.0
 20
38.75
 30
0.0
 11
117.0
 21
33.5
 31
0.0
  0
ARC
  5
81A
  8
0
 10
102.25
 20
38.75
 30
0.0
 40
24.75
 50
0.0
 51
180.0
  0
ARC
  5
81B
  8
0
 10
102.25
 20
38.75
 30
0.0
 40
14.75
 50
0.0
 51
180.0
  0
LINE
  5
81D
  8
0
 10
87.5
 20
33.5
 30
0.0
 11
87.5
 21
38.75
 31
0.0
  0
LINE
  5
81E
  8
0
 10
77.5
 20
38.75
 30
0.0
 11
77.5
 21
33.5
 31
0.0
  0
ARC
  5
821
  8
0
 10
127.5
 20
33.5
 30
0.0
 40
0.5
 50
180.0
 51
270.0
  0
ARC
  5
822
  8
0
 10
116.5
 20
33.5
 30
0.0
 40
0.5000000000000006
 50
270.0
 51
0.0
  0
ARC
  5
824
  8
0
 10
88.0
 20
33.5
 30
0.0
 40
0.4999999999999973
 50
180.0
 51
270.0
  0
ARC
  5
825
  8
0
 10
77.0
 20
33.5
 30
0.0
 40
0.4999999999999988
 50
270.0
 51
0.0
  0
LINE
  5
826
  8
0
 10
75.782842712474633
 20
33.0
 30
0.0
 11
89.217157287525353
 21
33.0
 31
0.0
  0
ARC
  5
827
  8
0
 10
89.217157287525353
 20
32.800000000000011
 30
0.0
 40
0.2000000000000059
 50
44.999999999999481
 51
90.0
  0
ARC
  5
828
  8
0
 10
75.782842712474633
 20
32.800000000000011
 30
0.0
 40
0.2000000000000055
 50
90.0
 51
135.00000000000051
  0
LINE
  5
829
  8
0
 10
115.2828427124746
 20
33.0
 30
0.0
 11
128.71715728752531
 21
33.0
 31
0.0
  0
ARC
  5
82A
  8
0
 10
128.71715728752531
 20
32.799999999999983
 30
0.0
 40
0.2000000000000203
 50
44.999999999999488
 51
90.0
  0
ARC
  5
82B
  8
0
 10
115.2828427124746
 20
32.799999999999983
 30
0.0
 40
0.2000000000000171
 50
90.0
 51
135.00000000000051
  0
LINE
  5
82D
  8
0
 10
115.1414213562373
 20
32.941421356237299
 30
0.0
 11
114.5585786437627
 21
32.358578643762712
 31
0.0
  0
LINE
  5
82E
  8
0
 10
129.4414213562373
 20
32.358578643762712
 30
0.0
 11
128.85857864376271
 21
32.941421356237299
 31
0.0
  0
LINE
  5
830
  8
0
 10
75.641421356237316
 20
32.941421356237299
 30
0.0
 11
75.058578643762701
 21
32.358578643762677
 31
0.0
  0
LINE
  5
831
  8
0
 10
89.941421356237299
 20
32.358578643762677
 30
0.0
 11
89.358578643762684
 21
32.941421356237299
 31
0.0
  0
ARC
  5
833
  8
0
 10
129.3000000000001
 20
32.217157287525417
 30
0.0
 40
0.1999999999998963
 50
0.0
 51
45.000000000013259
  0
ARC
  5
834
  8
0
 10
114.6999999999999
 20
32.217157287525417
 30
0.0
 40
0.1999999999998953
 50
134.9999999999867
 51
180.0
  0
ARC
  5
836
  8
0
 10
89.800000000000026
 20
32.217157287525403
 30
0.0
 40
0.199999999999978
 50
0.0
 51
45.000000000001798
  0
ARC
  5
837
  8
0
 10
75.199999999999989
 20
32.217157287525403
 30
0.0
 40
0.1999999999999776
 50
134.9999999999977
 51
180.0
  0
LINE
  5
838
  8
0
 10
75.0
 20
30.0
 30
0.0
 11
90.0
 21
30.0
 31
0.0
  0
LINE
  5
839
  8
0
 10
75.0
 20
32.217157287525367
 30
0.0
 11
90.0
 21
32.217157287525367
 31
0.0
  0
LINE
  5
83A
  8
0
 10
90.0
 20
30.0
 30
0.0
 11
90.0
 21
32.217157287525367
 31
0.0
  0
LINE
  5
83B
  8
0
 10
75.0
 20
32.217157287525367
 30
0.0
 11
75.0
 21
30.0
 31
0.0
  0
LINE
  5
83C
  8
0
 10
114.5
 20
32.217157287525367
 30
0.0
 11
129.5
 21
32.217157287525367
 31
0.0
  0
LINE
  5
83D
  8
0
 10
114.5
 20
30.0
 30
0.0
 11
129.5
 21
30.0
 31
0.0
  0
LINE
  5
83E
  8
0
 10
129.5
 20
30.0
 30
0.0
 11
129.5
 21
32.217157287525367
 31
0.0
  0
LINE
  5
83F
  8
0
 10
114.5
 20
32.217157287525367
 30
0.0
 11
114.5
 21
30.0
 31
0.0
  0
LINE
  5
840
  8
2
 10
38.761109227115533
 20
44.0
 30
0.0
 11
36.238890772884481
 21
44.0
 31
0.0
  0
LINE
  5
841
  8
2
 10
36.238890772884481
 20
44.0
 30
0.0
 11
35.75
 21
30.0
 31
0.0
  0
LINE
  5
842
  8
2
 10
39.25
 20
30.0
 30
0.0
 11
38.761109227115533
 21
44.0
 31
0.0
  0
ARC
  5
843
  8
2
 10
37.5
 20
58.5
 30
0.0
 40
4.9999999999999991
 50
180.0
 51
0.0
  0
LINE
  5
845
  8
1
 10
37.5
 20
66.0
 30
0.0
 11
37.5
 21
27.5
 31
0.0
  0
LINE
  5
846
  8
1
 10
30.0
 20
58.5
 30
0.0
 11
45.0
 21
58.5
 31
0.0
  0
LINE
  5
848
  8
0
 10
42.5
 20
33.5
 30
0.0
 11
42.5
 21
58.5
 31
0.0
  0
LINE
  5
849
  8
0
 10
32.5
 20
58.5
 30
0.0
 11
32.5
 21
33.5
 31
0.0
  0
ARC
  5
84A
  8
0
 10
37.5
 20
58.5
 30
0.0
 40
5.0
 50
0.0
 51
180.0
  0
ARC
  5
84D
  8
0
 10
43.0
 20
33.5
 30
0.0
 40
0.5000000000000063
 50
180.0
 51
270.0
  0
ARC
  5
84E
  8
0
 10
32.0
 20
33.5
 30
0.0
 40
0.5000000000000067
 50
270.0
 51
0.0
  0
LINE
  5
84F
  8
0
 10
30.78284271247464
 20
33.0
 30
0.0
 11
44.217157287453851
 21
33.0
 31
0.0
  0
ARC
  5
850
  8
0
 10
44.217157287525367
 20
32.799999999999962
 30
0.0
 40
0.2000000000000373
 50
45.000000000004043
 51
90.0
  0
ARC
  5
851
  8
0
 10
30.78284271247464
 20
32.799999999999962
 30
0.0
 40
0.200000000000041
 50
90.0
 51
134.99999999999591
  0
LINE
  5
853
  8
0
 10
30.641421356237291
 20
32.941421356237299
 30
0.0
 11
30.058578643762701
 21
32.358578643762712
 31
0.0
  0
LINE
  5
854
  8
0
 10
44.941421356237299
 20
32.358578643762712
 30
0.0
 11
44.358578643762712
 21
32.941421356237299
 31
0.0
  0
ARC
  5
856
  8
0
 10
44.800000000000061
 20
32.217157287525403
 30
0.0
 40
0.1999999999999629
 50
0.0
 51
45.00000000000631
  0
ARC
  5
857
  8
0
 10
30.199999999999928
 20
32.217157287525403
 30
0.0
 40
0.1999999999999512
 50
134.99999999999361
 51
180.0
  0
LINE
  5
858
  8
0
 10
30.0
 20
32.217157287525367
 30
0.0
 11
45.0
 21
32.217157287525367
 31
0.0
  0
LINE
  5
859
  8
0
 10
30.0
 20
30.0
 30
0.0
 11
45.0
 21
30.0
 31
0.0
  0
LINE
  5
85A
  8
0
 10
45.0
 20
30.0
 30
0.0
 11
45.0
 21
32.217157287525367
 31
0.0
  0
LINE
  5
85B
  8
0
 10
30.0
 20
32.217157287525367
 30
0.0
 11
30.0
 21
30.0
 31
0.0
  0
ARC
  5
85E
  8
2
 10
82.5
 20
101.0
 30
0.0
 40
7.4999999999999991
 50
318.18968510422081
 51
41.810314895779058
  0
ARC
  5
85F
  8
2
 10
122.0
 20
101.0
 30
0.0
 40
7.4999999999999991
 50
138.1896851042209
 51
221.8103148957791
  0
ARC
  5
86A
  8
2
 10
122.0
 20
101.0
 30
0.0
 40
4.9999999999999991
 50
90.0
 51
270.0
  0
ARC
  5
86B
  8
2
 10
82.5
 20
101.0
 30
0.0
 40
5.0
 50
270.0
 51
90.0
  0
LINE
  5
86D
  8
1
 10
72.5
 20
101.0
 30
0.0
 11
132.0
 21
101.0
 31
0.0
  0
LINE
  5
86E
  8
1
 10
82.5
 20
91.0
 30
0.0
 11
82.5
 21
111.0
 31
0.0
  0
LINE
  5
870
  8
1
 10
122.0
 20
91.0
 30
0.0
 11
122.0
 21
111.0
 31
0.0
  0
ARC
  5
871
  8
0
 10
82.5
 20
101.0
 30
0.0
 40
7.4999999999999991
 50
41.81031489577903
 51
318.18968510422093
  0
ARC
  5
872
  8
0
 10
122.0
 20
101.0
 30
0.0
 40
7.4999999999999929
 50
221.81031489577899
 51
138.18968510422101
  0
ARC
  5
877
  8
0
 10
82.5
 20
101.0
 30
0.0
 40
6.717157287525378
 50
48.104371804099522
 51
311.89562819590049
  0
ARC
  5
878
  8
0
 10
122.0
 20
101.0
 30
0.0
 40
6.7171572875253887
 50
228.10437180409949
 51
131.89562819590051
  0
ARC
  5
87B
  8
0
 10
82.5
 20
101.0
 30
0.0
 40
5.0
 50
90.0
 51
270.0
  0
ARC
  5
87C
  8
0
 10
122.0
 20
101.0
 30
0.0
 40
4.9999999999999991
 50
270.0
 51
90.0
  0
LINE
  5
87D
  8
0
 10
122.0
 20
106.0
 30
0.0
 11
82.5
 21
106.0
 31
0.0
  0
LINE
  5
87E
  8
0
 10
82.5
 20
96.0
 30
0.0
 11
122.0
 21
96.0
 31
0.0
  0
ENDSEC
  0
EOF
