  0
SECTION
  2
HEADER
  9
$ACADVER
  1
AC1009
  9
$INSBASE
 10
0.0
 20
0.0
 30
0.0
  9
$EXTMIN
 10
-0.0204638472032742
 20
-2.960436562073669
 30
0.0
  9
$EXTMAX
 10
187.2140416966194
 20
140.85165810731911
 30
0.0
  9
$LIMMIN
 10
0.0
 20
0.0
  9
$LIMMAX
 10
375.0
 20
270.0
  9
$ORTHOMODE
 70
     1
  9
$REGENMODE
 70
     1
  9
$FILLMODE
 70
     1
  9
$QTEXTMODE
 70
     0
  9
$MIRRTEXT
 70
     0
  9
$DRAGMODE
 70
     2
  9
$LTSCALE
 40
10.0
  9
$OSMODE
 70
  3071
  9
$ATTMODE
 70
     1
  9
$TEXTSIZE
 40
2.0
  9
$TRACEWID
 40
0.05
  9
$TEXTSTYLE
  7
STANDARD
  9
$CLAYER
  8
0
  9
$CELTYPE
  6
BYLAYER
  9
$CECOLOR
 62
   256
  9
$DIMSCALE
 40
1.0
  9
$DIMASZ
 40
2.5
  9
$DIMEXO
 40
2.0
  9
$DIMDLI
 40
0.38
  9
$DIMRND
 40
0.0
  9
$DIMDLE
 40
0.0
  9
$DIMEXE
 40
2.0
  9
$DIMTP
 40
0.0
  9
$DIMTM
 40
0.0
  9
$DIMTXT
 40
3.0
  9
$DIMCEN
 40
0.09
  9
$DIMTSZ
 40
0.0
  9
$DIMTOL
 70
     0
  9
$DIMLIM
 70
     0
  9
$DIMTIH
 70
     0
  9
$DIMTOH
 70
     0
  9
$DIMSE1
 70
     0
  9
$DIMSE2
 70
     0
  9
$DIMTAD
 70
     1
  9
$DIMZIN
 70
     0
  9
$DIMBLK
  1

  9
$DIMASO
 70
     1
  9
$DIMSHO
 70
     0
  9
$DIMPOST
  1

  9
$DIMAPOST
  1

  9
$DIMALT
 70
     0
  9
$DIMALTD
 70
     2
  9
$DIMALTF
 40
25.399999999999999
  9
$DIMLFAC
 40
1.0
  9
$DIMTOFL
 70
     0
  9
$DIMTVP
 40
1.6000000000000001
  9
$DIMTIX
 70
     1
  9
$DIMSOXD
 70
     0
  9
$DIMSAH
 70
     0
  9
$DIMBLK1
  1

  9
$DIMBLK2
  1

  9
$DIMSTYLE
  2
STANDARD
  9
$DIMCLRD
 70
     0
  9
$DIMCLRE
 70
     0
  9
$DIMCLRT
 70
     0
  9
$DIMTFAC
 40
1.0
  9
$DIMGAP
 40
0.09
  9
$LUNITS
 70
     2
  9
$LUPREC
 70
     4
  9
$SKETCHINC
 40
0.1
  9
$FILLETRAD
 40
2.5
  9
$AUNITS
 70
     0
  9
$AUPREC
 70
     0
  9
$MENU
  1
E:\r13\win\SUPPORT\ACAD
  9
$ELEVATION
 40
0.0
  9
$PELEVATION
 40
0.0
  9
$THICKNESS
 40
0.0
  9
$LIMCHECK
 70
     0
  9
$BLIPMODE
 70
     0
  9
$CHAMFERA
 40
0.0
  9
$CHAMFERB
 40
0.0
  9
$SKPOLY
 70
     0
  9
$TDCREATE
 40
2448650.5678784722
  9
$TDUPDATE
 40
2456597.4992054752
  9
$TDINDWG
 40
0.0227146528
  9
$TDUSRTIMER
 40
0.0227146528
  9
$USRTIMER
 70
     1
  9
$ANGBASE
 50
0.0
  9
$ANGDIR
 70
     0
  9
$PDMODE
 70
     0
  9
$PDSIZE
 40
0.0
  9
$PLINEWID
 40
0.0
  9
$COORDS
 70
     1
  9
$SPLFRAME
 70
     0
  9
$SPLINETYPE
 70
     6
  9
$SPLINESEGS
 70
     8
  9
$ATTDIA
 70
     0
  9
$ATTREQ
 70
     1
  9
$HANDLING
 70
     1
  9
$HANDSEED
  5
7DF
  9
$SURFTAB1
 70
     6
  9
$SURFTAB2
 70
     6
  9
$SURFTYPE
 70
     6
  9
$SURFU
 70
     6
  9
$SURFV
 70
     6
  9
$UCSNAME
  2

  9
$UCSORG
 10
0.0
 20
0.0
 30
0.0
  9
$UCSXDIR
 10
1.0
 20
0.0
 30
0.0
  9
$UCSYDIR
 10
0.0
 20
1.0
 30
0.0
  9
$PUCSNAME
  2

  9
$PUCSORG
 10
0.0
 20
0.0
 30
0.0
  9
$PUCSXDIR
 10
1.0
 20
0.0
 30
0.0
  9
$PUCSYDIR
 10
0.0
 20
1.0
 30
0.0
  9
$USERI1
 70
     0
  9
$USERI2
 70
     1
  9
$USERI3
 70
     1
  9
$USERI4
 70
     0
  9
$USERI5
 70
     0
  9
$USERR1
 40
0.0
  9
$USERR2
 40
0.0
  9
$USERR3
 40
0.0
  9
$USERR4
 40
0.0
  9
$USERR5
 40
0.0
  9
$WORLDVIEW
 70
     1
  9
$SHADEDGE
 70
     3
  9
$SHADEDIF
 70
    70
  9
$TILEMODE
 70
     1
  9
$MAXACTVP
 70
    16
  9
$PLIMCHECK
 70
     0
  9
$PEXTMIN
 10
1.0000000000000000E+020
 20
1.0000000000000000E+020
 30
1.0000000000000000E+020
  9
$PEXTMAX
 10
-1.0000000000000000E+020
 20
-1.0000000000000000E+020
 30
-1.0000000000000000E+020
  9
$PLIMMIN
 10
0.0
 20
0.0
  9
$PLIMMAX
 10
12.0
 20
9.0
  9
$UNITMODE
 70
     0
  9
$VISRETAIN
 70
     0
  9
$PLINEGEN
 70
     1
  9
$PSLTSCALE
 70
     0
  0
ENDSEC
  0
SECTION
  2
TABLES
  0
TABLE
  2
VPORT
 70
     1
  0
VPORT
  2
*ACTIVE
 70
     0
 10
0.0
 20
0.0
 11
1.0
 21
1.0
 12
195.04380321732449
 22
133.5127261426681
 13
0.0
 23
0.0
 14
10.0
 24
10.0
 15
10.0
 25
10.0
 16
0.0
 26
0.0
 36
1.0
 17
0.0
 27
0.0
 37
0.0
 40
275.42274993631997
 41
1.831871345029239
 42
50.0
 43
0.0
 44
0.0
 50
0.0
 51
0.0
 71
     0
 72
   500
 73
     1
 74
     0
 75
     0
 76
     0
 77
     0
 78
     2
  0
ENDTAB
  0
TABLE
  2
LTYPE
 70
     4
  0
LTYPE
  2
CONTINUOUS
 70
     0
  3
Solid Line
 72
    65
 73
     0
 40
0.0
  0
LTYPE
  2
CENTER
 70
     0
  3
____ _ ____ _ ____ _ ____ _ ____ _ ____ _ ____
 72
    65
 73
     4
 40
2.0
 49
1.25
 49
-0.25
 49
0.25
 49
-0.25
  0
LTYPE
  2
HIDDEN
 70
     0
  3
_ _ _ _ _ _ _ _ _ _ _ _ _ _ _ _ _ _ _ _ _ _ _
 72
    65
 73
     2
 40
0.375
 49
0.25
 49
-0.125
  0
LTYPE
  2
PHANTOM2
 70
     0
  3
___ _ _ ___ _ _ ___ _ _ ___ _ _
 72
    65
 73
     6
 40
1.25
 49
0.625
 49
-0.125
 49
0.125
 49
-0.125
 49
0.125
 49
-0.125
  0
ENDTAB
  0
TABLE
  2
LAYER
 70
     4
  0
LAYER
  2
0
 70
     0
 62
     7
  6
CONTINUOUS
  0
LAYER
  2
1
 70
     0
 62
     1
  6
CENTER
  0
LAYER
  2
3
 70
     0
 62
     3
  6
CONTINUOUS
  0
LAYER
  2
2
 70
     0
 62
     2
  6
HIDDEN
  0
ENDTAB
  0
TABLE
  2
STYLE
 70
     2
  0
STYLE
  2
STANDARD
 70
     0
 40
0.0
 41
1.0
 50
0.0
 71
     0
 42
2.0
  3
TXT
  4
BIGFONT
  0
STYLE
  2
STANDARD1
 70
     0
 40
0.0
 41
1.0
 50
0.0
 71
     0
 42
3.0
  3
txt
  4

  0
ENDTAB
  0
TABLE
  2
VIEW
 70
     1
  0
VIEW
  2
ALL
 70
     0
 40
270.0
 10
220.99159663865549
 20
135.0
 41
0.0
 11
0.0
 21
0.0
 31
1.0
 12
0.0
 22
0.0
 32
0.0
 42
0.0
 43
0.0
 44
0.0
 50
0.0
 71
     0
  0
ENDTAB
  0
TABLE
  2
UCS
 70
     0
  0
ENDTAB
  0
TABLE
  2
APPID
 70
     3
  0
APPID
  2
ACAD
 70
     0
  0
APPID
  2
ACAD_MLEADERVER
 70
     0
  0
APPID
  2
ACAD_NAV_VCDISPLAY
 70
     0
  0
ENDTAB
  0
TABLE
  2
DIMSTYLE
 70
     1
  0
DIMSTYLE
  2
STANDARD
 70
     0
  3

  4

  5

  6

  7

 40
1.0
 41
0.18
 42
0.0625
 43
0.38
 44
0.18
 45
0.0
 46
0.0
 47
0.0
 48
0.0
140
0.18
141
0.09
142
0.0
143
25.399999999999999
144
1.0
145
0.0
146
1.0
147
0.09
 71
     0
 72
     0
 73
     1
 74
     1
 75
     0
 76
     0
 77
     0
 78
     0
170
     0
171
     2
172
     0
173
     0
174
     0
175
     0
176
     0
177
     0
178
     0
  0
ENDTAB
  0
ENDSEC
  0
SECTION
  2
BLOCKS
  0
BLOCK
  8
0
  2
$MODEL_SPACE
 70
     0
 10
0.0
 20
0.0
 30
0.0
  3
$MODEL_SPACE
  1

  0
ENDBLK
  5
217
  8
0
  0
BLOCK
 67
     1
  8
0
  2
$PAPER_SPACE
 70
     0
 10
0.0
 20
0.0
 30
0.0
  3
$PAPER_SPACE
  1

  0
ENDBLK
  5
215
 67
     1
  8
0
  0
ENDSEC
  0
SECTION
  2
ENTITIES
  0
LINE
  5
5F2
  8
0
 10
64.21404169661929
 20
33.952026820854428
 30
0.0
 11
70.214041696620185
 21
33.952026820855771
 31
0.0
  0
CIRCLE
  5
5F3
  8
0
 10
67.21404169661929
 20
39.952026820854421
 30
0.0
 40
2.5
  0
CIRCLE
  5
5F4
  8
0
 10
67.21404169661929
 20
39.952026820854421
 30
0.0
 40
3.0
  0
ARC
  5
5F5
  8
0
 10
67.21404169661929
 20
39.952026820854442
 30
0.0
 40
5.9999999999986393
 50
270.0
 51
175.90395624184771
  0
LINE
  5
5F6
  8
0
 10
88.2140416966202
 20
39.452026820855757
 30
0.0
 11
74.2140416966202
 21
39.452026820855757
 31
0.0
  0
LINE
  5
5F7
  8
0
 10
42.21404169661929
 20
33.452026820854442
 30
0.0
 11
64.21404169661929
 21
33.452026820854442
 31
0.0
  0
LINE
  5
5F8
  8
0
 10
46.21404169661929
 20
39.452026820854442
 30
0.0
 11
60.231921674734672
 21
39.452026820854442
 31
0.0
  0
LINE
  5
5F9
  8
0
 10
92.214041696620214
 20
33.452026820855757
 30
0.0
 11
70.214041696620143
 21
33.452026820855757
 31
0.0
  0
ARC
  5
5FA
  8
0
 10
88.2140416966202
 20
35.452026820855757
 30
0.0
 40
4.0
 50
0.0
 51
90.0
  0
LINE
  5
5FB
  8
0
 10
92.214041696620214
 20
33.452026820855757
 30
0.0
 11
92.214041696620214
 21
35.452026820855757
 31
0.0
  0
ARC
  5
5FC
  8
0
 10
46.21404169661929
 20
35.452026820854442
 30
0.0
 40
4.0
 50
90.0
 51
180.0
  0
LINE
  5
5FD
  8
0
 10
42.21404169661929
 20
33.452026820854442
 30
0.0
 11
42.21404169661929
 21
35.452026820854442
 31
0.0
  0
LINE
  5
5FE
  8
0
 10
74.2140416966202
 20
39.452026820855757
 30
0.0
 11
74.2140416966202
 21
33.452026820855757
 31
0.0
  0
LINE
  5
5FF
  8
1
 10
67.21404169661929
 20
50.952026820854449
 30
0.0
 11
67.21404169661929
 21
28.952026820854432
 31
0.0
  0
LINE
  5
600
  8
0
 10
70.214041696620185
 20
33.452026820855771
 30
0.0
 11
70.214041696620185
 21
33.952026820855771
 31
0.0
  0
LINE
  5
601
  8
1
 10
56.21404169661929
 20
39.952026820854428
 30
0.0
 11
78.21404169661929
 21
39.952026820854421
 31
0.0
  0
ARC
  5
602
  8
0
 10
74.196161718504811
 20
40.452026820855757
 30
0.0
 40
1.0
 50
209.99999999998289
 51
270.0
  0
LINE
  5
603
  8
0
 10
74.196161718504811
 20
39.452026820855757
 30
0.0
 11
74.2140416966202
 21
39.452026820855757
 31
0.0
  0
ARC
  5
604
  8
0
 10
60.231921674734672
 20
40.452026820854428
 30
0.0
 40
1.0
 50
270.0
 51
355.90395624184532
  0
LINE
  5
605
  8
0
 10
64.21404169661929
 20
33.452026820854442
 30
0.0
 11
64.21404169661929
 21
33.952026820854428
 31
0.0
  0
LINE
  5
606
  8
2
 10
86.9640416966202
 20
38.452026820855757
 30
0.0
 11
77.4640416966202
 21
38.452026820855757
 31
0.0
  0
LINE
  5
607
  8
2
 10
84.964041696620185
 20
36.452026820855757
 30
0.0
 11
86.9640416966202
 21
38.452026820855757
 31
0.0
  0
LINE
  5
608
  8
2
 10
86.9640416966202
 20
39.452026820855757
 30
0.0
 11
86.9640416966202
 21
38.452026820855757
 31
0.0
  0
LINE
  5
609
  8
2
 10
79.4640416966202
 20
36.452026820855757
 30
0.0
 11
77.4640416966202
 21
38.452026820855757
 31
0.0
  0
LINE
  5
60A
  8
2
 10
77.4640416966202
 20
39.452026820855757
 30
0.0
 11
77.4640416966202
 21
38.452026820855757
 31
0.0
  0
LINE
  5
60B
  8
2
 10
84.964041696620185
 20
36.452026820855757
 30
0.0
 11
79.4640416966202
 21
36.452026820855757
 31
0.0
  0
LINE
  5
60C
  8
2
 10
79.4640416966202
 20
36.452026820855757
 30
0.0
 11
79.4640416966202
 21
33.452026820855757
 31
0.0
  0
LINE
  5
60D
  8
2
 10
84.964041696620185
 20
36.452026820855757
 30
0.0
 11
84.964041696620185
 21
33.452026820855757
 31
0.0
  0
LINE
  5
60E
  8
2
 10
49.464041696618153
 20
36.452026820855757
 30
0.0
 11
54.964041696618153
 21
36.452026820855757
 31
0.0
  0
LINE
  5
60F
  8
2
 10
47.464041696618153
 20
38.452026820855757
 30
0.0
 11
56.964041696618153
 21
38.452026820855757
 31
0.0
  0
LINE
  5
610
  8
2
 10
49.464041696618153
 20
36.452026820855757
 30
0.0
 11
49.464041696618153
 21
33.452026820855757
 31
0.0
  0
LINE
  5
611
  8
2
 10
47.464041696618153
 20
39.452026820855757
 30
0.0
 11
47.464041696618153
 21
38.452026820855757
 31
0.0
  0
LINE
  5
612
  8
2
 10
49.464041696618153
 20
36.452026820855757
 30
0.0
 11
47.464041696618153
 21
38.452026820855757
 31
0.0
  0
LINE
  5
613
  8
2
 10
54.964041696618153
 20
36.452026820855757
 30
0.0
 11
54.964041696618153
 21
33.452026820855757
 31
0.0
  0
LINE
  5
614
  8
2
 10
54.964041696618153
 20
36.452026820855757
 30
0.0
 11
56.964041696618153
 21
38.452026820855757
 31
0.0
  0
LINE
  5
615
  8
2
 10
56.964041696618153
 20
39.452026820855757
 30
0.0
 11
56.964041696618153
 21
38.452026820855757
 31
0.0
  0
LINE
  5
616
  8
1
 10
82.214041696620257
 20
41.952026820855743
 30
0.0
 11
82.214041696620214
 21
30.95202682085576
 31
0.0
  0
LINE
  5
617
  8
1
 10
52.214041696620257
 20
41.952026820855743
 30
0.0
 11
52.2140416966202
 21
30.95202682085576
 31
0.0
  0
LINE
  5
618
  8
0
 10
73.21404169661929
 20
85.677218940327563
 30
0.0
 11
42.21404169661929
 21
85.677218940327563
 31
0.0
  0
LINE
  5
619
  8
0
 10
92.214041696619276
 20
85.677218940327563
 30
0.0
 11
74.214041696619347
 21
85.677218940327563
 31
0.0
  0
LINE
  5
61A
  8
0
 10
60.21404169661929
 20
135.67721894032749
 30
0.0
 11
42.21404169661929
 21
135.67721894032749
 31
0.0
  0
LINE
  5
61B
  8
0
 10
92.214041696619276
 20
135.67721894032749
 30
0.0
 11
61.21404169661929
 21
135.67721894032749
 31
0.0
  0
LINE
  5
61C
  8
1
 10
97.214041696619304
 20
110.67721894032751
 30
0.0
 11
37.21404169661929
 21
110.67721894032751
 31
0.0
  0
LINE
  5
61D
  8
1
 10
67.21404169661929
 20
80.952026820854456
 30
0.0
 11
67.21404169661929
 21
140.85165810731911
 31
0.0
  0
LINE
  5
61E
  8
0
 10
64.164041696619336
 20
110.5272189403275
 30
0.0
 11
64.164041696619336
 21
110.8272189403275
 31
0.0
  0
LINE
  5
61F
  8
0
 10
60.21404169661929
 20
110.8272189403275
 30
0.0
 11
74.214041696619233
 21
110.8272189403275
 31
0.0
  0
LINE
  5
620
  8
0
 10
60.231921674734899
 20
110.8272189403275
 30
0.0
 11
60.231921674734899
 21
123.17721894032751
 31
0.0
  0
LINE
  5
621
  8
0
 10
61.229367392146912
 20
110.8272189403275
 30
0.0
 11
61.229367392146912
 21
123.17721894032751
 31
0.0
  0
LINE
  5
622
  8
0
 10
60.21404169661929
 20
123.17721894032751
 30
0.0
 11
60.21404169661929
 21
135.67721894032749
 31
0.0
  0
LINE
  5
623
  8
0
 10
61.21404169661929
 20
135.67721894032749
 30
0.0
 11
61.21404169661929
 21
123.17721894032761
 31
0.0
  0
LINE
  5
624
  8
0
 10
74.21404169661929
 20
123.17721894032761
 30
0.0
 11
60.21404169661929
 21
123.1772189403267
 31
0.0
  0
LINE
  5
625
  8
1
 10
82.214041696619276
 20
132.92721894032749
 30
0.0
 11
82.214041696619276
 21
118.42721894032751
 31
0.0
  0
CIRCLE
  5
626
  8
0
 10
82.214041696619276
 20
125.67721894032751
 30
0.0
 40
2.75
  0
CIRCLE
  5
627
  8
0
 10
82.214041696619276
 20
125.67721894032751
 30
0.0
 40
4.75
  0
LINE
  5
628
  8
1
 10
74.96404169661929
 20
125.67721894032751
 30
0.0
 11
89.464041696619304
 21
125.67721894032751
 31
0.0
  0
LINE
  5
629
  8
0
 10
70.264041696619245
 20
110.5272189403275
 30
0.0
 11
70.264041696619245
 21
110.8272189403275
 31
0.0
  0
LINE
  5
62A
  8
0
 10
74.21404169661929
 20
110.5272189403275
 30
0.0
 11
61.21404169661929
 21
110.5272189403275
 31
0.0
  0
LINE
  5
62B
  8
0
 10
73.21404169661929
 20
110.8272189403275
 30
0.0
 11
73.21404169661929
 21
123.17721894032751
 31
0.0
  0
LINE
  5
62C
  8
0
 10
74.21404169661929
 20
123.17721894032761
 30
0.0
 11
74.21404169661929
 21
110.5272189403275
 31
0.0
  0
LINE
  5
62D
  8
0
 10
74.196161718503902
 20
135.67721894032749
 30
0.0
 11
74.196161718503902
 21
123.17721894032761
 31
0.0
  0
LINE
  5
62E
  8
0
 10
73.198716001091782
 20
135.67721894032749
 30
0.0
 11
73.198716001091782
 21
123.17721894032761
 31
0.0
  0
LINE
  5
62F
  8
0
 10
60.21404169661929
 20
98.177218940327521
 30
0.0
 11
74.21404169661929
 21
98.177218940327933
 31
0.0
  0
LINE
  5
630
  8
0
 10
60.231921674734899
 20
85.677218940327549
 30
0.0
 11
60.231921674734899
 21
98.177218940327521
 31
0.0
  0
LINE
  5
631
  8
0
 10
61.229367392146912
 20
85.677218940327549
 30
0.0
 11
61.229367392146912
 21
98.177218940327521
 31
0.0
  0
LINE
  5
632
  8
0
 10
73.21404169661929
 20
85.677218940327549
 30
0.0
 11
73.21404169661929
 21
98.177218940327521
 31
0.0
  0
LINE
  5
633
  8
0
 10
74.21404169661929
 20
98.177218940327563
 30
0.0
 11
74.21404169661929
 21
85.677218940327563
 31
0.0
  0
LINE
  5
634
  8
0
 10
42.21404169661929
 20
85.677218940327549
 30
0.0
 11
42.21404169661929
 21
135.67721894032749
 31
0.0
  0
LINE
  5
635
  8
0
 10
60.21404169661929
 20
98.177218940327521
 30
0.0
 11
60.21404169661929
 21
110.8272189403275
 31
0.0
  0
LINE
  5
636
  8
3
 10
46.21404169661929
 20
85.677218940327563
 30
0.0
 11
46.21404169661929
 21
135.67721894032749
 31
0.0
  0
LINE
  5
637
  8
0
 10
61.21404169661929
 20
110.5272189403275
 30
0.0
 11
61.21404169661929
 21
98.177218940327549
 31
0.0
  0
LINE
  5
638
  8
0
 10
73.198716001091782
 20
110.5272189403275
 30
0.0
 11
73.198716001091782
 21
98.177218940327549
 31
0.0
  0
LINE
  5
639
  8
3
 10
88.214041696619304
 20
135.67721894032749
 30
0.0
 11
88.214041696619304
 21
85.677218940327563
 31
0.0
  0
LINE
  5
63A
  8
0
 10
74.196161718503902
 20
110.5272189403275
 30
0.0
 11
74.196161718503902
 21
98.177218940327563
 31
0.0
  0
LINE
  5
63B
  8
0
 10
92.214041696619276
 20
135.67721894032749
 30
0.0
 11
92.214041696619276
 21
85.677218940327563
 31
0.0
  0
LINE
  5
63C
  8
1
 10
44.96404169661929
 20
125.67721894032751
 30
0.0
 11
59.46404169661929
 21
125.67721894032751
 31
0.0
  0
CIRCLE
  5
63D
  8
0
 10
52.21404169661929
 20
125.67721894032751
 30
0.0
 40
4.75
  0
CIRCLE
  5
63E
  8
0
 10
52.21404169661929
 20
125.67721894032751
 30
0.0
 40
2.75
  0
LINE
  5
63F
  8
1
 10
52.21404169661929
 20
132.92721894032749
 30
0.0
 11
52.21404169661929
 21
118.42721894032751
 31
0.0
  0
LINE
  5
640
  8
1
 10
74.96404169661929
 20
95.677218940327563
 30
0.0
 11
89.464041696619304
 21
95.677218940327563
 31
0.0
  0
CIRCLE
  5
641
  8
0
 10
82.214041696619276
 20
95.677218940327563
 30
0.0
 40
4.75
  0
CIRCLE
  5
642
  8
0
 10
82.214041696619276
 20
95.677218940327563
 30
0.0
 40
2.75
  0
LINE
  5
643
  8
1
 10
82.214041696619276
 20
102.92721894032751
 30
0.0
 11
82.214041696619276
 21
88.427218940327577
 31
0.0
  0
LINE
  5
644
  8
1
 10
52.21404169661929
 20
102.92721894032751
 30
0.0
 11
52.21404169661929
 21
88.427218940327577
 31
0.0
  0
CIRCLE
  5
645
  8
0
 10
52.21404169661929
 20
95.677218940327563
 30
0.0
 40
2.75
  0
CIRCLE
  5
646
  8
0
 10
52.21404169661929
 20
95.677218940327563
 30
0.0
 40
4.75
  0
LINE
  5
647
  8
1
 10
44.96404169661929
 20
95.677218940327563
 30
0.0
 11
59.46404169661929
 21
95.677218940327563
 31
0.0
  0
LINE
  5
648
  8
1
 10
157.2140416966194
 20
28.45202682085576
 30
0.0
 11
157.21404169661929
 21
50.952026820855757
 31
0.0
  0
LINE
  5
649
  8
1
 10
187.2140416966194
 20
39.952026820855743
 30
0.0
 11
127.2140416966193
 21
39.952026820855728
 31
0.0
  0
LINE
  5
64A
  8
1
 10
172.21404169661929
 20
41.95202682085575
 30
0.0
 11
172.21404169661929
 21
30.95202682085576
 31
0.0
  0
LINE
  5
64B
  8
1
 10
142.2140416966194
 20
41.95202682085575
 30
0.0
 11
142.21404169661929
 21
30.95202682085576
 31
0.0
  0
LINE
  5
64C
  8
2
 10
167.46404169661929
 20
39.452026820857121
 30
0.0
 11
167.46404169661929
 21
38.452026820857121
 31
0.0
  0
LINE
  5
64D
  8
2
 10
176.96404169661929
 20
39.452026820857121
 30
0.0
 11
176.96404169661929
 21
38.452026820857121
 31
0.0
  0
LINE
  5
64E
  8
2
 10
176.96404169661929
 20
38.452026820857121
 30
0.0
 11
167.46404169661929
 21
38.452026820857121
 31
0.0
  0
LINE
  5
64F
  8
2
 10
169.46404169661929
 20
36.452026820857121
 30
0.0
 11
169.46404169661929
 21
33.452026820857121
 31
0.0
  0
LINE
  5
650
  8
2
 10
174.96404169661929
 20
36.452026820857121
 30
0.0
 11
174.96404169661929
 21
33.452026820857121
 31
0.0
  0
LINE
  5
651
  8
2
 10
174.96404169661929
 20
36.452026820857121
 30
0.0
 11
169.46404169661929
 21
36.452026820857121
 31
0.0
  0
LINE
  5
652
  8
2
 10
169.46404169661929
 20
36.452026820857121
 30
0.0
 11
167.46404169661929
 21
38.452026820857121
 31
0.0
  0
LINE
  5
653
  8
2
 10
174.96404169661929
 20
36.452026820857121
 30
0.0
 11
176.96404169661929
 21
38.452026820857121
 31
0.0
  0
LINE
  5
654
  8
2
 10
146.96404169661929
 20
39.452026820857121
 30
0.0
 11
146.96404169661929
 21
38.452026820857121
 31
0.0
  0
LINE
  5
655
  8
2
 10
144.96404169661929
 20
36.452026820857121
 30
0.0
 11
144.96404169661929
 21
33.452026820857121
 31
0.0
  0
LINE
  5
656
  8
2
 10
144.96404169661929
 20
36.452026820857121
 30
0.0
 11
146.96404169661929
 21
38.452026820857121
 31
0.0
  0
LINE
  5
657
  8
2
 10
137.46404169661929
 20
39.452026820857121
 30
0.0
 11
137.46404169661929
 21
38.452026820857121
 31
0.0
  0
LINE
  5
658
  8
2
 10
139.46404169661929
 20
36.452026820857121
 30
0.0
 11
139.46404169661929
 21
33.452026820857121
 31
0.0
  0
LINE
  5
659
  8
2
 10
139.46404169661929
 20
36.452026820857121
 30
0.0
 11
137.46404169661929
 21
38.452026820857121
 31
0.0
  0
LINE
  5
65A
  8
2
 10
137.46404169661929
 20
38.452026820857121
 30
0.0
 11
146.96404169661929
 21
38.452026820857121
 31
0.0
  0
LINE
  5
65B
  8
2
 10
139.46404169661929
 20
36.452026820857121
 30
0.0
 11
144.96404169661929
 21
36.452026820857121
 31
0.0
  0
LINE
  5
65C
  8
0
 10
157.36404169661941
 20
45.952026820855757
 30
0.0
 11
182.21404169661929
 21
45.952026820855757
 31
0.0
  0
LINE
  5
65D
  8
0
 10
157.0640416966192
 20
42.50202682085574
 30
0.0
 11
157.36404169661941
 21
42.50202682085574
 31
0.0
  0
LINE
  5
65E
  8
0
 10
157.36404169661941
 20
39.452026820855757
 30
0.0
 11
157.36404169661941
 21
45.952026820855757
 31
0.0
  0
LINE
  5
65F
  8
0
 10
157.06404169661951
 20
39.452026820855757
 30
0.0
 11
157.0640416966192
 21
45.952026820855757
 31
0.0
  0
LINE
  5
660
  8
0
 10
169.7140416966196
 20
39.452026820855757
 30
0.0
 11
169.7140416966196
 21
45.952026820855757
 31
0.0
  0
LINE
  5
661
  8
0
 10
144.71404169661929
 20
39.452026820855757
 30
0.0
 11
144.71404169661929
 21
45.952026820855757
 31
0.0
  0
LINE
  5
662
  8
3
 10
132.21404169661929
 20
35.452026820855757
 30
0.0
 11
182.21404169661929
 21
35.452026820855757
 31
0.0
  0
LINE
  5
663
  8
0
 10
182.21404169661929
 20
33.452026820855757
 30
0.0
 11
182.21404169661929
 21
45.952026820855757
 31
0.0
  0
LINE
  5
664
  8
0
 10
132.21404169661929
 20
33.452026820855757
 30
0.0
 11
132.21404169661929
 21
45.952026820855757
 31
0.0
  0
LINE
  5
665
  8
0
 10
132.21404169661929
 20
39.452026820855757
 30
0.0
 11
182.21404169661929
 21
39.452026820855757
 31
0.0
  0
LINE
  5
666
  8
0
 10
132.21404169661929
 20
45.952026820855757
 30
0.0
 11
157.0640416966192
 21
45.952026820855757
 31
0.0
  0
LINE
  5
667
  8
0
 10
132.2140416966192
 20
33.452026820855757
 30
0.0
 11
182.21404169661929
 21
33.452026820855757
 31
0.0
  0
TEXT
  5
750
  8
0
 62
     3
 10
0.0
 20
0.0
 30
0.0
 40
10.0
  1
AFTH5050HH
  7
STANDARD1
  0
ENDSEC
  0
EOF
