  0
SECTION
  2
HEADER
  9
$ACADVER
  1
AC1009
  9
$INSBASE
 10
0.0
 20
0.0
 30
0.0
  9
$EXTMIN
 10
-0.0204638472032742
 20
-2.960436562073669
 30
0.0
  9
$EXTMAX
 10
315.472261
 20
235.57553999999999
 30
0.0
  9
$LIMMIN
 10
0.0
 20
0.0
  9
$LIMMAX
 10
390.0
 20
270.0
  9
$ORTHOMODE
 70
     1
  9
$REGENMODE
 70
     1
  9
$FILLMODE
 70
     1
  9
$QTEXTMODE
 70
     0
  9
$MIRRTEXT
 70
     0
  9
$DRAGMODE
 70
     2
  9
$LTSCALE
 40
10.0
  9
$OSMODE
 70
  3071
  9
$ATTMODE
 70
     1
  9
$TEXTSIZE
 40
5.0
  9
$TRACEWID
 40
0.05
  9
$TEXTSTYLE
  7
STANDARD
  9
$CLAYER
  8
0
  9
$CELTYPE
  6
BYLAYER
  9
$CECOLOR
 62
   256
  9
$DIMSCALE
 40
1.0
  9
$DIMASZ
 40
3.0
  9
$DIMEXO
 40
2.0
  9
$DIMDLI
 40
0.38
  9
$DIMRND
 40
0.0
  9
$DIMDLE
 40
0.0
  9
$DIMEXE
 40
2.0
  9
$DIMTP
 40
0.0
  9
$DIMTM
 40
0.0
  9
$DIMTXT
 40
3.0
  9
$DIMCEN
 40
0.0
  9
$DIMTSZ
 40
0.0
  9
$DIMTOL
 70
     0
  9
$DIMLIM
 70
     0
  9
$DIMTIH
 70
     0
  9
$DIMTOH
 70
     0
  9
$DIMSE1
 70
     0
  9
$DIMSE2
 70
     0
  9
$DIMTAD
 70
     1
  9
$DIMZIN
 70
     0
  9
$DIMBLK
  1

  9
$DIMASO
 70
     0
  9
$DIMSHO
 70
     0
  9
$DIMPOST
  1

  9
$DIMAPOST
  1

  9
$DIMALT
 70
     0
  9
$DIMALTD
 70
     2
  9
$DIMALTF
 40
25.399999999999999
  9
$DIMLFAC
 40
1.0
  9
$DIMTOFL
 70
     1
  9
$DIMTVP
 40
0.0
  9
$DIMTIX
 70
     1
  9
$DIMSOXD
 70
     0
  9
$DIMSAH
 70
     0
  9
$DIMBLK1
  1

  9
$DIMBLK2
  1

  9
$DIMSTYLE
  2
STANDARD
  9
$DIMCLRD
 70
     0
  9
$DIMCLRE
 70
     0
  9
$DIMCLRT
 70
     0
  9
$DIMTFAC
 40
1.0
  9
$DIMGAP
 40
0.09
  9
$LUNITS
 70
     2
  9
$LUPREC
 70
     4
  9
$SKETCHINC
 40
0.1
  9
$FILLETRAD
 40
0.0
  9
$AUNITS
 70
     0
  9
$AUPREC
 70
     0
  9
$MENU
  1
E:\r13\win\SUPPORT\ACAD
  9
$ELEVATION
 40
0.0
  9
$PELEVATION
 40
0.0
  9
$THICKNESS
 40
0.0
  9
$LIMCHECK
 70
     0
  9
$BLIPMODE
 70
     0
  9
$CHAMFERA
 40
0.0
  9
$CHAMFERB
 40
0.0
  9
$SKPOLY
 70
     0
  9
$TDCREATE
 40
2450596.4289292828
  9
$TDUPDATE
 40
2456597.499226111
  9
$TDINDWG
 40
0.0001072338
  9
$TDUSRTIMER
 40
0.0001072338
  9
$USRTIMER
 70
     1
  9
$ANGBASE
 50
0.0
  9
$ANGDIR
 70
     0
  9
$PDMODE
 70
     0
  9
$PDSIZE
 40
0.0
  9
$PLINEWID
 40
0.0
  9
$COORDS
 70
     1
  9
$SPLFRAME
 70
     0
  9
$SPLINETYPE
 70
     6
  9
$SPLINESEGS
 70
     8
  9
$ATTDIA
 70
     0
  9
$ATTREQ
 70
     1
  9
$HANDLING
 70
     1
  9
$HANDSEED
  5
26F
  9
$SURFTAB1
 70
     6
  9
$SURFTAB2
 70
     6
  9
$SURFTYPE
 70
     6
  9
$SURFU
 70
     6
  9
$SURFV
 70
     6
  9
$UCSNAME
  2

  9
$UCSORG
 10
0.0
 20
0.0
 30
0.0
  9
$UCSXDIR
 10
1.0
 20
0.0
 30
0.0
  9
$UCSYDIR
 10
0.0
 20
1.0
 30
0.0
  9
$PUCSNAME
  2

  9
$PUCSORG
 10
0.0
 20
0.0
 30
0.0
  9
$PUCSXDIR
 10
1.0
 20
0.0
 30
0.0
  9
$PUCSYDIR
 10
0.0
 20
1.0
 30
0.0
  9
$USERI1
 70
     3
  9
$USERI2
 70
     1
  9
$USERI3
 70
     0
  9
$USERI4
 70
     0
  9
$USERI5
 70
     0
  9
$USERR1
 40
1.0
  9
$USERR2
 40
3.0
  9
$USERR3
 40
3.0
  9
$USERR4
 40
3.0
  9
$USERR5
 40
10.0
  9
$WORLDVIEW
 70
     1
  9
$SHADEDGE
 70
     3
  9
$SHADEDIF
 70
    70
  9
$TILEMODE
 70
     1
  9
$MAXACTVP
 70
    16
  9
$PLIMCHECK
 70
     0
  9
$PEXTMIN
 10
1.0000000000000000E+020
 20
1.0000000000000000E+020
 30
1.0000000000000000E+020
  9
$PEXTMAX
 10
-1.0000000000000000E+020
 20
-1.0000000000000000E+020
 30
-1.0000000000000000E+020
  9
$PLIMMIN
 10
0.0
 20
0.0
  9
$PLIMMAX
 10
12.0
 20
9.0
  9
$UNITMODE
 70
     0
  9
$VISRETAIN
 70
     0
  9
$PLINEGEN
 70
     1
  9
$PSLTSCALE
 70
     0
  0
ENDSEC
  0
SECTION
  2
TABLES
  0
TABLE
  2
VPORT
 70
     1
  0
VPORT
  2
*ACTIVE
 70
     0
 10
0.0
 20
0.0
 11
1.0
 21
1.0
 12
202.54300214836019
 22
133.5127261426681
 13
0.0
 23
0.0
 14
10.0
 24
10.0
 15
10.0
 25
10.0
 16
0.0
 26
0.0
 36
1.0
 17
0.0
 27
0.0
 37
0.0
 40
275.42274993631997
 41
1.831871345029239
 42
50.0
 43
0.0
 44
0.0
 50
0.0
 51
0.0
 71
     0
 72
   100
 73
     1
 74
     0
 75
     0
 76
     0
 77
     0
 78
     0
  0
ENDTAB
  0
TABLE
  2
LTYPE
 70
     4
  0
LTYPE
  2
CONTINUOUS
 70
     0
  3
Solid Line
 72
    65
 73
     0
 40
0.0
  0
LTYPE
  2
CENTER
 70
     0
  3
____ _ ____ _ ____ _ ____ _ ____ _ ____ _ ____
 72
    65
 73
     4
 40
2.0
 49
1.25
 49
-0.25
 49
0.25
 49
-0.25
  0
LTYPE
  2
AUSGEZOGEN
 70
     0
  3
Solid line
 72
    65
 73
     0
 40
0.0
  0
LTYPE
  2
PHANTOM2
 70
     0
  3
___ _ _ ___ _ _ ___ _ _ ___ _ _
 72
    65
 73
     6
 40
1.25
 49
0.625
 49
-0.125
 49
0.125
 49
-0.125
 49
0.125
 49
-0.125
  0
ENDTAB
  0
TABLE
  2
LAYER
 70
     4
  0
LAYER
  2
0
 70
     0
 62
     7
  6
CONTINUOUS
  0
LAYER
  2
1
 70
     0
 62
     1
  6
CENTER
  0
LAYER
  2
3
 70
     0
 62
     3
  6
CONTINUOUS
  0
LAYER
  2
ITEM_50
 70
     0
 62
     7
  6
AUSGEZOGEN
  0
ENDTAB
  0
TABLE
  2
STYLE
 70
     2
  0
STYLE
  2
STANDARD
 70
     0
 40
0.0
 41
1.0
 50
0.0
 71
     0
 42
5.0
  3
TXT
  4
BIGFONT
  0
STYLE
  2
STANDARD1
 70
     0
 40
0.0
 41
1.0
 50
0.0
 71
     0
 42
3.0
  3
txt
  4

  0
ENDTAB
  0
TABLE
  2
VIEW
 70
     0
  0
ENDTAB
  0
TABLE
  2
UCS
 70
     0
  0
ENDTAB
  0
TABLE
  2
APPID
 70
     3
  0
APPID
  2
ACAD
 70
     0
  0
APPID
  2
ACAD_MLEADERVER
 70
     0
  0
APPID
  2
ACAD_NAV_VCDISPLAY
 70
     0
  0
ENDTAB
  0
TABLE
  2
DIMSTYLE
 70
     1
  0
DIMSTYLE
  2
STANDARD
 70
     0
  3

  4

  5

  6

  7

 40
1.0
 41
0.18
 42
0.0625
 43
0.38
 44
0.18
 45
0.0
 46
0.0
 47
0.0
 48
0.0
140
0.18
141
0.09
142
0.0
143
25.399999999999999
144
1.0
145
0.0
146
1.0
147
0.09
 71
     0
 72
     0
 73
     1
 74
     1
 75
     0
 76
     0
 77
     0
 78
     0
170
     0
171
     2
172
     0
173
     0
174
     0
175
     0
176
     0
177
     0
178
     0
  0
ENDTAB
  0
ENDSEC
  0
SECTION
  2
BLOCKS
  0
BLOCK
  8
0
  2
$MODEL_SPACE
 70
     0
 10
0.0
 20
0.0
 30
0.0
  3
$MODEL_SPACE
  1

  0
ENDBLK
  5
F0
  8
0
  0
BLOCK
 67
     1
  8
0
  2
$PAPER_SPACE
 70
     0
 10
0.0
 20
0.0
 30
0.0
  3
$PAPER_SPACE
  1

  0
ENDBLK
  5
EE
 67
     1
  8
0
  0
ENDSEC
  0
SECTION
  2
ENTITIES
  0
LINE
  5
3F
  8
ITEM_50
 10
310.472261
 20
117.284173
 30
0.0
 11
154.472261
 21
117.284173
 31
0.0
  0
LINE
  5
40
  8
ITEM_50
 10
154.472261
 20
77.284172999999996
 30
0.0
 11
310.472261
 21
77.284172999999996
 31
0.0
  0
LINE
  5
41
  8
ITEM_50
 10
230.37491600000001
 20
89.534172999999996
 30
0.0
 11
164.472261
 21
89.534172999999996
 31
0.0
  0
LINE
  5
42
  8
ITEM_50
 10
230.37491600000001
 20
105.034173
 30
0.0
 11
164.472261
 21
105.034173
 31
0.0
  0
CIRCLE
  5
43
  8
ITEM_50
 10
190.472261
 20
97.284172999999996
 30
0.0
 40
7.0
  0
CIRCLE
  5
44
  8
ITEM_50
 10
190.472261
 20
97.284172999999996
 30
0.0
 40
4.5999999999999988
  0
LINE
  5
45
  8
ITEM_50
 10
150.472261
 20
219.0
 30
0.0
 11
309.472261
 21
219.0
 31
0.0
  0
LINE
  5
46
  8
ITEM_50
 10
282.472261
 20
199.0
 30
0.0
 11
154.472261
 21
199.0
 31
0.0
  0
LINE
  5
49
  8
0
 10
197.972261
 20
227.0
 30
0.0
 11
174.972261
 21
227.0
 31
0.0
  0
LINE
  5
4A
  8
0
 10
194.09303399999999
 20
234.30000000000001
 30
0.0
 11
197.972261
 21
234.30000000000001
 31
0.0
  0
LINE
  5
4B
  8
1
 10
145.472261
 20
97.284172999999996
 30
0.0
 11
315.472261
 21
97.284172999999996
 31
0.0
  0
LINE
  5
4D
  8
ITEM_50
 10
110.563901
 20
77.284172999999996
 30
0.0
 11
54.563901000000001
 21
77.284172999999996
 31
0.0
  0
LINE
  5
4E
  8
ITEM_50
 10
54.563901000000001
 20
117.284173
 30
0.0
 11
110.563901
 21
117.284173
 31
0.0
  0
ARC
  5
4F
  8
ITEM_50
 10
70.563901000000001
 20
81.284172999999996
 30
0.0
 40
4.0
 50
270.0
 51
0.0
  0
ARC
  5
50
  8
ITEM_50
 10
70.563901000000001
 20
113.284173
 30
0.0
 40
4.0
 50
0.0
 51
90.0
  0
LINE
  5
51
  8
1
 10
119.563901
 20
97.284172999999996
 30
0.0
 11
33.479895999999997
 21
97.284172999999996
 31
0.0
  0
LINE
  5
52
  8
ITEM_50
 10
54.563901000000001
 20
77.284172999999996
 30
0.0
 11
54.563901000000001
 21
117.284173
 31
0.0
  0
ARC
  5
53
  8
0
 10
52.236687000000003
 20
105.252177
 30
0.0
 40
16.0
 50
221.60568900000001
 51
248.17979
  0
LINE
  5
54
  8
0
 10
46.563901000000001
 20
103.984174
 30
0.0
 11
46.563901000000001
 21
90.584171999999995
 31
0.0
  0
ARC
  5
55
  8
0
 10
46.363900999999991
 20
90.584171999999995
 30
0.0
 40
0.2
 50
248.179757
 51
0.0
  0
ARC
  5
56
  8
0
 10
52.236687000000003
 20
89.31616600000001
 30
0.0
 40
16.0
 50
111.82021
 51
138.39431099999999
  0
ARC
  5
57
  8
0
 10
43.263900999999997
 20
97.284171999999998
 30
0.0
 40
4.0
 50
138.39431399999989
 51
221.60569100000001
  0
ARC
  5
58
  8
0
 10
40.263900999999997
 20
97.284172999999996
 30
0.0
 40
2.0
 50
104.477512
 51
255.52248800000001
  0
LINE
  5
59
  8
0
 10
54.563901000000001
 20
92.284172999999996
 30
0.0
 11
46.563901000000001
 21
92.284172999999996
 31
0.0
  0
LINE
  5
5A
  8
3
 10
54.563901000000001
 20
93.096172999999993
 30
0.0
 11
46.563901000000001
 21
93.096172999999993
 31
0.0
  0
LINE
  5
5B
  8
3
 10
54.563901000000001
 20
101.472173
 30
0.0
 11
46.563901000000001
 21
101.472173
 31
0.0
  0
LINE
  5
5C
  8
0
 10
54.563901000000001
 20
102.284173
 30
0.0
 11
46.563901000000001
 21
102.284173
 31
0.0
  0
LINE
  5
5D
  8
0
 10
50.563901000000001
 20
94.384173000000004
 30
0.0
 11
50.563901000000001
 21
100.184173
 31
0.0
  0
LINE
  5
5E
  8
0
 10
51.563901000000001
 20
93.384173000000004
 30
0.0
 11
54.563901000000001
 21
93.384173000000004
 31
0.0
  0
ARC
  5
5F
  8
0
 10
51.563901000000001
 20
94.384173000000004
 30
0.0
 40
1.0
 50
180.0
 51
270.0
  0
LINE
  5
60
  8
0
 10
54.563901000000001
 20
101.184173
 30
0.0
 11
51.563901000000001
 21
101.184173
 31
0.0
  0
ARC
  5
61
  8
0
 10
51.563901000000001
 20
100.184173
 30
0.0
 40
1.0
 50
90.0
 51
180.0
  0
ARC
  5
62
  8
0
 10
46.363900999999991
 20
103.984172
 30
0.0
 40
0.2
 50
0.000546
 51
111.820243
  0
LINE
  5
63
  8
0
 10
114.563901
 20
113.284173
 30
0.0
 11
114.563901
 21
81.284172999999996
 31
0.0
  0
LINE
  5
64
  8
ITEM_50
 10
74.563901000000001
 20
81.284172999999996
 30
0.0
 11
74.563901000000001
 21
113.284173
 31
0.0
  0
ARC
  5
65
  8
ITEM_50
 10
110.563901
 20
81.284172999999996
 30
0.0
 40
4.0
 50
270.0
 51
0.0
  0
ARC
  5
66
  8
ITEM_50
 10
102.563901
 20
100.284173
 30
0.0
 40
2.0
 50
0.0
 51
90.0
  0
ARC
  5
67
  8
ITEM_50
 10
102.563901
 20
94.284172999999996
 30
0.0
 40
2.0
 50
270.0
 51
0.0
  0
LINE
  5
68
  8
ITEM_50
 10
79.563901000000001
 20
102.284173
 30
0.0
 11
102.563901
 21
102.284173
 31
0.0
  0
LINE
  5
69
  8
ITEM_50
 10
102.563901
 20
92.284172999999996
 30
0.0
 11
79.563901000000001
 21
92.284172999999996
 31
0.0
  0
ARC
  5
6A
  8
ITEM_50
 10
79.563901000000001
 20
100.284173
 30
0.0
 40
2.0
 50
90.000000000000028
 51
180.0
  0
LINE
  5
6B
  8
ITEM_50
 10
77.563901000000001
 20
100.284173
 30
0.0
 11
77.563901000000001
 21
94.284172999999996
 31
0.0
  0
ARC
  5
6C
  8
ITEM_50
 10
79.563901000000001
 20
94.284172999999996
 30
0.0
 40
2.0
 50
180.0
 51
270.00000000000011
  0
LINE
  5
6D
  8
ITEM_50
 10
104.563901
 20
100.284173
 30
0.0
 11
104.563901
 21
94.284172999999996
 31
0.0
  0
ARC
  5
6E
  8
ITEM_50
 10
110.563901
 20
113.284173
 30
0.0
 40
4.0
 50
0.0
 51
90.0
  0
LINE
  5
6F
  8
1
 10
170.472261
 20
106.434173
 30
0.0
 11
170.472261
 21
88.134173000000004
 31
0.0
  0
LINE
  5
70
  8
ITEM_50
 10
150.472261
 20
113.284173
 30
0.0
 11
150.472261
 21
81.284172999999996
 31
0.0
  0
LINE
  5
71
  8
ITEM_50
 10
162.472261
 20
91.534172999999996
 30
0.0
 11
162.472261
 21
103.034173
 31
0.0
  0
LINE
  5
72
  8
1
 10
190.472261
 20
106.434173
 30
0.0
 11
190.472261
 21
88.134173000000004
 31
0.0
  0
ARC
  5
73
  8
ITEM_50
 10
154.472261
 20
81.284172999999996
 30
0.0
 40
4.0
 50
180.0
 51
270.0
  0
ARC
  5
74
  8
ITEM_50
 10
164.472261
 20
91.534172999999996
 30
0.0
 40
2.0
 50
180.0
 51
270.0
  0
ARC
  5
75
  8
ITEM_50
 10
164.472261
 20
103.034173
 30
0.0
 40
2.0
 50
90.0
 51
180.0
  0
ARC
  5
76
  8
ITEM_50
 10
154.472261
 20
113.284173
 30
0.0
 40
4.0
 50
90.0
 51
180.0
  0
CIRCLE
  5
77
  8
0
 10
170.472261
 20
97.284172999999996
 30
0.0
 40
4.0
  0
LINE
  5
78
  8
ITEM_50
 10
187.972261
 20
98.727547999999999
 30
0.0
 11
187.972261
 21
95.840796999999995
 31
0.0
  0
LINE
  5
79
  8
ITEM_50
 10
192.972261
 20
95.840796999999995
 30
0.0
 11
192.972261
 21
98.727547999999999
 31
0.0
  0
LINE
  5
7A
  8
ITEM_50
 10
190.472261
 20
94.397420999999994
 30
0.0
 11
192.972261
 21
95.840796999999995
 31
0.0
  0
LINE
  5
7B
  8
ITEM_50
 10
187.972261
 20
95.840796999999995
 30
0.0
 11
190.472261
 21
94.397420999999994
 31
0.0
  0
LINE
  5
7C
  8
ITEM_50
 10
192.972261
 20
98.727547999999999
 30
0.0
 11
190.472261
 21
100.170924
 31
0.0
  0
LINE
  5
7D
  8
ITEM_50
 10
190.472261
 20
100.170924
 30
0.0
 11
187.972261
 21
98.727547999999999
 31
0.0
  0
LINE
  5
7E
  8
3
 10
187.14876100000001
 20
219.0
 30
0.0
 11
187.14876100000001
 21
227.0
 31
0.0
  0
LINE
  5
7F
  8
0
 10
186.472261
 20
219.0
 30
0.0
 11
186.472261
 21
227.0
 31
0.0
  0
LINE
  5
80
  8
3
 10
193.795761
 20
219.0
 30
0.0
 11
193.795761
 21
227.0
 31
0.0
  0
LINE
  5
81
  8
0
 10
194.472261
 20
219.0
 30
0.0
 11
194.472261
 21
227.0
 31
0.0
  0
LINE
  5
82
  8
0
 10
150.972261
 20
222.0
 30
0.0
 11
150.972261
 21
218.86602500000001
 31
0.0
  0
LINE
  5
83
  8
0
 10
154.972261
 20
219.0
 30
0.0
 11
154.972261
 21
222.0
 31
0.0
  0
ARC
  5
84
  8
0
 10
151.472261
 20
218.0
 30
0.0
 40
1.0
 50
90.0
 51
180.0
  0
LINE
  5
85
  8
1
 10
190.472261
 20
235.57553999999999
 30
0.0
 11
190.472261
 21
201.23651100000001
 31
0.0
  0
LINE
  5
86
  8
ITEM_50
 10
150.472261
 20
203.0
 30
0.0
 11
150.472261
 21
219.0
 31
0.0
  0
ARC
  5
87
  8
ITEM_50
 10
154.472261
 20
203.0
 30
0.0
 40
4.0
 50
180.0
 51
270.0
  0
LINE
  5
88
  8
0
 10
153.972261
 20
223.0
 30
0.0
 11
151.972261
 21
223.0
 31
0.0
  0
ARC
  5
89
  8
0
 10
151.972261
 20
222.0
 30
0.0
 40
1.0
 50
90.0
 51
180.0
  0
ARC
  5
8A
  8
0
 10
153.972261
 20
222.0
 30
0.0
 40
1.0
 50
0.0
 51
90.0
  0
ARC
  5
8B
  8
0
 10
181.472261
 20
235.30000000000001
 30
0.0
 40
2.0
 50
210.0
 51
330.0
  0
ARC
  5
8C
  8
0
 10
181.472261
 20
233.30000000000001
 30
0.0
 40
2.0
 50
30.0
 51
150.0
  0
LINE
  5
8D
  8
0
 10
174.972261
 20
227.0
 30
0.0
 11
174.972261
 21
234.30000000000001
 31
0.0
  0
LINE
  5
8E
  8
0
 10
174.972261
 20
234.30000000000001
 30
0.0
 11
179.74020999999999
 21
234.30000000000001
 31
0.0
  0
ARC
  5
8F
  8
0
 10
190.472261
 20
236.0
 30
0.0
 40
4.0
 50
205.15066300000001
 51
334.84933699999999
  0
LINE
  5
90
  8
0
 10
183.20431199999999
 20
234.30000000000001
 30
0.0
 11
186.85148799999999
 21
234.30000000000001
 31
0.0
  0
LINE
  5
97
  8
1
 10
210.472261
 20
106.434173
 30
0.0
 11
210.472261
 21
88.134173000000004
 31
0.0
  0
LINE
  5
98
  8
ITEM_50
 10
230.37491600000001
 20
105.034173
 30
0.0
 11
230.37491600000001
 21
89.534172999999996
 31
0.0
  0
LINE
  5
99
  8
ITEM_50
 10
228.834292
 20
89.534172999999996
 30
0.0
 11
228.834292
 21
93.184173000000001
 31
0.0
  0
LINE
  5
9A
  8
ITEM_50
 10
230.37491600000001
 20
89.534172999999996
 30
0.0
 11
231.78913
 21
88.119958999999994
 31
0.0
  0
CIRCLE
  5
9B
  8
0
 10
210.472261
 20
97.284172999999996
 30
0.0
 40
4.0
  0
LINE
  5
9C
  8
ITEM_50
 10
228.834292
 20
101.384173
 30
0.0
 11
228.834292
 21
105.034173
 31
0.0
  0
LINE
  5
9D
  8
ITEM_50
 10
226.472261
 20
93.184173000000001
 30
0.0
 11
226.472261
 21
101.384173
 31
0.0
  0
LINE
  5
9E
  8
ITEM_50
 10
230.37491600000001
 20
93.184173000000001
 30
0.0
 11
226.472261
 21
93.184173000000001
 31
0.0
  0
LINE
  5
9F
  8
ITEM_50
 10
226.472261
 20
101.384173
 30
0.0
 11
230.37491600000001
 21
101.384173
 31
0.0
  0
LINE
  5
A0
  8
ITEM_50
 10
230.37491600000001
 20
105.034173
 30
0.0
 11
231.78913
 21
106.448386
 31
0.0
  0
LINE
  5
A1
  8
ITEM_50
 10
310.472261
 20
77.284172999999996
 30
0.0
 11
310.472261
 21
117.284173
 31
0.0
  0
LINE
  5
A2
  8
ITEM_50
 10
290.472261
 20
81.284172999999996
 30
0.0
 11
290.472261
 21
113.284173
 31
0.0
  0
ARC
  5
A3
  8
ITEM_50
 10
294.472261
 20
81.284172999999996
 30
0.0
 40
4.0
 50
180.0
 51
270.0
  0
LINE
  5
A4
  8
ITEM_50
 10
288.472261
 20
92.284172999999996
 30
0.0
 11
288.472261
 21
102.284173
 31
0.0
  0
LINE
  5
A5
  8
ITEM_50
 10
290.472261
 20
92.284172999999996
 30
0.0
 11
288.472261
 21
92.284172999999996
 31
0.0
  0
LINE
  5
A6
  8
ITEM_50
 10
288.472261
 20
102.284173
 30
0.0
 11
290.472261
 21
102.284173
 31
0.0
  0
ARC
  5
A7
  8
ITEM_50
 10
294.472261
 20
113.284173
 30
0.0
 40
4.0
 50
90.0
 51
180.0
  0
LINE
  5
A8
  8
0
 10
212.972261
 20
222.0
 30
0.0
 11
212.972261
 21
219.0
 31
0.0
  0
LINE
  5
A9
  8
0
 10
208.972261
 20
219.0
 30
0.0
 11
208.972261
 21
222.0
 31
0.0
  0
ARC
  5
AA
  8
0
 10
309.472261
 20
218.0
 30
0.0
 40
1.0
 50
0.0
 51
90.0
  0
LINE
  5
AB
  8
ITEM_50
 10
310.472261
 20
218.0
 30
0.0
 11
310.472261
 21
159.0
 31
0.0
  0
LINE
  5
AC
  8
ITEM_50
 10
290.472261
 20
163.0
 30
0.0
 11
290.472261
 21
191.0
 31
0.0
  0
LINE
  5
AD
  8
ITEM_50
 10
310.472261
 20
159.0
 30
0.0
 11
294.472261
 21
159.0
 31
0.0
  0
ARC
  5
AE
  8
ITEM_50
 10
294.472261
 20
163.0
 30
0.0
 40
4.0
 50
180.0
 51
270.0
  0
ARC
  5
AF
  8
ITEM_50
 10
282.472261
 20
191.0
 30
0.0
 40
8.0
 50
0.0
 51
90.0
  0
LINE
  5
B0
  8
0
 10
209.972261
 20
223.0
 30
0.0
 11
211.972261
 21
223.0
 31
0.0
  0
LINE
  5
B1
  8
0
 10
197.972261
 20
234.30000000000001
 30
0.0
 11
197.972261
 21
227.0
 31
0.0
  0
ARC
  5
B2
  8
0
 10
209.972261
 20
222.0
 30
0.0
 40
1.0
 50
90.0
 51
180.0
  0
ARC
  5
B3
  8
0
 10
211.972261
 20
222.0
 30
0.0
 40
1.0
 50
0.0
 51
90.0
  0
TEXT
  5
1E0
  8
0
 62
     3
 10
0.0
 20
0.0
 30
0.0
 40
10.0
  1
AFX160
  7
STANDARD1
  0
ENDSEC
  0
EOF
