  0
SECTION
  2
HEADER
  9
$ACADVER
  1
AC1009
  9
$INSBASE
 10
0.0
 20
0.0
 30
0.0
  9
$EXTMIN
 10
-0.0204638472032742
 20
-2.960436562073669
 30
0.0
  9
$EXTMAX
 10
311.51233495769662
 20
215.2341932125679
 30
0.0
  9
$LIMMIN
 10
0.0
 20
0.0
  9
$LIMMAX
 10
375.0
 20
270.0
  9
$ORTHOMODE
 70
     1
  9
$REGENMODE
 70
     1
  9
$FILLMODE
 70
     1
  9
$QTEXTMODE
 70
     0
  9
$MIRRTEXT
 70
     0
  9
$DRAGMODE
 70
     2
  9
$LTSCALE
 40
10.0
  9
$OSMODE
 70
  3071
  9
$ATTMODE
 70
     1
  9
$TEXTSIZE
 40
4.000000000000048
  9
$TRACEWID
 40
0.05
  9
$TEXTSTYLE
  7
STANDARD
  9
$CLAYER
  8
0
  9
$CELTYPE
  6
BYLAYER
  9
$CECOLOR
 62
   256
  9
$DIMSCALE
 40
1.0
  9
$DIMASZ
 40
3.0
  9
$DIMEXO
 40
2.0
  9
$DIMDLI
 40
0.38
  9
$DIMRND
 40
0.0
  9
$DIMDLE
 40
0.0
  9
$DIMEXE
 40
2.0
  9
$DIMTP
 40
0.0
  9
$DIMTM
 40
0.0
  9
$DIMTXT
 40
3.2000000000000002
  9
$DIMCEN
 40
0.0
  9
$DIMTSZ
 40
0.0
  9
$DIMTOL
 70
     0
  9
$DIMLIM
 70
     0
  9
$DIMTIH
 70
     0
  9
$DIMTOH
 70
     0
  9
$DIMSE1
 70
     0
  9
$DIMSE2
 70
     0
  9
$DIMTAD
 70
     1
  9
$DIMZIN
 70
     0
  9
$DIMBLK
  1

  9
$DIMASO
 70
     1
  9
$DIMSHO
 70
     0
  9
$DIMPOST
  1

  9
$DIMAPOST
  1

  9
$DIMALT
 70
     0
  9
$DIMALTD
 70
     2
  9
$DIMALTF
 40
25.399999999999999
  9
$DIMLFAC
 40
1.0
  9
$DIMTOFL
 70
     0
  9
$DIMTVP
 40
1.6000000000000001
  9
$DIMTIX
 70
     1
  9
$DIMSOXD
 70
     0
  9
$DIMSAH
 70
     0
  9
$DIMBLK1
  1

  9
$DIMBLK2
  1

  9
$DIMSTYLE
  2
STANDARD
  9
$DIMCLRD
 70
     4
  9
$DIMCLRE
 70
     4
  9
$DIMCLRT
 70
     4
  9
$DIMTFAC
 40
1.0
  9
$DIMGAP
 40
0.09
  9
$LUNITS
 70
     2
  9
$LUPREC
 70
     1
  9
$SKETCHINC
 40
0.1
  9
$FILLETRAD
 40
0.0
  9
$AUNITS
 70
     0
  9
$AUPREC
 70
     0
  9
$MENU
  1
E:\r13\win\SUPPORT\ACAD
  9
$ELEVATION
 40
0.0
  9
$PELEVATION
 40
0.0
  9
$THICKNESS
 40
0.0
  9
$LIMCHECK
 70
     0
  9
$BLIPMODE
 70
     0
  9
$CHAMFERA
 40
1.1999999999999991
  9
$CHAMFERB
 40
1.1999999999999991
  9
$SKPOLY
 70
     0
  9
$TDCREATE
 40
2449954.6020138888
  9
$TDUPDATE
 40
2456597.4992926158
  9
$TDINDWG
 40
0.001133206
  9
$TDUSRTIMER
 40
0.001133206
  9
$USRTIMER
 70
     1
  9
$ANGBASE
 50
0.0
  9
$ANGDIR
 70
     0
  9
$PDMODE
 70
     0
  9
$PDSIZE
 40
0.0
  9
$PLINEWID
 40
0.0
  9
$COORDS
 70
     1
  9
$SPLFRAME
 70
     0
  9
$SPLINETYPE
 70
     6
  9
$SPLINESEGS
 70
     8
  9
$ATTDIA
 70
     0
  9
$ATTREQ
 70
     1
  9
$HANDLING
 70
     1
  9
$HANDSEED
  5
2E0
  9
$SURFTAB1
 70
     6
  9
$SURFTAB2
 70
     6
  9
$SURFTYPE
 70
     6
  9
$SURFU
 70
     6
  9
$SURFV
 70
     6
  9
$UCSNAME
  2

  9
$UCSORG
 10
0.0
 20
0.0
 30
0.0
  9
$UCSXDIR
 10
1.0
 20
0.0
 30
0.0
  9
$UCSYDIR
 10
0.0
 20
1.0
 30
0.0
  9
$PUCSNAME
  2

  9
$PUCSORG
 10
0.0
 20
0.0
 30
0.0
  9
$PUCSXDIR
 10
1.0
 20
0.0
 30
0.0
  9
$PUCSYDIR
 10
0.0
 20
1.0
 30
0.0
  9
$USERI1
 70
     0
  9
$USERI2
 70
     1
  9
$USERI3
 70
     1
  9
$USERI4
 70
     0
  9
$USERI5
 70
     0
  9
$USERR1
 40
0.0
  9
$USERR2
 40
0.0
  9
$USERR3
 40
0.0
  9
$USERR4
 40
0.0
  9
$USERR5
 40
0.0
  9
$WORLDVIEW
 70
     1
  9
$SHADEDGE
 70
     3
  9
$SHADEDIF
 70
    70
  9
$TILEMODE
 70
     1
  9
$MAXACTVP
 70
    16
  9
$PLIMCHECK
 70
     0
  9
$PEXTMIN
 10
1.0000000000000000E+020
 20
1.0000000000000000E+020
 30
1.0000000000000000E+020
  9
$PEXTMAX
 10
-1.0000000000000000E+020
 20
-1.0000000000000000E+020
 30
-1.0000000000000000E+020
  9
$PLIMMIN
 10
0.0
 20
0.0
  9
$PLIMMAX
 10
12.0
 20
9.0
  9
$UNITMODE
 70
     0
  9
$VISRETAIN
 70
     0
  9
$PLINEGEN
 70
     0
  9
$PSLTSCALE
 70
     0
  0
ENDSEC
  0
SECTION
  2
TABLES
  0
TABLE
  2
VPORT
 70
     1
  0
VPORT
  2
*ACTIVE
 70
     0
 10
0.0
 20
0.0
 11
1.0
 21
1.0
 12
195.04380321732449
 22
133.5127261426681
 13
0.0
 23
0.0
 14
10.0
 24
10.0
 15
10.0
 25
10.0
 16
0.0
 26
0.0
 36
1.0
 17
0.0
 27
0.0
 37
0.0
 40
275.42274993631997
 41
1.831871345029239
 42
50.0
 43
0.0
 44
0.0
 50
0.0
 51
0.0
 71
     0
 72
   500
 73
     1
 74
     0
 75
     0
 76
     0
 77
     0
 78
     2
  0
ENDTAB
  0
TABLE
  2
LTYPE
 70
     3
  0
LTYPE
  2
CONTINUOUS
 70
     0
  3
Solid Line
 72
    65
 73
     0
 40
0.0
  0
LTYPE
  2
CENTER
 70
     0
  3
____ _ ____ _ ____ _ ____ _ ____ _ ____ _ ____
 72
    65
 73
     4
 40
2.0
 49
1.25
 49
-0.25
 49
0.25
 49
-0.25
  0
LTYPE
  2
PHANTOM2
 70
     0
  3
___ _ _ ___ _ _ ___ _ _ ___ _ _
 72
    65
 73
     6
 40
1.25
 49
0.625
 49
-0.125
 49
0.125
 49
-0.125
 49
0.125
 49
-0.125
  0
ENDTAB
  0
TABLE
  2
LAYER
 70
     3
  0
LAYER
  2
0
 70
     0
 62
     7
  6
CONTINUOUS
  0
LAYER
  2
1
 70
     0
 62
     1
  6
CENTER
  0
LAYER
  2
3
 70
     0
 62
     3
  6
CONTINUOUS
  0
ENDTAB
  0
TABLE
  2
STYLE
 70
     2
  0
STYLE
  2
STANDARD
 70
     0
 40
0.0
 41
1.0
 50
0.0
 71
     0
 42
4.000000000000048
  3
SIMPLEX
  4
BIGFONT
  0
STYLE
  2
STANDARD1
 70
     0
 40
0.0
 41
1.0
 50
0.0
 71
     0
 42
3.0
  3
txt
  4

  0
ENDTAB
  0
TABLE
  2
VIEW
 70
     1
  0
VIEW
  2
ALL
 70
     0
 40
270.0
 10
220.78595317725751
 20
135.0
 41
441.57190635451502
 11
0.0
 21
0.0
 31
1.0
 12
0.0
 22
0.0
 32
0.0
 42
50.0
 43
0.0
 44
0.0
 50
0.0
 71
     0
  0
ENDTAB
  0
TABLE
  2
UCS
 70
     0
  0
ENDTAB
  0
TABLE
  2
APPID
 70
     3
  0
APPID
  2
ACAD
 70
     0
  0
APPID
  2
ACAD_MLEADERVER
 70
     0
  0
APPID
  2
ACAD_NAV_VCDISPLAY
 70
     0
  0
ENDTAB
  0
TABLE
  2
DIMSTYLE
 70
     1
  0
DIMSTYLE
  2
STANDARD
 70
     0
  3

  4

  5

  6

  7

 40
1.0
 41
0.18
 42
0.0625
 43
0.38
 44
0.18
 45
0.0
 46
0.0
 47
0.0
 48
0.0
140
0.18
141
0.09
142
0.0
143
25.399999999999999
144
1.0
145
0.0
146
1.0
147
0.09
 71
     0
 72
     0
 73
     1
 74
     1
 75
     0
 76
     0
 77
     0
 78
     0
170
     0
171
     2
172
     0
173
     0
174
     0
175
     0
176
     0
177
     0
178
     0
  0
ENDTAB
  0
ENDSEC
  0
SECTION
  2
BLOCKS
  0
BLOCK
  8
0
  2
$MODEL_SPACE
 70
     0
 10
0.0
 20
0.0
 30
0.0
  3
$MODEL_SPACE
  1

  0
ENDBLK
  5
130
  8
0
  0
BLOCK
 67
     1
  8
0
  2
$PAPER_SPACE
 70
     0
 10
0.0
 20
0.0
 30
0.0
  3
$PAPER_SPACE
  1

  0
ENDBLK
  5
12E
 67
     1
  8
0
  0
ENDSEC
  0
SECTION
  2
ENTITIES
  0
LINE
  5
35
  8
0
 10
168.51233495769651
 20
105.124341144355
 30
0.0
 11
137.51233495769651
 21
105.1243411443554
 31
0.0
  0
LINE
  5
36
  8
0
 10
137.51233495769651
 20
195.2341932125679
 30
0.0
 11
137.51233495769651
 21
210.23419321256799
 31
0.0
  0
LINE
  5
37
  8
0
 10
307.51233495769662
 20
195.2341932125675
 30
0.0
 11
307.51233495769668
 21
210.23419321256759
 31
0.0
  0
LINE
  5
38
  8
1
 10
133.51233495769651
 20
202.7341932125679
 30
0.0
 11
311.51233495769662
 21
202.73419321256759
 31
0.0
  0
LINE
  5
39
  8
1
 10
152.51233495769651
 20
212.2341932125679
 30
0.0
 11
152.51233495769651
 21
193.23419321256779
 31
0.0
  0
LINE
  5
3A
  8
0
 10
156.5123349576964
 20
92.324341144355373
 30
0.0
 11
148.5123349576964
 21
92.324341144355458
 31
0.0
  0
LINE
  5
3B
  8
0
 10
149.71233495769641
 20
91.124341144355441
 30
0.0
 11
148.51233495769651
 21
92.324341144355458
 31
0.0
  0
LINE
  5
3C
  8
0
 10
156.5123349576964
 20
92.324341144355387
 30
0.0
 11
155.31233495769641
 21
91.124341144355427
 31
0.0
  0
LINE
  5
3D
  8
0
 10
156.5123349576964
 20
105.1243411443552
 30
0.0
 11
156.5123349576964
 21
103.7604834279405
 31
0.0
  0
LINE
  5
3E
  8
3
 10
155.83583495769659
 20
105.1243411443552
 30
0.0
 11
155.83583495769659
 21
103.7604834279404
 31
0.0
  0
LINE
  5
3F
  8
3
 10
149.18883495769629
 20
105.1243411443553
 30
0.0
 11
149.18883495769629
 21
103.7604834279404
 31
0.0
  0
LINE
  5
40
  8
0
 10
148.5123349576964
 20
105.1243411443553
 30
0.0
 11
148.5123349576964
 21
103.7604834279404
 31
0.0
  0
LINE
  5
41
  8
0
 10
155.31233495769641
 20
91.124341144355427
 30
0.0
 11
149.71233495769641
 21
91.124341144355441
 31
0.0
  0
LINE
  5
42
  8
0
 10
90.791997780497411
 20
105.1243411443554
 30
0.0
 11
63.791997780497411
 21
105.1243411443554
 31
0.0
  0
LINE
  5
43
  8
0
 10
138.01233495769651
 20
125.1243411443554
 30
0.0
 11
165.57563576918881
 21
148.25269668930719
 31
0.0
  0
LINE
  5
44
  8
0
 10
276.51233495769662
 20
105.1243411443553
 30
0.0
 11
307.51233495769662
 21
105.1243411443554
 31
0.0
  0
LINE
  5
45
  8
1
 10
152.51233495769651
 20
86.124341144355441
 30
0.0
 11
152.51233495769651
 21
143.40726530948029
 31
0.0
  0
ARC
  5
46
  8
0
 10
146.88316983309849
 20
98.693576287692494
 30
0.0
 40
3.3225695729499738
 50
55.615752531959053
 51
115.61575253217551
  0
ARC
  5
47
  8
0
 10
152.51233495769799
 20
89.596702444250099
 30
0.0
 40
12.41944341639239
 50
72.412046226001479
 51
107.5879537740074
  0
LINE
  5
48
  8
0
 10
145.00678145823221
 20
101.4355892770417
 30
0.0
 11
146.26233495769841
 21
102.16048342794051
 31
0.0
  0
LINE
  5
49
  8
0
 10
145.00678145823221
 20
96.385377578839353
 30
0.0
 11
146.26233495769841
 21
95.660483427940534
 31
0.0
  0
ARC
  5
4A
  8
0
 10
146.88316983309849
 20
99.127390568188588
 30
0.0
 40
3.3225695729499738
 50
244.38424746782451
 51
304.384247468041
  0
ARC
  5
4B
  8
0
 10
152.51233495769799
 20
108.2242644116309
 30
0.0
 40
12.41944341639239
 50
252.41204622599261
 51
287.58795377399861
  0
LINE
  5
4C
  8
0
 10
145.00678145823221
 20
101.4355892770417
 30
0.0
 11
145.00678145823221
 21
96.385377578839353
 31
0.0
  0
LINE
  5
4D
  8
0
 10
148.75955820796651
 20
101.4355892770417
 30
0.0
 11
148.7595582079646
 21
96.385377578840888
 31
0.0
  0
LINE
  5
4E
  8
0
 10
156.26511170742771
 20
101.4355892770417
 30
0.0
 11
156.2651117074295
 21
96.385377578840888
 31
0.0
  0
LINE
  5
4F
  8
0
 10
160.017888457162
 20
101.4355892770417
 30
0.0
 11
160.017888457162
 21
96.385377578839353
 31
0.0
  0
ARC
  5
50
  8
0
 10
158.14150008229561
 20
99.127390568188588
 30
0.0
 40
3.3225695729499738
 50
235.615752531959
 51
295.61575253217552
  0
LINE
  5
51
  8
0
 10
160.017888457162
 20
96.385377578839353
 30
0.0
 11
158.76233495769571
 21
95.660483427940534
 31
0.0
  0
LINE
  5
52
  8
0
 10
160.017888457162
 20
101.4355892770417
 30
0.0
 11
158.76233495769571
 21
102.16048342794051
 31
0.0
  0
ARC
  5
53
  8
0
 10
158.14150008229561
 20
98.693576287692494
 30
0.0
 40
3.3225695729499738
 50
64.384247467824522
 51
124.3842474680409
  0
LINE
  5
54
  8
0
 10
158.76233495769571
 20
95.660483427940534
 30
0.0
 11
146.2623349576987
 21
95.660483427940534
 31
0.0
  0
LINE
  5
55
  8
0
 10
144.012334957696
 20
103.7604834279405
 30
0.0
 11
144.012334957696
 21
102.16048342794051
 31
0.0
  0
LINE
  5
56
  8
0
 10
161.01233495769679
 20
103.7604834279405
 30
0.0
 11
161.01233495769679
 21
102.16048342794051
 31
0.0
  0
LINE
  5
57
  8
0
 10
161.01233495769679
 20
102.16048342794051
 30
0.0
 11
144.012334957696
 21
102.16048342794051
 31
0.0
  0
LINE
  5
58
  8
0
 10
161.01233495769679
 20
103.7604834279405
 30
0.0
 11
144.012334957696
 21
103.7604834279405
 31
0.0
  0
LINE
  5
59
  8
0
 10
156.5123349576964
 20
95.660483427940534
 30
0.0
 11
156.5123349576964
 21
92.324341144355387
 31
0.0
  0
LINE
  5
5A
  8
3
 10
155.83583495769659
 20
95.660483427940534
 30
0.0
 11
155.83583495769651
 21
91.64784114435551
 31
0.0
  0
LINE
  5
5B
  8
3
 10
149.18883495769629
 20
95.660483427940534
 30
0.0
 11
149.18883495769629
 21
91.647841144355567
 31
0.0
  0
LINE
  5
5C
  8
0
 10
148.5123349576964
 20
95.660483427940505
 30
0.0
 11
148.51233495769651
 21
92.324341144355458
 31
0.0
  0
LINE
  5
5D
  8
0
 10
288.51233495769668
 20
94.660483427940136
 30
0.0
 11
288.51233495769668
 21
91.32434114435506
 31
0.0
  0
LINE
  5
5E
  8
3
 10
289.1888349576966
 20
94.660483427940164
 30
0.0
 11
289.1888349576966
 21
90.647841144355198
 31
0.0
  0
LINE
  5
5F
  8
3
 10
295.83583495769682
 20
94.660483427940164
 30
0.0
 11
295.83583495769682
 21
90.647841144355141
 31
0.0
  0
LINE
  5
60
  8
0
 10
296.51233495769668
 20
94.660483427940164
 30
0.0
 11
296.51233495769668
 21
91.324341144355003
 31
0.0
  0
LINE
  5
61
  8
0
 10
301.01233495769708
 20
102.7604834279401
 30
0.0
 11
284.01233495769623
 21
102.7604834279401
 31
0.0
  0
LINE
  5
62
  8
0
 10
301.01233495769708
 20
101.16048342794009
 30
0.0
 11
284.01233495769623
 21
101.16048342794009
 31
0.0
  0
LINE
  5
63
  8
0
 10
301.01233495769708
 20
102.7604834279401
 30
0.0
 11
301.01233495769708
 21
101.16048342794009
 31
0.0
  0
LINE
  5
64
  8
0
 10
284.01233495769623
 20
102.7604834279401
 30
0.0
 11
284.01233495769623
 21
101.16048342794009
 31
0.0
  0
LINE
  5
65
  8
0
 10
298.762334957696
 20
94.660483427940164
 30
0.0
 11
286.26233495769901
 21
94.660483427940164
 31
0.0
  0
ARC
  5
66
  8
0
 10
298.14150008229592
 20
97.693576287692125
 30
0.0
 40
3.3225695729499738
 50
64.384247467824522
 51
124.3842474680409
  0
LINE
  5
67
  8
0
 10
300.01788845716231
 20
100.4355892770413
 30
0.0
 11
298.762334957696
 21
101.16048342794009
 31
0.0
  0
LINE
  5
68
  8
0
 10
300.01788845716231
 20
95.385377578838984
 30
0.0
 11
298.762334957696
 21
94.660483427940164
 31
0.0
  0
ARC
  5
69
  8
0
 10
298.14150008229592
 20
98.127390568188218
 30
0.0
 40
3.3225695729499738
 50
235.615752531959
 51
295.61575253217552
  0
LINE
  5
6A
  8
0
 10
300.01788845716231
 20
100.4355892770413
 30
0.0
 11
300.01788845716231
 21
95.385377578838984
 31
0.0
  0
LINE
  5
6B
  8
0
 10
296.26511170742799
 20
100.4355892770413
 30
0.0
 11
296.26511170742981
 21
95.385377578840519
 31
0.0
  0
LINE
  5
6C
  8
0
 10
288.75955820796668
 20
100.4355892770413
 30
0.0
 11
288.75955820796491
 21
95.385377578840519
 31
0.0
  0
LINE
  5
6D
  8
0
 10
285.00678145823252
 20
100.4355892770413
 30
0.0
 11
285.00678145823252
 21
95.385377578838984
 31
0.0
  0
ARC
  5
6E
  8
0
 10
292.51233495769827
 20
107.2242644116306
 30
0.0
 40
12.41944341639239
 50
252.41204622599261
 51
287.58795377399861
  0
ARC
  5
6F
  8
0
 10
286.8831698330988
 20
98.127390568188218
 30
0.0
 40
3.3225695729499738
 50
244.38424746782451
 51
304.384247468041
  0
LINE
  5
70
  8
0
 10
285.00678145823252
 20
95.385377578838984
 30
0.0
 11
286.26233495769873
 21
94.660483427940164
 31
0.0
  0
LINE
  5
71
  8
0
 10
285.00678145823252
 20
100.4355892770413
 30
0.0
 11
286.26233495769873
 21
101.16048342794009
 31
0.0
  0
ARC
  5
72
  8
0
 10
292.51233495769827
 20
88.596702444249729
 30
0.0
 40
12.41944341639239
 50
72.412046226001479
 51
107.5879537740074
  0
ARC
  5
73
  8
0
 10
286.8831698330988
 20
97.693576287692125
 30
0.0
 40
3.3225695729499738
 50
55.615752531959053
 51
115.61575253217551
  0
LINE
  5
74
  8
0
 10
295.31233495769669
 20
90.124341144355014
 30
0.0
 11
289.71233495769673
 21
90.124341144355071
 31
0.0
  0
LINE
  5
75
  8
0
 10
296.51233495769668
 20
91.324341144355003
 30
0.0
 11
295.31233495769669
 21
90.124341144355014
 31
0.0
  0
LINE
  5
76
  8
0
 10
289.71233495769673
 20
90.124341144355071
 30
0.0
 11
288.51233495769668
 21
91.32434114435506
 31
0.0
  0
LINE
  5
77
  8
0
 10
296.51233495769668
 20
91.324341144355003
 30
0.0
 11
288.51233495769668
 21
91.32434114435506
 31
0.0
  0
LINE
  5
78
  8
0
 10
288.51233495769668
 20
105.1243411443553
 30
0.0
 11
288.51233495769668
 21
102.7604834279401
 31
0.0
  0
LINE
  5
79
  8
3
 10
289.1888349576966
 20
105.1243411443553
 30
0.0
 11
289.1888349576966
 21
102.7604834279401
 31
0.0
  0
LINE
  5
7A
  8
3
 10
295.83583495769682
 20
105.1243411443554
 30
0.0
 11
295.83583495769682
 21
102.7604834279401
 31
0.0
  0
LINE
  5
7B
  8
0
 10
296.51233495769668
 20
105.1243411443554
 30
0.0
 11
296.51233495769668
 21
102.7604834279401
 31
0.0
  0
LINE
  5
7C
  8
0
 10
81.291997780497411
 20
105.1243411443554
 30
0.0
 11
81.291997780497411
 21
103.7604834279401
 31
0.0
  0
LINE
  5
7D
  8
3
 10
80.615497780497506
 20
105.1243411443554
 30
0.0
 11
80.615497780497506
 21
103.7604834279401
 31
0.0
  0
LINE
  5
7E
  8
3
 10
73.968497780497273
 20
105.1243411443553
 30
0.0
 11
73.968497780497273
 21
103.7604834279401
 31
0.0
  0
LINE
  5
7F
  8
0
 10
73.291997780497411
 20
105.1243411443553
 30
0.0
 11
73.291997780497411
 21
103.7604834279401
 31
0.0
  0
LINE
  5
80
  8
0
 10
81.291997780497411
 20
92.324341144355003
 30
0.0
 11
73.291997780497354
 21
92.324341144355046
 31
0.0
  0
LINE
  5
81
  8
0
 10
74.4919977804974
 20
91.124341144355057
 30
0.0
 11
73.291997780497411
 21
92.324341144355046
 31
0.0
  0
LINE
  5
82
  8
0
 10
81.291997780497411
 20
92.324341144355003
 30
0.0
 11
80.091997780497422
 21
91.124341144355014
 31
0.0
  0
LINE
  5
83
  8
0
 10
80.091997780497422
 20
91.124341144355014
 30
0.0
 11
74.4919977804974
 21
91.124341144355057
 31
0.0
  0
LINE
  5
84
  8
0
 10
68.791997780496899
 20
103.7604834279401
 30
0.0
 11
68.791997780496899
 21
102.16048342794009
 31
0.0
  0
LINE
  5
85
  8
0
 10
85.791997780497809
 20
103.7604834279401
 30
0.0
 11
85.791997780497809
 21
102.16048342794009
 31
0.0
  0
LINE
  5
86
  8
0
 10
85.791997780497809
 20
102.16048342794009
 30
0.0
 11
68.791997780496899
 21
102.16048342794009
 31
0.0
  0
LINE
  5
87
  8
0
 10
85.791997780497809
 20
103.7604834279401
 30
0.0
 11
68.791997780496899
 21
103.7604834279401
 31
0.0
  0
LINE
  5
88
  8
0
 10
81.291997780497411
 20
95.660483427940164
 30
0.0
 11
81.291997780497411
 21
92.324341144355003
 31
0.0
  0
LINE
  5
89
  8
3
 10
80.615497780497506
 20
95.660483427940164
 30
0.0
 11
80.615497780497506
 21
91.647841144355141
 31
0.0
  0
LINE
  5
8A
  8
3
 10
73.968497780497273
 20
95.660483427940164
 30
0.0
 11
73.968497780497273
 21
91.647841144355183
 31
0.0
  0
LINE
  5
8B
  8
0
 10
73.291997780497411
 20
95.660483427940136
 30
0.0
 11
73.291997780497411
 21
92.324341144355046
 31
0.0
  0
LINE
  5
8C
  8
0
 10
83.791997780497127
 20
102.0161458606421
 30
0.0
 11
83.54199778049599
 21
102.16048342794009
 31
0.0
  0
ARC
  5
8D
  8
0
 10
80.541997780497127
 20
92.6289937253934
 30
0.0
 40
9.3871521352487513
 50
69.743841999582827
 51
110.2561580004171
  0
ARC
  5
8E
  8
0
 10
80.541997780497127
 20
105.1919731304869
 30
0.0
 40
9.3871521352487513
 50
249.7438419995828
 51
290.25615800041709
  0
LINE
  5
8F
  8
0
 10
83.791997780497127
 20
95.804820995238231
 30
0.0
 11
83.54199778049599
 21
95.660483427940164
 31
0.0
  0
LINE
  5
90
  8
0
 10
83.791997780497127
 20
102.0161458606421
 30
0.0
 11
83.791997780497127
 21
95.804820995238231
 31
0.0
  0
LINE
  5
91
  8
0
 10
77.291997780497354
 20
101.4355892770409
 30
0.0
 11
77.291997780497354
 21
96.385377578838984
 31
0.0
  0
LINE
  5
92
  8
0
 10
70.791997780497582
 20
102.0161458606421
 30
0.0
 11
70.791997780497582
 21
95.804820995238231
 31
0.0
  0
LINE
  5
93
  8
0
 10
70.791997780497582
 20
95.804820995238231
 30
0.0
 11
71.041997780498718
 21
95.660483427940164
 31
0.0
  0
ARC
  5
94
  8
0
 10
74.041997780497582
 20
105.1919731304869
 30
0.0
 40
9.3871521352487513
 50
249.7438419995828
 51
290.25615800041709
  0
ARC
  5
95
  8
0
 10
74.041997780497582
 20
92.6289937253934
 30
0.0
 40
9.3871521352487513
 50
69.743841999582827
 51
110.2561580004171
  0
LINE
  5
96
  8
0
 10
70.791997780497582
 20
102.0161458606421
 30
0.0
 11
71.041997780498718
 21
102.16048342794009
 31
0.0
  0
LINE
  5
97
  8
0
 10
71.041997780498718
 20
102.16048342794009
 30
0.0
 11
83.54199778049599
 21
102.16048342794009
 31
0.0
  0
LINE
  5
98
  8
0
 10
83.54199778049599
 20
95.660483427940164
 30
0.0
 11
71.041997780498718
 21
95.660483427940164
 31
0.0
  0
CIRCLE
  5
99
  8
0
 10
152.51233495769651
 20
202.7341932125679
 30
0.0
 40
6.7499999999997717
  0
CIRCLE
  5
9A
  8
0
 10
152.51233495769651
 20
202.7341932125679
 30
0.0
 40
5.6339745962155803
  0
LINE
  5
9B
  8
0
 10
154.24438576526509
 20
199.73419321256819
 30
0.0
 11
155.97643657283399
 21
202.73419321256819
 31
0.0
  0
LINE
  5
9C
  8
0
 10
155.97643657283399
 20
202.73419321256819
 30
0.0
 11
154.24438576526509
 21
205.7341932125679
 31
0.0
  0
LINE
  5
9D
  8
0
 10
154.24438576526509
 20
205.7341932125679
 30
0.0
 11
150.78028415012679
 21
205.7341932125679
 31
0.0
  0
LINE
  5
9E
  8
0
 10
150.78028415012679
 20
205.7341932125679
 30
0.0
 11
149.04823334255849
 21
202.7341932125679
 31
0.0
  0
LINE
  5
9F
  8
0
 10
149.04823334255849
 20
202.7341932125679
 30
0.0
 11
150.7802841501279
 21
199.7341932125675
 31
0.0
  0
LINE
  5
A0
  8
0
 10
150.7802841501279
 20
199.7341932125675
 30
0.0
 11
154.24438576526509
 21
199.73419321256819
 31
0.0
  0
CIRCLE
  5
A1
  8
0
 10
152.51233495769651
 20
202.7341932125679
 30
0.0
 40
6.5
  0
CIRCLE
  5
A2
  8
0
 10
292.51233495769662
 20
202.7341932125679
 30
0.0
 40
6.5
  0
LINE
  5
A3
  8
0
 10
294.24438576526518
 20
199.7341932125675
 30
0.0
 11
290.7802841501279
 21
199.73419321256819
 31
0.0
  0
LINE
  5
A4
  8
0
 10
295.97643657283447
 20
202.7341932125679
 30
0.0
 11
294.24438576526518
 21
199.7341932125675
 31
0.0
  0
LINE
  5
A5
  8
0
 10
294.2443857652662
 20
205.7341932125679
 30
0.0
 11
295.97643657283447
 21
202.7341932125679
 31
0.0
  0
LINE
  5
A6
  8
0
 10
290.7802841501279
 20
205.7341932125679
 30
0.0
 11
294.2443857652662
 21
205.7341932125679
 31
0.0
  0
LINE
  5
A7
  8
0
 10
289.048233342559
 20
202.73419321256819
 30
0.0
 11
290.7802841501279
 21
205.7341932125679
 31
0.0
  0
LINE
  5
A8
  8
0
 10
290.7802841501279
 20
199.73419321256819
 30
0.0
 11
289.048233342559
 21
202.73419321256819
 31
0.0
  0
CIRCLE
  5
A9
  8
0
 10
292.51233495769662
 20
202.7341932125679
 30
0.0
 40
5.6339745962155803
  0
CIRCLE
  5
AA
  8
0
 10
292.51233495769662
 20
202.7341932125679
 30
0.0
 40
6.7499999999997717
  0
LINE
  5
AB
  8
1
 10
292.51233495769662
 20
212.2341932125679
 30
0.0
 11
292.51233495769662
 21
193.23419321256779
 31
0.0
  0
LINE
  5
AC
  8
0
 10
142.51233495769651
 20
190.2341932125679
 30
0.0
 11
302.51233495769662
 21
190.23419321256759
 31
0.0
  0
LINE
  5
AD
  8
0
 10
142.51233495769651
 20
215.2341932125679
 30
0.0
 11
302.51233495769668
 21
215.23419321256759
 31
0.0
  0
ARC
  5
AE
  8
0
 10
302.51233495769668
 20
210.23419321256759
 30
0.0
 40
5.0
 50
359.99999999999977
 51
89.999999999999915
  0
ARC
  5
AF
  8
0
 10
302.51233495769662
 20
195.23419321256759
 30
0.0
 40
5.0
 50
269.99999999999989
 51
359.9999999999996
  0
ARC
  5
B0
  8
0
 10
142.51233495769651
 20
210.2341932125679
 30
0.0
 40
5.0
 50
89.999999999999915
 51
179.9999999999998
  0
ARC
  5
B1
  8
0
 10
142.51233495769651
 20
195.2341932125679
 30
0.0
 40
5.0
 50
179.9999999999998
 51
269.99999999999989
  0
LINE
  5
B2
  8
0
 10
137.51233495769651
 20
105.1243411443554
 30
0.0
 11
137.51233495769651
 21
123.6243411443554
 31
0.0
  0
LINE
  5
B3
  8
0
 10
170.7179366466811
 20
150.1243411443553
 30
0.0
 11
274.30673326871192
 21
150.1243411443553
 31
0.0
  0
LINE
  5
B4
  8
0
 10
168.51233495769651
 20
105.1243411443554
 30
0.0
 11
168.51233495769651
 21
120.8982643007464
 31
0.0
  0
LINE
  5
B5
  8
0
 10
186.31794972420801
 20
138.1243411443553
 30
0.0
 11
258.70672019118501
 21
138.1243411443553
 31
0.0
  0
ARC
  5
B6
  8
0
 10
186.31794972420801
 20
118.1243411443553
 30
0.0
 40
20.0
 50
90.0
 51
127.15859741608109
  0
ARC
  5
B7
  8
0
 10
186.51233495769651
 20
120.8982643007464
 30
0.0
 40
18.0
 50
132.9951354161872
 51
180.0
  0
ARC
  5
B8
  8
0
 10
210.01233495769651
 20
96.061841144354915
 30
0.0
 40
40.062500000000469
 50
71.819446158355603
 51
108.1805538416444
  0
ARC
  5
B9
  8
0
 10
235.01233495769659
 20
96.061841144354915
 30
0.0
 40
40.062500000000469
 50
71.819446158355603
 51
108.1805538416444
  0
ARC
  5
BA
  8
0
 10
183.97465667968191
 20
107.36550420555081
 30
0.0
 40
29.988399214972361
 50
63.1644990686734
 51
94.789810164722056
  0
ARC
  5
BB
  8
0
 10
182.30561296110611
 20
127.2840984391455
 30
0.0
 40
10.0
 50
94.789810164721999
 51
113.65532422162291
  0
LINE
  5
BC
  8
0
 10
87.791997780497425
 20
150.12434114435541
 30
0.0
 11
66.791997780497439
 21
150.12434114435541
 31
0.0
  0
LINE
  5
BD
  8
0
 10
65.242025535148485
 20
148.62517378388671
 30
0.0
 11
63.791997780497411
 21
105.1243411443554
 31
0.0
  0
LINE
  5
BE
  8
0
 10
89.341970025846365
 20
148.62517378388671
 30
0.0
 11
90.791997780497439
 21
105.1243411443554
 31
0.0
  0
LINE
  5
BF
  8
0
 10
85.005887440562873
 20
123.6243411443554
 30
0.0
 11
69.578108120431978
 21
123.6243411443554
 31
0.0
  0
LINE
  5
C0
  8
0
 10
85.005887440562873
 20
125.1243411443554
 30
0.0
 11
69.578108120431978
 21
125.1243411443554
 31
0.0
  0
LINE
  5
C1
  8
0
 10
87.791997780497425
 20
150.12434114435541
 30
0.0
 11
89.341970025846365
 21
148.62517378388671
 31
0.0
  0
LINE
  5
C2
  8
0
 10
66.791997780497439
 20
150.12434114435541
 30
0.0
 11
65.242025535148485
 21
148.62517378388671
 31
0.0
  0
LINE
  5
C3
  8
0
 10
66.792830882477801
 20
150.12434114435541
 30
0.0
 11
66.080050946004917
 21
128.74094305016959
 31
0.0
  0
LINE
  5
C4
  8
0
 10
87.791164678517049
 20
150.12434114435541
 30
0.0
 11
88.503944614989933
 21
128.74094305016959
 31
0.0
  0
ARC
  5
C5
  8
0
 10
69.578108120431978
 20
128.6243411443555
 30
0.0
 40
5.0
 50
178.09084756700361
 51
269.99999999999989
  0
ARC
  5
C6
  8
0
 10
85.005887440562873
 20
128.62434114435541
 30
0.0
 40
5.0
 50
269.99999999999989
 51
1.9091524329963769
  0
ARC
  5
C7
  8
0
 10
69.578108120431978
 20
128.6243411443555
 30
0.0
 40
3.5
 50
178.09084756700361
 51
269.99999999999989
  0
ARC
  5
C8
  8
0
 10
85.005887440562873
 20
128.62434114435541
 30
0.0
 40
3.5
 50
269.99999999999989
 51
1.9091524329963769
  0
POLYLINE
  5
C9
  8
0
 66
     1
 10
0.0
 20
0.0
 30
0.0
 70
     1
  0
VERTEX
  5
CA
  8
0
 10
84.041997780497354
 20
137.291285796426
 30
0.0
 42
0.1151415934210876
  0
VERTEX
  5
CB
  8
0
 10
83.548214003817833
 20
139.40710415994511
 30
0.0
 42
0.1039008669419206
  0
VERTEX
  5
CC
  8
0
 10
82.064968553506546
 20
141.29628381167799
 30
0.0
 42
0.0911578734171793
 70
     2
 50
139.99999999999949
  0
VERTEX
  5
CD
  8
0
 10
79.926077698104592
 20
142.51049713773671
 30
0.0
 42
0.0838217899890507
 50
139.99999999999949
  0
VERTEX
  5
CE
  8
0
 10
77.291997780497383
 20
142.95520830687269
 30
0.0
 42
0.0838217899890525
  0
VERTEX
  5
CF
  8
0
 10
74.65791786289023
 20
142.51049713773671
 30
0.0
 42
0.091157873417185
  0
VERTEX
  5
D0
  8
0
 10
72.519027007488205
 20
141.29628381167799
 30
0.0
 42
0.103900866941921
 70
     2
 50
220.0000000000004
  0
VERTEX
  5
D1
  8
0
 10
71.035781557176904
 20
139.40710415994499
 30
0.0
 42
0.115141593421081
 50
220.0000000000004
  0
VERTEX
  5
D2
  8
0
 10
70.541997780497411
 20
137.291285796426
 30
0.0
 42
0.1151415934210857
  0
VERTEX
  5
D3
  8
0
 10
71.035781557176932
 20
135.17546743290711
 30
0.0
 42
0.103900866941927
  0
VERTEX
  5
D4
  8
0
 10
72.519027007488205
 20
133.286287781174
 30
0.0
 42
0.0911578734171843
 70
     2
 50
319.9999999999996
  0
VERTEX
  5
D5
  8
0
 10
74.657917862890287
 20
132.07207445511531
 30
0.0
 42
0.0838217899890486
 50
319.9999999999996
  0
VERTEX
  5
D6
  8
0
 10
77.291997780497383
 20
131.6273632859793
 30
0.0
 42
0.083821789989052
  0
VERTEX
  5
D7
  8
0
 10
79.926077698104564
 20
132.07207445511531
 30
0.0
 42
0.0911578734171836
  0
VERTEX
  5
D8
  8
0
 10
82.064968553506546
 20
133.286287781174
 30
0.0
 42
0.1039008669419209
 70
     2
 50
40.000000000000412
  0
VERTEX
  5
D9
  8
0
 10
83.548214003817847
 20
135.17546743290711
 30
0.0
 42
0.115141593421081
 50
40.000000000000412
  0
SEQEND
  5
DA
  8
0
  0
LINE
  5
DB
  8
1
 10
77.291997780497439
 20
155.12434114435541
 30
0.0
 11
77.291997780497098
 21
86.124341144355043
 31
0.0
  0
LINE
  5
DC
  8
1
 10
65.541997780497411
 20
137.291285796426
 30
0.0
 11
89.041997780497354
 21
137.291285796426
 31
0.0
  0
LINE
  5
DD
  8
0
 10
138.01233495769651
 20
125.1243411443554
 30
0.0
 11
137.51233495769651
 21
123.6243411443554
 31
0.0
  0
ARC
  5
DE
  8
0
 10
170.7179366466811
 20
142.1243411443553
 30
0.0
 40
8.0
 50
90.0
 51
130.0000000000002
  0
ARC
  5
DF
  8
0
 10
262.71905695428688
 20
127.2840984391455
 30
0.0
 40
10.0
 50
66.344675778377052
 51
85.210189835277987
  0
ARC
  5
E0
  8
0
 10
261.05001323571111
 20
107.36550420555081
 30
0.0
 40
29.988399214972361
 50
85.210189835277944
 51
116.83550093132661
  0
ARC
  5
E1
  8
0
 10
235.0123349576964
 20
96.061841144354915
 30
0.0
 40
40.062500000000469
 50
71.819446158355603
 51
108.1805538416444
  0
ARC
  5
E2
  8
0
 10
258.51233495769662
 20
120.8982643007464
 30
0.0
 40
18.0
 50
0.0
 51
47.004864583812797
  0
ARC
  5
E3
  8
0
 10
258.70672019118501
 20
118.1243411443553
 30
0.0
 40
20.0
 50
52.841402583918871
 51
90.0
  0
ARC
  5
E4
  8
0
 10
274.30673326871192
 20
142.1243411443553
 30
0.0
 40
8.0
 50
49.999999999999837
 51
90.0
  0
LINE
  5
E5
  8
0
 10
307.01233495769662
 20
125.1243411443554
 30
0.0
 11
279.44903414620421
 21
148.25269668930719
 31
0.0
  0
LINE
  5
E6
  8
0
 10
307.01233495769662
 20
125.1243411443554
 30
0.0
 11
307.51233495769662
 21
123.6243411443554
 31
0.0
  0
LINE
  5
E7
  8
0
 10
307.51233495769662
 20
105.1243411443554
 30
0.0
 11
307.51233495769662
 21
123.6243411443554
 31
0.0
  0
LINE
  5
E8
  8
0
 10
276.51233495769662
 20
105.1243411443554
 30
0.0
 11
276.51233495769662
 21
120.8982643007464
 31
0.0
  0
LINE
  5
E9
  8
1
 10
292.51233495769662
 20
86.124341144355441
 30
0.0
 11
292.51233495769662
 21
143.40726530948029
 31
0.0
  0
LINE
  5
EA
  8
0
 10
142.51233495769651
 20
213.7341932125679
 30
0.0
 11
302.51233495769668
 21
213.73419321256759
 31
0.0
  0
ARC
  5
EB
  8
0
 10
142.51233495769651
 20
210.2341932125679
 30
0.0
 40
3.5
 50
89.999999999999915
 51
179.9999999999998
  0
LINE
  5
EC
  8
0
 10
139.01233495769651
 20
195.2341932125679
 30
0.0
 11
139.01233495769651
 21
210.23419321256799
 31
0.0
  0
ARC
  5
ED
  8
0
 10
142.51233495769651
 20
195.2341932125679
 30
0.0
 40
3.5
 50
179.9999999999998
 51
269.99999999999989
  0
LINE
  5
EE
  8
0
 10
142.51233495769651
 20
191.7341932125679
 30
0.0
 11
302.51233495769662
 21
191.73419321256759
 31
0.0
  0
ARC
  5
EF
  8
0
 10
302.51233495769668
 20
210.23419321256759
 30
0.0
 40
3.5
 50
359.99999999999977
 51
89.999999999999915
  0
LINE
  5
F0
  8
0
 10
306.01233495769651
 20
195.2341932125675
 30
0.0
 11
306.01233495769668
 21
210.23419321256759
 31
0.0
  0
ARC
  5
F1
  8
0
 10
302.51233495769662
 20
195.23419321256759
 30
0.0
 40
3.5
 50
269.99999999999989
 51
359.9999999999996
  0
LINE
  5
F2
  8
0
 10
142.01233495769651
 20
214.2341932125679
 30
0.0
 11
303.01233495769662
 21
214.23419321256759
 31
0.0
  0
LINE
  5
F3
  8
0
 10
170.7179366466811
 20
148.6243411443553
 30
0.0
 11
274.30673326871192
 21
148.6243411443553
 31
0.0
  0
ARC
  5
F4
  8
0
 10
274.30673326871192
 20
142.1243411443553
 30
0.0
 40
6.5
 50
49.999999999999837
 51
90.0
  0
LINE
  5
F5
  8
0
 10
307.51233495769662
 20
122.7466803947683
 30
0.0
 11
278.48485273167438
 21
147.1036300246287
 31
0.0
  0
LINE
  5
F6
  8
0
 10
138.01233495769651
 20
195.23419321256779
 30
0.0
 11
138.01233495769651
 21
210.2341932125679
 31
0.0
  0
ARC
  5
F7
  8
0
 10
142.01233495769651
 20
210.2341932125679
 30
0.0
 40
4.0
 50
89.999999999999886
 51
180.0
  0
LINE
  5
F8
  8
0
 10
142.01233495769651
 20
191.2341932125677
 30
0.0
 11
303.01233495769662
 21
191.2341932125681
 31
0.0
  0
ARC
  5
F9
  8
0
 10
142.01233495769651
 20
195.23419321256779
 30
0.0
 40
4.0
 50
180.0
 51
270.00000000000011
  0
ARC
  5
FA
  8
0
 10
303.01233495769662
 20
210.2341932125679
 30
0.0
 40
4.0
 50
0.0
 51
90.000000000000099
  0
LINE
  5
FB
  8
0
 10
307.01233495769662
 20
195.23419321256779
 30
0.0
 11
307.01233495769662
 21
210.2341932125679
 31
0.0
  0
ARC
  5
FC
  8
0
 10
303.01233495769662
 20
195.23419321256779
 30
0.0
 40
4.0
 50
269.99999999999989
 51
0.0
  0
ARC
  5
FD
  8
0
 10
170.7179366466809
 20
142.1243411443553
 30
0.0
 40
6.5
 50
90.0
 51
130.0000000000002
  0
LINE
  5
FE
  8
0
 10
137.51233495769631
 20
122.7466803947683
 30
0.0
 11
166.53981718371841
 21
147.1036300246287
 31
0.0
  0
TEXT
  5
252
  8
0
 62
     3
 10
0.0
 20
0.0
 30
0.0
 40
10.0
  1
AG1-140
  7
STANDARD1
  0
ENDSEC
  0
EOF
