  0
SECTION
  2
HEADER
  9
$ACADVER
  1
AC1009
  9
$INSBASE
 10
0.0
 20
0.0
 30
0.0
  9
$EXTMIN
 10
-0.0204638472032742
 20
-2.960436562073669
 30
0.0
  9
$EXTMAX
 10
355.3230223787005
 20
210.09442446043161
 30
0.0
  9
$LIMMIN
 10
0.0
 20
0.0
  9
$LIMMAX
 10
375.0
 20
270.0
  9
$ORTHOMODE
 70
     1
  9
$REGENMODE
 70
     1
  9
$FILLMODE
 70
     1
  9
$QTEXTMODE
 70
     0
  9
$MIRRTEXT
 70
     0
  9
$DRAGMODE
 70
     2
  9
$LTSCALE
 40
10.0
  9
$OSMODE
 70
  3071
  9
$ATTMODE
 70
     1
  9
$TEXTSIZE
 40
0.2
  9
$TRACEWID
 40
0.05
  9
$TEXTSTYLE
  7
STANDARD
  9
$CLAYER
  8
0
  9
$CELTYPE
  6
BYLAYER
  9
$CECOLOR
 62
   256
  9
$DIMSCALE
 40
1.0
  9
$DIMASZ
 40
3.0
  9
$DIMEXO
 40
2.0
  9
$DIMDLI
 40
0.38
  9
$DIMRND
 40
0.0
  9
$DIMDLE
 40
0.0
  9
$DIMEXE
 40
2.0
  9
$DIMTP
 40
0.0
  9
$DIMTM
 40
0.0
  9
$DIMTXT
 40
3.0
  9
$DIMCEN
 40
0.0
  9
$DIMTSZ
 40
0.0
  9
$DIMTOL
 70
     0
  9
$DIMLIM
 70
     0
  9
$DIMTIH
 70
     0
  9
$DIMTOH
 70
     0
  9
$DIMSE1
 70
     0
  9
$DIMSE2
 70
     0
  9
$DIMTAD
 70
     1
  9
$DIMZIN
 70
     0
  9
$DIMBLK
  1

  9
$DIMASO
 70
     0
  9
$DIMSHO
 70
     0
  9
$DIMPOST
  1

  9
$DIMAPOST
  1

  9
$DIMALT
 70
     0
  9
$DIMALTD
 70
     2
  9
$DIMALTF
 40
25.399999999999999
  9
$DIMLFAC
 40
1.0
  9
$DIMTOFL
 70
     1
  9
$DIMTVP
 40
1.6000000000000001
  9
$DIMTIX
 70
     1
  9
$DIMSOXD
 70
     0
  9
$DIMSAH
 70
     0
  9
$DIMBLK1
  1

  9
$DIMBLK2
  1

  9
$DIMSTYLE
  2
STANDARD
  9
$DIMCLRD
 70
     0
  9
$DIMCLRE
 70
     0
  9
$DIMCLRT
 70
     0
  9
$DIMTFAC
 40
1.0
  9
$DIMGAP
 40
0.09
  9
$LUNITS
 70
     2
  9
$LUPREC
 70
     4
  9
$SKETCHINC
 40
0.1
  9
$FILLETRAD
 40
0.0
  9
$AUNITS
 70
     0
  9
$AUPREC
 70
     4
  9
$MENU
  1
E:\r13\win\SUPPORT\ACAD
  9
$ELEVATION
 40
0.0
  9
$PELEVATION
 40
0.0
  9
$THICKNESS
 40
0.0
  9
$LIMCHECK
 70
     0
  9
$BLIPMODE
 70
     0
  9
$CHAMFERA
 40
0.0
  9
$CHAMFERB
 40
0.0
  9
$SKPOLY
 70
     0
  9
$TDCREATE
 40
2449840.6294097221
  9
$TDUPDATE
 40
2456597.499786736
  9
$TDINDWG
 40
0.0077338773
  9
$TDUSRTIMER
 40
0.0077338773
  9
$USRTIMER
 70
     1
  9
$ANGBASE
 50
0.0
  9
$ANGDIR
 70
     0
  9
$PDMODE
 70
     0
  9
$PDSIZE
 40
0.0
  9
$PLINEWID
 40
0.0
  9
$COORDS
 70
     1
  9
$SPLFRAME
 70
     0
  9
$SPLINETYPE
 70
     6
  9
$SPLINESEGS
 70
     8
  9
$ATTDIA
 70
     0
  9
$ATTREQ
 70
     1
  9
$HANDLING
 70
     1
  9
$HANDSEED
  5
345
  9
$SURFTAB1
 70
     6
  9
$SURFTAB2
 70
     6
  9
$SURFTYPE
 70
     6
  9
$SURFU
 70
     6
  9
$SURFV
 70
     6
  9
$UCSNAME
  2

  9
$UCSORG
 10
0.0
 20
0.0
 30
0.0
  9
$UCSXDIR
 10
1.0
 20
0.0
 30
0.0
  9
$UCSYDIR
 10
0.0
 20
1.0
 30
0.0
  9
$PUCSNAME
  2

  9
$PUCSORG
 10
0.0
 20
0.0
 30
0.0
  9
$PUCSXDIR
 10
1.0
 20
0.0
 30
0.0
  9
$PUCSYDIR
 10
0.0
 20
1.0
 30
0.0
  9
$USERI1
 70
     0
  9
$USERI2
 70
     1
  9
$USERI3
 70
     1
  9
$USERI4
 70
     0
  9
$USERI5
 70
     0
  9
$USERR1
 40
0.0
  9
$USERR2
 40
0.0
  9
$USERR3
 40
0.0
  9
$USERR4
 40
0.0
  9
$USERR5
 40
0.0
  9
$WORLDVIEW
 70
     1
  9
$SHADEDGE
 70
     3
  9
$SHADEDIF
 70
    70
  9
$TILEMODE
 70
     1
  9
$MAXACTVP
 70
    16
  9
$PLIMCHECK
 70
     0
  9
$PEXTMIN
 10
1.0000000000000000E+020
 20
1.0000000000000000E+020
 30
1.0000000000000000E+020
  9
$PEXTMAX
 10
-1.0000000000000000E+020
 20
-1.0000000000000000E+020
 30
-1.0000000000000000E+020
  9
$PLIMMIN
 10
0.0
 20
0.0
  9
$PLIMMAX
 10
12.0
 20
9.0
  9
$UNITMODE
 70
     0
  9
$VISRETAIN
 70
     0
  9
$PLINEGEN
 70
     0
  9
$PSLTSCALE
 70
     0
  0
ENDSEC
  0
SECTION
  2
TABLES
  0
TABLE
  2
VPORT
 70
     1
  0
VPORT
  2
*ACTIVE
 70
     0
 10
0.0
 20
0.0
 11
1.0
 21
1.0
 12
195.04380321732449
 22
133.5127261426681
 13
0.0
 23
0.0
 14
10.0
 24
10.0
 15
10.0
 25
10.0
 16
0.0
 26
0.0
 36
1.0
 17
0.0
 27
0.0
 37
0.0
 40
275.42274993631997
 41
1.831871345029239
 42
50.0
 43
0.0
 44
0.0
 50
0.0
 51
0.0
 71
     0
 72
   500
 73
     1
 74
     0
 75
     0
 76
     0
 77
     0
 78
     2
  0
ENDTAB
  0
TABLE
  2
LTYPE
 70
     3
  0
LTYPE
  2
CONTINUOUS
 70
     0
  3
Solid Line
 72
    65
 73
     0
 40
0.0
  0
LTYPE
  2
CENTER
 70
     0
  3
____ _ ____ _ ____ _ ____ _ ____ _ ____ _ ____
 72
    65
 73
     4
 40
2.0
 49
1.25
 49
-0.25
 49
0.25
 49
-0.25
  0
LTYPE
  2
PHANTOM2
 70
     0
  3
___ _ _ ___ _ _ ___ _ _ ___ _ _
 72
    65
 73
     6
 40
1.25
 49
0.625
 49
-0.125
 49
0.125
 49
-0.125
 49
0.125
 49
-0.125
  0
ENDTAB
  0
TABLE
  2
LAYER
 70
     2
  0
LAYER
  2
0
 70
     0
 62
     7
  6
CONTINUOUS
  0
LAYER
  2
1
 70
     0
 62
     1
  6
CENTER
  0
ENDTAB
  0
TABLE
  2
STYLE
 70
     2
  0
STYLE
  2
STANDARD
 70
     0
 40
0.0
 41
1.0
 50
0.0
 71
     0
 42
0.2
  3
TXT
  4
BIGFONT
  0
STYLE
  2
STANDARD1
 70
     0
 40
0.0
 41
1.0
 50
0.0
 71
     0
 42
3.0
  3
txt
  4

  0
ENDTAB
  0
TABLE
  2
VIEW
 70
     1
  0
VIEW
  2
ALL
 70
     0
 40
270.0
 10
220.99159663865549
 20
135.0
 41
0.0
 11
0.0
 21
0.0
 31
1.0
 12
0.0
 22
0.0
 32
0.0
 42
0.0
 43
0.0
 44
0.0
 50
0.0
 71
     0
  0
ENDTAB
  0
TABLE
  2
UCS
 70
     0
  0
ENDTAB
  0
TABLE
  2
APPID
 70
     4
  0
APPID
  2
ACAD
 70
     0
  0
APPID
  2
DCO15
 70
     0
  0
APPID
  2
ACAD_MLEADERVER
 70
     0
  0
APPID
  2
ACAD_NAV_VCDISPLAY
 70
     0
  0
ENDTAB
  0
TABLE
  2
DIMSTYLE
 70
     1
  0
DIMSTYLE
  2
STANDARD
 70
     0
  3

  4

  5

  6

  7

 40
1.0
 41
0.18
 42
0.0625
 43
0.38
 44
0.18
 45
0.0
 46
0.0
 47
0.0
 48
0.0
140
0.18
141
0.09
142
0.0
143
25.399999999999999
144
1.0
145
0.0
146
1.0
147
0.09
 71
     0
 72
     0
 73
     1
 74
     1
 75
     0
 76
     0
 77
     0
 78
     0
170
     0
171
     2
172
     0
173
     0
174
     0
175
     0
176
     0
177
     0
178
     0
  0
ENDTAB
  0
ENDSEC
  0
SECTION
  2
BLOCKS
  0
BLOCK
  8
0
  2
$MODEL_SPACE
 70
     0
 10
0.0
 20
0.0
 30
0.0
  3
$MODEL_SPACE
  1

  0
ENDBLK
  5
8A
  8
0
  0
BLOCK
 67
     1
  8
0
  2
$PAPER_SPACE
 70
     0
 10
0.0
 20
0.0
 30
0.0
  3
$PAPER_SPACE
  1

  0
ENDBLK
  5
88
 67
     1
  8
0
  0
ENDSEC
  0
SECTION
  2
ENTITIES
  0
LINE
  5
40
  8
0
 10
289.46445613586951
 20
121.29946043165459
 30
0.0
 11
289.46445613586951
 21
111.29946043165459
 31
0.0
  0
LINE
  5
4B
  8
0
 10
289.46445613586951
 20
190.09442446043161
 30
0.0
 11
289.46445613586951
 21
210.09442446043161
 31
0.0
  0
LINE
  5
168
  8
0
 10
139.4644561358694
 20
111.29946043165459
 30
0.0
 11
289.46445613586951
 21
111.29946043165459
 31
0.0
  0
LINE
  5
169
  8
0
 10
139.4644561358694
 20
121.29946043165469
 30
0.0
 11
139.4644561358694
 21
111.29946043165459
 31
0.0
  0
LINE
  5
16B
  8
0
 10
139.4644561358694
 20
190.09442446043161
 30
0.0
 11
139.4644561358694
 21
210.09442446043161
 31
0.0
  0
LINE
  5
16D
  8
1
 10
134.4644561358694
 20
200.09442446043161
 30
0.0
 11
294.4644561358694
 21
200.0944244604315
 31
0.0
  0
LINE
  5
17B
  8
0
 10
84.1058899167883
 20
111.29946043165459
 30
0.0
 11
92.605889505638316
 21
111.29946043165459
 31
0.0
  0
LINE
  5
17C
  8
0
 10
92.605889505638316
 20
118.99946038995471
 30
0.0
 11
87.405889957138328
 21
118.99946038995471
 31
0.0
  0
LINE
  5
17D
  8
0
 10
79.805889828988285
 20
120.79946012620471
 30
0.0
 11
79.805889828988285
 21
118.99946038995471
 31
0.0
  0
LINE
  5
17E
  8
0
 10
87.405889957138328
 20
118.99946038995471
 30
0.0
 11
87.405889957138328
 21
120.79946012620471
 31
0.0
  0
LINE
  5
17F
  8
1
 10
83.605889893038324
 20
106.29946043165459
 30
0.0
 11
83.605889893038324
 21
126.2994602081547
 31
0.0
  0
LINE
  5
180
  8
0
 10
74.605890280488296
 20
111.29946043165459
 30
0.0
 11
83.105889869288291
 21
111.29946043165459
 31
0.0
  0
LINE
  5
181
  8
0
 10
79.805889828988285
 20
118.99946038995471
 30
0.0
 11
74.605890280488296
 21
118.99946038995471
 31
0.0
  0
LINE
  5
182
  8
0
 10
73.605890116588313
 20
117.9994602260046
 30
0.0
 11
73.605890116588313
 21
112.2994604791547
 31
0.0
  0
ARC
  5
183
  8
0
 10
74.605889893038324
 20
112.29946043165469
 30
0.0
 40
1.0
 50
180.0
 51
270.0
  0
ARC
  5
184
  8
0
 10
74.605889893038324
 20
117.9994604316547
 30
0.0
 40
1.0
 50
90.0
 51
180.0
  0
LINE
  5
185
  8
0
 10
83.105889869288291
 20
111.29946043165459
 30
0.0
 11
83.605889893038324
 21
111.7994604554047
 31
0.0
  0
LINE
  5
186
  8
0
 10
83.605889893038324
 20
111.7994604554047
 30
0.0
 11
84.1058899167883
 21
111.29946043165459
 31
0.0
  0
LINE
  5
187
  8
0
 10
83.105889869288291
 20
121.2994602081547
 30
0.0
 11
80.305889910938305
 21
121.2994602081547
 31
0.0
  0
ARC
  5
188
  8
0
 10
80.305889893038312
 20
120.79946043165469
 30
0.0
 40
0.5
 50
90.0
 51
180.0
  0
LINE
  5
189
  8
0
 10
86.905889875188308
 20
121.2994602081547
 30
0.0
 11
84.1058899167883
 21
121.2994602081547
 31
0.0
  0
LINE
  5
18A
  8
0
 10
83.605889893038324
 20
120.79946012620471
 30
0.0
 11
83.105889869288291
 21
121.2994602081547
 31
0.0
  0
LINE
  5
18B
  8
0
 10
84.1058899167883
 20
121.2994602081547
 30
0.0
 11
83.605889893038324
 21
120.79946012620471
 31
0.0
  0
ARC
  5
18C
  8
0
 10
86.905889893038335
 20
120.79946043165469
 30
0.0
 40
0.5
 50
0.0
 51
90.0
  0
LINE
  5
18D
  8
0
 10
93.6058896695383
 20
112.2994604791547
 30
0.0
 11
93.6058896695383
 21
117.9994602260046
 31
0.0
  0
ARC
  5
18E
  8
0
 10
92.605889893038324
 20
112.29946043165469
 30
0.0
 40
1.0
 50
270.0
 51
0.0
  0
ARC
  5
18F
  8
0
 10
92.605889893038324
 20
117.9994604316547
 30
0.0
 40
1.0
 50
0.0
 51
90.0
  0
LINE
  5
190
  8
0
 10
139.4644561358694
 20
121.29946043165469
 30
0.0
 11
289.46445613586951
 21
121.29946043165459
 31
0.0
  0
LINE
  5
191
  8
0
 10
139.4644561358694
 20
118.9994604316547
 30
0.0
 11
289.46445613586951
 21
118.9994604316547
 31
0.0
  0
LINE
  5
1A7
  8
0
 10
139.4644561358694
 20
210.09442446043161
 30
0.0
 11
289.46445613586951
 21
210.09442446043161
 31
0.0
  0
LINE
  5
1A8
  8
0
 10
139.4644561358694
 20
190.09442446043161
 30
0.0
 11
289.46445613586951
 21
190.09442446043161
 31
0.0
  0
LINE
  5
1A9
  8
0
 10
139.4644561358694
 20
203.89442446043159
 30
0.0
 11
289.46445613586951
 21
203.89442446043159
 31
0.0
  0
LINE
  5
1AA
  8
0
 10
139.4644561358694
 20
200.59442448418159
 30
0.0
 11
289.46445613586951
 21
200.5944244841817
 31
0.0
  0
LINE
  5
1AB
  8
0
 10
139.4644561358694
 20
200.09442446043161
 30
0.0
 11
289.46445613586951
 21
200.09442446043181
 31
0.0
  0
LINE
  5
1AC
  8
0
 10
139.4644561358694
 20
199.59442443668161
 30
0.0
 11
289.46445613586951
 21
199.59442443668181
 31
0.0
  0
LINE
  5
1AD
  8
0
 10
139.4644561358694
 20
196.2944244604316
 30
0.0
 11
289.46445613586951
 21
196.29442446043171
 31
0.0
  0
LINE
  5
1B0
  8
0
 10
342.02302239655057
 20
121.2994602081547
 30
0.0
 11
344.82302235495058
 21
121.2994602081547
 31
0.0
  0
LINE
  5
1B1
  8
0
 10
344.82302235495058
 20
111.29946043165459
 30
0.0
 11
336.32302276610062
 21
111.29946043165459
 31
0.0
  0
LINE
  5
1B2
  8
0
 10
355.32302215515062
 20
117.9994602260046
 30
0.0
 11
355.32302215515062
 21
112.2994604791547
 31
0.0
  0
LINE
  5
1B3
  8
1
 10
345.32302237870061
 20
106.29946043165459
 30
0.0
 11
345.32302237870061
 21
126.2994602081547
 31
0.0
  0
LINE
  5
1B4
  8
0
 10
354.32302199125058
 20
111.29946043165459
 30
0.0
 11
345.82302240245059
 21
111.29946043165459
 31
0.0
  0
ARC
  5
1B5
  8
0
 10
354.32302237870061
 20
112.29946043165469
 30
0.0
 40
1.0
 50
270.0
 51
0.000000000000007
  0
LINE
  5
1B6
  8
0
 10
345.32302237870061
 20
111.7994604554047
 30
0.0
 11
344.82302235495058
 21
111.29946043165459
 31
0.0
  0
LINE
  5
1B7
  8
0
 10
345.82302240245059
 20
111.29946043165459
 30
0.0
 11
345.32302237870061
 21
111.7994604554047
 31
0.0
  0
LINE
  5
1B8
  8
0
 10
349.1230224427506
 20
118.99946038995471
 30
0.0
 11
354.32302199125058
 21
118.99946038995471
 31
0.0
  0
ARC
  5
1B9
  8
0
 10
354.32302237870061
 20
117.9994604316547
 30
0.0
 40
1.0
 50
0.000000000000007
 51
90.0
  0
LINE
  5
1BA
  8
0
 10
345.82302240245059
 20
121.2994602081547
 30
0.0
 11
348.62302236080058
 21
121.2994602081547
 31
0.0
  0
ARC
  5
1BB
  8
0
 10
348.62302237870063
 20
120.79946043165469
 30
0.0
 40
0.5
 50
0.000000000000007
 51
90.0
  0
LINE
  5
1BC
  8
0
 10
349.1230224427506
 20
120.79946012620471
 30
0.0
 11
349.1230224427506
 21
118.99946038995471
 31
0.0
  0
LINE
  5
1BD
  8
0
 10
344.82302235495058
 20
121.2994602081547
 30
0.0
 11
345.32302237870061
 21
120.79946012620471
 31
0.0
  0
LINE
  5
1BE
  8
0
 10
345.32302237870061
 20
120.79946012620471
 30
0.0
 11
345.82302240245059
 21
121.2994602081547
 31
0.0
  0
LINE
  5
1BF
  8
0
 10
335.32302260220058
 20
112.2994604791547
 30
0.0
 11
335.32302260220058
 21
117.9994602260046
 31
0.0
  0
ARC
  5
1C0
  8
0
 10
336.3230223787005
 20
112.29946043165469
 30
0.0
 40
1.0
 50
180.0
 51
270.0
  0
ARC
  5
1C1
  8
0
 10
336.3230223787005
 20
117.9994604316547
 30
0.0
 40
1.0
 50
90.0
 51
180.0
  0
LINE
  5
1C2
  8
0
 10
336.32302276610062
 20
118.99946038995471
 30
0.0
 11
341.5230223146005
 21
118.99946038995471
 31
0.0
  0
ARC
  5
1C3
  8
0
 10
342.02302237870049
 20
120.79946043165469
 30
0.0
 40
0.5
 50
90.0
 51
180.0
  0
LINE
  5
1C4
  8
0
 10
341.5230223146005
 20
118.99946038995471
 30
0.0
 11
341.5230223146005
 21
120.79946012620471
 31
0.0
  0
TEXT
  5
2B4
  8
0
 62
     3
 10
0.0
 20
0.0
 30
0.0
 40
10.0
  1
AG40AL-2M
  7
STANDARD1
  0
ENDSEC
  0
EOF
