  0
SECTION
  2
HEADER
  9
$ACADVER
  1
AC1009
  9
$INSBASE
 10
0.0
 20
0.0
 30
0.0
  9
$EXTMIN
 10
-0.0204638472032742
 20
-2.960436562073669
 30
0.0
  9
$EXTMAX
 10
143.799982358336
 20
100.92312707530991
 30
0.0
  9
$LIMMIN
 10
0.0
 20
0.0
  9
$LIMMAX
 10
187.5
 20
135.0
  9
$ORTHOMODE
 70
     1
  9
$REGENMODE
 70
     1
  9
$FILLMODE
 70
     1
  9
$QTEXTMODE
 70
     0
  9
$MIRRTEXT
 70
     0
  9
$DRAGMODE
 70
     2
  9
$LTSCALE
 40
5.0
  9
$OSMODE
 70
  3071
  9
$ATTMODE
 70
     1
  9
$TEXTSIZE
 40
2.0000000000000502
  9
$TRACEWID
 40
0.05
  9
$TEXTSTYLE
  7
STANDARD
  9
$CLAYER
  8
0
  9
$CELTYPE
  6
BYLAYER
  9
$CECOLOR
 62
   256
  9
$DIMSCALE
 40
0.5
  9
$DIMASZ
 40
3.0
  9
$DIMEXO
 40
2.0
  9
$DIMDLI
 40
0.38
  9
$DIMRND
 40
0.0
  9
$DIMDLE
 40
0.0
  9
$DIMEXE
 40
2.0
  9
$DIMTP
 40
0.0
  9
$DIMTM
 40
0.0
  9
$DIMTXT
 40
3.2000000000000002
  9
$DIMCEN
 40
0.0
  9
$DIMTSZ
 40
0.0
  9
$DIMTOL
 70
     0
  9
$DIMLIM
 70
     0
  9
$DIMTIH
 70
     0
  9
$DIMTOH
 70
     0
  9
$DIMSE1
 70
     0
  9
$DIMSE2
 70
     0
  9
$DIMTAD
 70
     1
  9
$DIMZIN
 70
     0
  9
$DIMBLK
  1

  9
$DIMASO
 70
     0
  9
$DIMSHO
 70
     0
  9
$DIMPOST
  1

  9
$DIMAPOST
  1

  9
$DIMALT
 70
     0
  9
$DIMALTD
 70
     2
  9
$DIMALTF
 40
25.399999999999999
  9
$DIMLFAC
 40
1.0
  9
$DIMTOFL
 70
     1
  9
$DIMTVP
 40
1.6000000000000001
  9
$DIMTIX
 70
     1
  9
$DIMSOXD
 70
     0
  9
$DIMSAH
 70
     0
  9
$DIMBLK1
  1

  9
$DIMBLK2
  1

  9
$DIMSTYLE
  2
STANDARD
  9
$DIMCLRD
 70
     0
  9
$DIMCLRE
 70
     0
  9
$DIMCLRT
 70
     0
  9
$DIMTFAC
 40
1.0
  9
$DIMGAP
 40
0.09
  9
$LUNITS
 70
     2
  9
$LUPREC
 70
     4
  9
$SKETCHINC
 40
0.1
  9
$FILLETRAD
 40
1.1999999999999991
  9
$AUNITS
 70
     0
  9
$AUPREC
 70
     4
  9
$MENU
  1
E:\r13\win\SUPPORT\ACAD
  9
$ELEVATION
 40
0.0
  9
$PELEVATION
 40
0.0
  9
$THICKNESS
 40
0.0
  9
$LIMCHECK
 70
     0
  9
$BLIPMODE
 70
     0
  9
$CHAMFERA
 40
0.0
  9
$CHAMFERB
 40
0.0
  9
$SKPOLY
 70
     0
  9
$TDCREATE
 40
2449840.650949074
  9
$TDUPDATE
 40
2456597.500108866
  9
$TDINDWG
 40
0.0001009028
  9
$TDUSRTIMER
 40
0.0001009028
  9
$USRTIMER
 70
     1
  9
$ANGBASE
 50
0.0
  9
$ANGDIR
 70
     0
  9
$PDMODE
 70
     0
  9
$PDSIZE
 40
0.0
  9
$PLINEWID
 40
0.0
  9
$COORDS
 70
     1
  9
$SPLFRAME
 70
     0
  9
$SPLINETYPE
 70
     6
  9
$SPLINESEGS
 70
     8
  9
$ATTDIA
 70
     0
  9
$ATTREQ
 70
     1
  9
$HANDLING
 70
     1
  9
$HANDSEED
  5
22A
  9
$SURFTAB1
 70
     6
  9
$SURFTAB2
 70
     6
  9
$SURFTYPE
 70
     6
  9
$SURFU
 70
     6
  9
$SURFV
 70
     6
  9
$UCSNAME
  2

  9
$UCSORG
 10
0.0
 20
0.0
 30
0.0
  9
$UCSXDIR
 10
1.0
 20
0.0
 30
0.0
  9
$UCSYDIR
 10
0.0
 20
1.0
 30
0.0
  9
$PUCSNAME
  2

  9
$PUCSORG
 10
0.0
 20
0.0
 30
0.0
  9
$PUCSXDIR
 10
1.0
 20
0.0
 30
0.0
  9
$PUCSYDIR
 10
0.0
 20
1.0
 30
0.0
  9
$USERI1
 70
     0
  9
$USERI2
 70
     1
  9
$USERI3
 70
     0
  9
$USERI4
 70
     0
  9
$USERI5
 70
     0
  9
$USERR1
 40
0.0
  9
$USERR2
 40
0.0
  9
$USERR3
 40
0.0
  9
$USERR4
 40
0.0
  9
$USERR5
 40
0.0
  9
$WORLDVIEW
 70
     1
  9
$SHADEDGE
 70
     3
  9
$SHADEDIF
 70
    70
  9
$TILEMODE
 70
     1
  9
$MAXACTVP
 70
    16
  9
$PLIMCHECK
 70
     0
  9
$PEXTMIN
 10
1.0000000000000000E+020
 20
1.0000000000000000E+020
 30
1.0000000000000000E+020
  9
$PEXTMAX
 10
-1.0000000000000000E+020
 20
-1.0000000000000000E+020
 30
-1.0000000000000000E+020
  9
$PLIMMIN
 10
0.0
 20
0.0
  9
$PLIMMAX
 10
12.0
 20
9.0
  9
$UNITMODE
 70
     0
  9
$VISRETAIN
 70
     0
  9
$PLINEGEN
 70
     0
  9
$PSLTSCALE
 70
     0
  0
ENDSEC
  0
SECTION
  2
TABLES
  0
TABLE
  2
VPORT
 70
     1
  0
VPORT
  2
*ACTIVE
 70
     0
 10
0.0
 20
0.0
 11
1.0
 21
1.0
 12
97.555845655288337
 22
66.014785922033241
 13
0.0
 23
0.0
 14
5.0
 24
5.0
 15
5.0
 25
5.0
 16
0.0
 26
0.0
 36
1.0
 17
0.0
 27
0.0
 37
0.0
 40
139.20783109903601
 41
1.831871345029239
 42
50.0
 43
0.0
 44
0.0
 50
0.0
 51
0.0
 71
     0
 72
   500
 73
     1
 74
     0
 75
     0
 76
     0
 77
     0
 78
     2
  0
ENDTAB
  0
TABLE
  2
LTYPE
 70
     3
  0
LTYPE
  2
CONTINUOUS
 70
     0
  3
Solid Line
 72
    65
 73
     0
 40
0.0
  0
LTYPE
  2
CENTER
 70
     0
  3
____ _ ____ _ ____ _ ____ _ ____ _ ____ _ ____
 72
    65
 73
     4
 40
2.0
 49
1.25
 49
-0.25
 49
0.25
 49
-0.25
  0
LTYPE
  2
PHANTOM2
 70
     0
  3
___ _ _ ___ _ _ ___ _ _ ___ _ _
 72
    65
 73
     6
 40
1.25
 49
0.625
 49
-0.125
 49
0.125
 49
-0.125
 49
0.125
 49
-0.125
  0
ENDTAB
  0
TABLE
  2
LAYER
 70
     2
  0
LAYER
  2
0
 70
     0
 62
     7
  6
CONTINUOUS
  0
LAYER
  2
1
 70
     0
 62
     1
  6
CENTER
  0
ENDTAB
  0
TABLE
  2
STYLE
 70
     2
  0
STYLE
  2
STANDARD
 70
     0
 40
0.0
 41
1.0
 50
0.0
 71
     0
 42
2.0000000000000502
  3
TXT
  4
BIGFONT
  0
STYLE
  2
STANDARD1
 70
     0
 40
0.0
 41
1.0
 50
0.0
 71
     0
 42
3.0
  3
txt
  4

  0
ENDTAB
  0
TABLE
  2
VIEW
 70
     1
  0
VIEW
  2
ALL
 70
     0
 40
135.0
 10
110.4957983193277
 20
67.5
 41
0.0
 11
0.0
 21
0.0
 31
1.0
 12
0.0
 22
0.0
 32
0.0
 42
0.0
 43
0.0
 44
0.0
 50
0.0
 71
     0
  0
ENDTAB
  0
TABLE
  2
UCS
 70
     0
  0
ENDTAB
  0
TABLE
  2
APPID
 70
     3
  0
APPID
  2
ACAD
 70
     0
  0
APPID
  2
ACAD_MLEADERVER
 70
     0
  0
APPID
  2
ACAD_NAV_VCDISPLAY
 70
     0
  0
ENDTAB
  0
TABLE
  2
DIMSTYLE
 70
     1
  0
DIMSTYLE
  2
STANDARD
 70
     0
  3

  4

  5

  6

  7

 40
1.0
 41
0.18
 42
0.0625
 43
0.38
 44
0.18
 45
0.0
 46
0.0
 47
0.0
 48
0.0
140
0.18
141
0.09
142
0.0
143
25.399999999999999
144
1.0
145
0.0
146
1.0
147
0.09
 71
     0
 72
     0
 73
     1
 74
     1
 75
     0
 76
     0
 77
     0
 78
     0
170
     0
171
     2
172
     0
173
     0
174
     0
175
     0
176
     0
177
     0
178
     0
  0
ENDTAB
  0
ENDSEC
  0
SECTION
  2
BLOCKS
  0
BLOCK
  8
0
  2
$MODEL_SPACE
 70
     0
 10
0.0
 20
0.0
 30
0.0
  3
$MODEL_SPACE
  1

  0
ENDBLK
  5
A9
  8
0
  0
BLOCK
 67
     1
  8
0
  2
$PAPER_SPACE
 70
     0
 10
0.0
 20
0.0
 30
0.0
  3
$PAPER_SPACE
  1

  0
ENDBLK
  5
A7
 67
     1
  8
0
  0
ENDSEC
  0
SECTION
  2
ENTITIES
  0
LINE
  5
33
  8
0
 10
48.116919667077781
 20
74.090473198411374
 30
0.0
 11
46.968307485947797
 21
74.090473198411374
 31
0.0
  0
ARC
  5
34
  8
0
 10
48.116919667077781
 20
64.590473198411374
 30
0.0
 40
1.5
 50
25.67928861948312
 51
90.000000000000014
  0
ARC
  5
35
  8
0
 10
48.116919667077781
 20
75.590473198411374
 30
0.0
 40
1.5
 50
270.0
 51
334.32071138051691
  0
LINE
  5
36
  8
0
 10
49.616919667077781
 20
65.240473198411365
 30
0.0
 11
49.616919667077781
 21
74.940473198411354
 31
0.0
  0
LINE
  5
37
  8
0
 10
45.316919667077741
 20
73.790473198411391
 30
0.0
 11
45.316919667077769
 21
73.797579979601466
 31
0.0
  0
LINE
  5
38
  8
0
 10
49.016919667077786
 20
66.790473198411362
 30
0.0
 11
49.016919667077786
 21
73.390473198411414
 31
0.0
  0
LINE
  5
39
  8
0
 10
49.468770250535783
 20
65.240473198411365
 30
0.0
 11
49.616919667077781
 21
65.240473198411365
 31
0.0
  0
LINE
  5
3A
  8
0
 10
49.468770250534448
 20
74.940473198411354
 30
0.0
 11
49.616919667077781
 21
74.940473198411354
 31
0.0
  0
LINE
  5
3B
  8
0
 10
45.51691966707773
 20
73.590473198411402
 30
0.0
 11
48.816919667077798
 21
73.590473198411402
 31
0.0
  0
ARC
  5
3C
  8
0
 10
48.816919667077798
 20
73.390473198411414
 30
0.0
 40
0.2
 50
0.0
 51
89.999999999999574
  0
ARC
  5
3D
  8
0
 10
48.816919667077798
 20
66.790473198411362
 30
0.0
 40
0.2
 50
270.0
 51
0.0
  0
ARC
  5
3E
  8
0
 10
46.066919667077769
 20
73.090473198417513
 30
0.0
 40
1.2499999999950879
 50
58.997280865909417
 51
109.4712206345561
  0
ARC
  5
3F
  8
0
 10
45.816919667077769
 20
73.797579979601466
 30
0.0
 40
0.5
 50
109.47122063455581
 51
180.0
  0
ARC
  5
40
  8
0
 10
45.51691966707773
 20
73.790473198411391
 30
0.0
 40
0.2
 50
180.0
 51
269.99999999999989
  0
ARC
  5
41
  8
0
 10
46.968307485947797
 20
74.590473198411374
 30
0.0
 40
0.5
 50
238.99728086590861
 51
270.0
  0
ARC
  5
42
  8
0
 10
46.968307485947797
 20
65.590473198411374
 30
0.0
 40
0.5
 50
90.0
 51
121.00271913409139
  0
ARC
  5
43
  8
0
 10
45.51691966707773
 20
66.390473198411357
 30
0.0
 40
0.2
 50
90.000000000000057
 51
180.0
  0
ARC
  5
44
  8
0
 10
45.816919667077769
 20
66.383366417221254
 30
0.0
 40
0.5
 50
180.0
 51
250.52877936544419
  0
ARC
  5
45
  8
0
 10
46.066919667077769
 20
67.090473198405235
 30
0.0
 40
1.2499999999950879
 50
250.5287793654438
 51
301.00271913409063
  0
LINE
  5
46
  8
0
 10
45.51691966707773
 20
66.590473198411345
 30
0.0
 11
48.816919667077798
 21
66.590473198411345
 31
0.0
  0
LINE
  5
47
  8
0
 10
45.316919667077741
 20
66.390473198411357
 30
0.0
 11
45.316919667077769
 21
66.383366417221254
 31
0.0
  0
LINE
  5
48
  8
0
 10
48.116919667077781
 20
66.090473198411374
 30
0.0
 11
46.968307485947797
 21
66.090473198411374
 31
0.0
  0
LINE
  5
49
  8
1
 10
52.116919667077781
 20
70.090473198411374
 30
0.0
 11
42.816919667077769
 21
70.090473198411374
 31
0.0
  0
LINE
  5
4A
  8
0
 10
77.930873155449859
 20
65.240473198411365
 30
0.0
 11
77.930873155449859
 21
74.940473198411354
 31
0.0
  0
LINE
  5
4B
  8
0
 10
77.930873155449859
 20
65.240473198411365
 30
0.0
 11
102.9308731554498
 21
65.240473198411365
 31
0.0
  0
LINE
  5
4C
  8
0
 10
102.9308731554498
 20
65.240473198411365
 30
0.0
 11
102.9308731554498
 21
74.940473198411354
 31
0.0
  0
LINE
  5
4D
  8
0
 10
77.930873155449859
 20
74.940473198411354
 30
0.0
 11
102.9308731554498
 21
74.940473198411354
 31
0.0
  0
LINE
  5
4E
  8
1
 10
75.430873155449859
 20
70.090473198411374
 30
0.0
 11
105.4308731554499
 21
70.090473198411374
 31
0.0
  0
LINE
  5
53
  8
1
 10
134.4999823583359
 20
70.090473198411374
 30
0.0
 11
143.799982358336
 21
70.090473198411374
 31
0.0
  0
LINE
  5
54
  8
0
 10
138.4999823583359
 20
66.090473198411374
 30
0.0
 11
139.6485945394659
 21
66.090473198411374
 31
0.0
  0
LINE
  5
55
  8
0
 10
141.29998235833591
 20
66.390473198411357
 30
0.0
 11
141.29998235833591
 21
66.383366417221254
 31
0.0
  0
LINE
  5
56
  8
0
 10
141.09998235833601
 20
66.590473198411345
 30
0.0
 11
137.79998235833591
 21
66.590473198411345
 31
0.0
  0
ARC
  5
57
  8
0
 10
140.549982358336
 20
67.090473198405235
 30
0.0
 40
1.2499999999950879
 50
238.99728086590949
 51
289.47122063455629
  0
ARC
  5
58
  8
0
 10
140.79998235833591
 20
66.383366417221254
 30
0.0
 40
0.5
 50
289.47122063455589
 51
0.0000000000000254
  0
ARC
  5
59
  8
0
 10
141.09998235833601
 20
66.390473198411357
 30
0.0
 40
0.2
 50
0.0000000000000254
 51
89.999999999999986
  0
ARC
  5
5A
  8
0
 10
139.6485945394659
 20
65.590473198411374
 30
0.0
 40
0.5
 50
58.997280865908607
 51
90.000000000000028
  0
ARC
  5
5B
  8
0
 10
139.6485945394659
 20
74.590473198411374
 30
0.0
 40
0.5
 50
270.00000000000011
 51
301.00271913409148
  0
ARC
  5
5C
  8
0
 10
141.09998235833601
 20
73.790473198411391
 30
0.0
 40
0.2
 50
270.00000000000011
 51
0.0000000000000254
  0
ARC
  5
5D
  8
0
 10
140.79998235833591
 20
73.797579979601466
 30
0.0
 40
0.5
 50
0.0000000000000254
 51
70.528779365444223
  0
ARC
  5
5E
  8
0
 10
140.549982358336
 20
73.090473198417513
 30
0.0
 40
1.2499999999950879
 50
70.528779365443853
 51
121.0027191340906
  0
ARC
  5
5F
  8
0
 10
137.79998235833591
 20
66.790473198411362
 30
0.0
 40
0.2
 50
180.0
 51
270.00000000000011
  0
ARC
  5
60
  8
0
 10
137.79998235833591
 20
73.390473198411414
 30
0.0
 40
0.2
 50
90.000000000000455
 51
180.0
  0
LINE
  5
61
  8
0
 10
141.09998235833601
 20
73.590473198411402
 30
0.0
 11
137.79998235833591
 21
73.590473198411402
 31
0.0
  0
LINE
  5
62
  8
0
 10
137.14813177487929
 20
74.940473198411354
 30
0.0
 11
136.9999823583359
 21
74.940473198411354
 31
0.0
  0
LINE
  5
63
  8
0
 10
137.1481317748779
 20
65.240473198411365
 30
0.0
 11
136.9999823583359
 21
65.240473198411365
 31
0.0
  0
LINE
  5
64
  8
0
 10
137.59998235833589
 20
66.790473198411362
 30
0.0
 11
137.59998235833589
 21
73.390473198411414
 31
0.0
  0
LINE
  5
65
  8
0
 10
141.29998235833591
 20
73.790473198411391
 30
0.0
 11
141.29998235833591
 21
73.797579979601466
 31
0.0
  0
LINE
  5
66
  8
0
 10
136.9999823583359
 20
65.240473198411365
 30
0.0
 11
136.9999823583359
 21
74.940473198411354
 31
0.0
  0
ARC
  5
67
  8
0
 10
138.4999823583359
 20
75.590473198411374
 30
0.0
 40
1.5
 50
205.6792886194832
 51
270.00000000000011
  0
ARC
  5
68
  8
0
 10
138.4999823583359
 20
64.590473198411374
 30
0.0
 40
1.5
 50
90.000000000000014
 51
154.32071138051691
  0
LINE
  5
69
  8
0
 10
138.4999823583359
 20
74.090473198411374
 30
0.0
 11
139.6485945394659
 21
74.090473198411374
 31
0.0
  0
LINE
  5
6A
  8
0
 10
77.930873155449859
 20
96.623127075309867
 30
0.0
 11
102.9308731554498
 21
96.623127075309867
 31
0.0
  0
LINE
  5
6B
  8
0
 10
77.930873155449859
 20
96.623127075309867
 30
0.0
 11
77.930873155449859
 21
100.92312707530991
 31
0.0
  0
LINE
  5
6C
  8
0
 10
102.9308731554498
 20
96.623127075309867
 30
0.0
 11
102.9308731554498
 21
100.92312707530991
 31
0.0
  0
LINE
  5
6D
  8
0
 10
77.930873155449859
 20
100.92312707530991
 30
0.0
 11
102.9308731554498
 21
100.92312707530991
 31
0.0
  0
LINE
  5
6E
  8
0
 10
77.930873155449859
 20
96.771276491850315
 30
0.0
 11
102.9308731554498
 21
96.771276491850315
 31
0.0
  0
LINE
  5
6F
  8
0
 10
77.930873155449859
 20
39.544046249956239
 30
0.0
 11
102.9308731554498
 21
39.544046249956253
 31
0.0
  0
LINE
  5
70
  8
0
 10
77.930873155449859
 20
35.392195666496647
 30
0.0
 11
102.9308731554498
 21
35.392195666496661
 31
0.0
  0
LINE
  5
71
  8
0
 10
102.9308731554498
 20
39.692195666496708
 30
0.0
 11
102.9308731554498
 21
35.392195666496683
 31
0.0
  0
LINE
  5
72
  8
0
 10
77.930873155449859
 20
39.692195666496708
 30
0.0
 11
77.930873155449859
 21
35.392195666496647
 31
0.0
  0
LINE
  5
73
  8
0
 10
77.930873155449859
 20
39.692195666496708
 30
0.0
 11
102.9308731554498
 21
39.692195666496708
 31
0.0
  0
TEXT
  5
199
  8
0
 62
     3
 10
0.0
 20
0.0
 30
0.0
 40
10.0
  1
AGC2000N
  7
STANDARD1
  0
ENDSEC
  0
EOF
