  0
SECTION
  2
HEADER
  9
$ACADVER
  1
AC1009
  9
$INSBASE
 10
0.0
 20
0.0
 30
0.0
  9
$EXTMIN
 10
-0.0204638472032742
 20
-2.960436562073669
 30
0.0
  9
$EXTMAX
 10
308.94154352736399
 20
234.3037008915116
 30
0.0
  9
$LIMMIN
 10
0.0
 20
0.0
  9
$LIMMAX
 10
375.0
 20
270.0
  9
$ORTHOMODE
 70
     1
  9
$REGENMODE
 70
     1
  9
$FILLMODE
 70
     1
  9
$QTEXTMODE
 70
     0
  9
$MIRRTEXT
 70
     0
  9
$DRAGMODE
 70
     2
  9
$LTSCALE
 40
10.0
  9
$OSMODE
 70
  3071
  9
$ATTMODE
 70
     1
  9
$TEXTSIZE
 40
5.0
  9
$TRACEWID
 40
0.05
  9
$TEXTSTYLE
  7
STANDARD
  9
$CLAYER
  8
0
  9
$CELTYPE
  6
BYLAYER
  9
$CECOLOR
 62
   256
  9
$DIMSCALE
 40
1.0
  9
$DIMASZ
 40
3.0
  9
$DIMEXO
 40
2.0
  9
$DIMDLI
 40
0.38
  9
$DIMRND
 40
0.0
  9
$DIMDLE
 40
0.0
  9
$DIMEXE
 40
2.0
  9
$DIMTP
 40
0.0
  9
$DIMTM
 40
0.0
  9
$DIMTXT
 40
3.0
  9
$DIMCEN
 40
0.09
  9
$DIMTSZ
 40
0.0
  9
$DIMTOL
 70
     0
  9
$DIMLIM
 70
     0
  9
$DIMTIH
 70
     0
  9
$DIMTOH
 70
     0
  9
$DIMSE1
 70
     0
  9
$DIMSE2
 70
     0
  9
$DIMTAD
 70
     1
  9
$DIMZIN
 70
     0
  9
$DIMBLK
  1

  9
$DIMASO
 70
     1
  9
$DIMSHO
 70
     0
  9
$DIMPOST
  1

  9
$DIMAPOST
  1

  9
$DIMALT
 70
     0
  9
$DIMALTD
 70
     2
  9
$DIMALTF
 40
25.399999999999999
  9
$DIMLFAC
 40
1.0
  9
$DIMTOFL
 70
     0
  9
$DIMTVP
 40
1.6000000000000001
  9
$DIMTIX
 70
     1
  9
$DIMSOXD
 70
     0
  9
$DIMSAH
 70
     0
  9
$DIMBLK1
  1

  9
$DIMBLK2
  1

  9
$DIMSTYLE
  2
STANDARD
  9
$DIMCLRD
 70
     0
  9
$DIMCLRE
 70
     0
  9
$DIMCLRT
 70
     0
  9
$DIMTFAC
 40
1.0
  9
$DIMGAP
 40
0.09
  9
$LUNITS
 70
     2
  9
$LUPREC
 70
     4
  9
$SKETCHINC
 40
0.1
  9
$FILLETRAD
 40
1.0
  9
$AUNITS
 70
     0
  9
$AUPREC
 70
     0
  9
$MENU
  1
E:\r13\win\SUPPORT\ACAD
  9
$ELEVATION
 40
0.0
  9
$PELEVATION
 40
0.0
  9
$THICKNESS
 40
0.0
  9
$LIMCHECK
 70
     0
  9
$BLIPMODE
 70
     0
  9
$CHAMFERA
 40
0.0
  9
$CHAMFERB
 40
0.0
  9
$SKPOLY
 70
     0
  9
$TDCREATE
 40
2449839.7831712961
  9
$TDUPDATE
 40
2456597.5007241089
  9
$TDINDWG
 40
0.0406640278
  9
$TDUSRTIMER
 40
0.0406640278
  9
$USRTIMER
 70
     1
  9
$ANGBASE
 50
0.0
  9
$ANGDIR
 70
     0
  9
$PDMODE
 70
     0
  9
$PDSIZE
 40
0.0
  9
$PLINEWID
 40
0.0
  9
$COORDS
 70
     1
  9
$SPLFRAME
 70
     0
  9
$SPLINETYPE
 70
     6
  9
$SPLINESEGS
 70
     8
  9
$ATTDIA
 70
     0
  9
$ATTREQ
 70
     1
  9
$HANDLING
 70
     1
  9
$HANDSEED
  5
4AD
  9
$SURFTAB1
 70
     6
  9
$SURFTAB2
 70
     6
  9
$SURFTYPE
 70
     6
  9
$SURFU
 70
     6
  9
$SURFV
 70
     6
  9
$UCSNAME
  2

  9
$UCSORG
 10
0.0
 20
0.0
 30
0.0
  9
$UCSXDIR
 10
1.0
 20
0.0
 30
0.0
  9
$UCSYDIR
 10
0.0
 20
1.0
 30
0.0
  9
$PUCSNAME
  2

  9
$PUCSORG
 10
0.0
 20
0.0
 30
0.0
  9
$PUCSXDIR
 10
1.0
 20
0.0
 30
0.0
  9
$PUCSYDIR
 10
0.0
 20
1.0
 30
0.0
  9
$USERI1
 70
     0
  9
$USERI2
 70
     1
  9
$USERI3
 70
     1
  9
$USERI4
 70
     0
  9
$USERI5
 70
     0
  9
$USERR1
 40
0.0
  9
$USERR2
 40
0.0
  9
$USERR3
 40
0.0
  9
$USERR4
 40
0.0
  9
$USERR5
 40
0.0
  9
$WORLDVIEW
 70
     1
  9
$SHADEDGE
 70
     3
  9
$SHADEDIF
 70
    70
  9
$TILEMODE
 70
     1
  9
$MAXACTVP
 70
    16
  9
$PLIMCHECK
 70
     0
  9
$PEXTMIN
 10
1.0000000000000000E+020
 20
1.0000000000000000E+020
 30
1.0000000000000000E+020
  9
$PEXTMAX
 10
-1.0000000000000000E+020
 20
-1.0000000000000000E+020
 30
-1.0000000000000000E+020
  9
$PLIMMIN
 10
0.0
 20
0.0
  9
$PLIMMAX
 10
12.0
 20
9.0
  9
$UNITMODE
 70
     0
  9
$VISRETAIN
 70
     0
  9
$PLINEGEN
 70
     0
  9
$PSLTSCALE
 70
     0
  0
ENDSEC
  0
SECTION
  2
TABLES
  0
TABLE
  2
VPORT
 70
     1
  0
VPORT
  2
*ACTIVE
 70
     0
 10
0.0
 20
0.0
 11
1.0
 21
1.0
 12
195.04380321732449
 22
133.5127261426681
 13
0.0
 23
0.0
 14
10.0
 24
10.0
 15
10.0
 25
10.0
 16
0.0
 26
0.0
 36
1.0
 17
0.0
 27
0.0
 37
0.0
 40
275.42274993631997
 41
1.831871345029239
 42
50.0
 43
0.0
 44
0.0
 50
0.0
 51
0.0
 71
     0
 72
   500
 73
     1
 74
     0
 75
     0
 76
     0
 77
     0
 78
     2
  0
ENDTAB
  0
TABLE
  2
LTYPE
 70
     4
  0
LTYPE
  2
CONTINUOUS
 70
     0
  3
Solid Line
 72
    65
 73
     0
 40
0.0
  0
LTYPE
  2
CENTER
 70
     0
  3
____ _ ____ _ ____ _ ____ _ ____ _ ____ _ ____
 72
    65
 73
     4
 40
2.0
 49
1.25
 49
-0.25
 49
0.25
 49
-0.25
  0
LTYPE
  2
HIDDEN
 70
     0
  3
_ _ _ _ _ _ _ _ _ _ _ _ _ _ _ _ _ _ _ _ _ _ _
 72
    65
 73
     2
 40
0.375
 49
0.25
 49
-0.125
  0
LTYPE
  2
PHANTOM2
 70
     0
  3
___ _ _ ___ _ _ ___ _ _ ___ _ _
 72
    65
 73
     6
 40
1.25
 49
0.625
 49
-0.125
 49
0.125
 49
-0.125
 49
0.125
 49
-0.125
  0
ENDTAB
  0
TABLE
  2
LAYER
 70
     4
  0
LAYER
  2
0
 70
     0
 62
     7
  6
CONTINUOUS
  0
LAYER
  2
1
 70
     0
 62
     1
  6
CENTER
  0
LAYER
  2
2
 70
     0
 62
     2
  6
HIDDEN
  0
LAYER
  2
DEFPOINTS
 70
     0
 62
     7
  6
CONTINUOUS
  0
ENDTAB
  0
TABLE
  2
STYLE
 70
     2
  0
STYLE
  2
STANDARD
 70
     0
 40
0.0
 41
1.0
 50
0.0
 71
     0
 42
5.0
  3
TXT
  4
BIGFONT
  0
STYLE
  2
STANDARD1
 70
     0
 40
0.0
 41
1.0
 50
0.0
 71
     0
 42
3.0
  3
txt
  4

  0
ENDTAB
  0
TABLE
  2
VIEW
 70
     1
  0
VIEW
  2
ALL
 70
     0
 40
270.0
 10
220.99159663865549
 20
135.0
 41
0.0
 11
0.0
 21
0.0
 31
1.0
 12
0.0
 22
0.0
 32
0.0
 42
0.0
 43
0.0
 44
0.0
 50
0.0
 71
     0
  0
ENDTAB
  0
TABLE
  2
UCS
 70
     0
  0
ENDTAB
  0
TABLE
  2
APPID
 70
     6
  0
APPID
  2
ACAD
 70
     0
  0
APPID
  2
ACAD_EXEMPT_FROM_CAD_STANDARDS
 70
     0
  0
APPID
  2
GENIUS_GENODEF_13
 70
     0
  0
APPID
  2
GENIUS_GENOBJ-N-FIL_13
 70
     0
  0
APPID
  2
ACAD_MLEADERVER
 70
     0
  0
APPID
  2
ACAD_NAV_VCDISPLAY
 70
     0
  0
ENDTAB
  0
TABLE
  2
DIMSTYLE
 70
     1
  0
DIMSTYLE
  2
STANDARD
 70
     0
  3

  4

  5

  6

  7

 40
1.0
 41
0.18
 42
0.0625
 43
0.38
 44
0.18
 45
0.0
 46
0.0
 47
0.0
 48
0.0
140
0.18
141
0.09
142
0.0
143
25.399999999999999
144
1.0
145
0.0
146
1.0
147
0.09
 71
     0
 72
     0
 73
     1
 74
     1
 75
     0
 76
     0
 77
     0
 78
     0
170
     0
171
     2
172
     0
173
     0
174
     0
175
     0
176
     0
177
     0
178
     0
  0
ENDTAB
  0
ENDSEC
  0
SECTION
  2
BLOCKS
  0
BLOCK
  8
0
  2
$MODEL_SPACE
 70
     0
 10
0.0
 20
0.0
 30
0.0
  3
$MODEL_SPACE
  1

  0
ENDBLK
  5
133
  8
0
  0
BLOCK
 67
     1
  8
0
  2
$PAPER_SPACE
 70
     0
 10
0.0
 20
0.0
 30
0.0
  3
$PAPER_SPACE
  1

  0
ENDBLK
  5
131
 67
     1
  8
0
  0
ENDSEC
  0
SECTION
  2
ENTITIES
  0
LINE
  5
2E3
  8
1
 10
160.9415435273639
 20
214.30370089151171
 30
0.0
 11
308.94154352736399
 21
214.30370089151171
 31
0.0
  0
LINE
  5
2E4
  8
0
 10
191.94154352736189
 20
140.8037008915091
 30
0.0
 11
277.9415435273616
 21
140.8037008915127
 31
0.0
  0
LINE
  5
2E5
  8
0
 10
191.94154352736231
 20
120.803700891509
 30
0.0
 11
277.94154352736382
 21
120.8037008915128
 31
0.0
  0
LINE
  5
2E6
  8
0
 10
175.94153971266559
 20
229.30370089151171
 30
0.0
 11
293.94154352736439
 21
229.30370089151171
 31
0.0
  0
LINE
  5
2E7
  8
0
 10
293.94154352736427
 20
199.3037008915116
 30
0.0
 11
175.94154352736291
 21
199.3037008915116
 31
0.0
  0
LINE
  5
2E8
  8
1
 10
91.44154352736382
 20
145.8037008915108
 30
0.0
 11
91.44154352736382
 21
81.803700891510857
 31
0.0
  0
LINE
  5
2E9
  8
0
 10
76.44154352736382
 20
130.80370089151069
 30
0.0
 11
76.44154352736382
 21
87.803700891510857
 31
0.0
  0
LINE
  5
2EA
  8
0
 10
106.44154352736381
 20
87.803700891510857
 30
0.0
 11
106.44154352736381
 21
130.80370089151069
 31
0.0
  0
LINE
  5
2EB
  8
0
 10
77.44154352736382
 20
86.803700891510857
 30
0.0
 11
105.44154352736381
 21
86.803700891510857
 31
0.0
  0
ARC
  5
2EE
  8
0
 10
77.44154352736382
 20
87.803700891510857
 30
0.0
 40
1.0
 50
180.0
 51
270.0
  0
ARC
  5
309
  8
0
 10
105.44154352736381
 20
87.803700891510857
 30
0.0
 40
1.0
 50
270.0
 51
0.0
  0
ARC
  5
316
  8
0
 10
98.941543527363592
 20
130.80370089151069
 30
0.0
 40
7.5
 50
0.0
 51
53.130102354157273
  0
ARC
  5
317
  8
0
 10
83.941543527364047
 20
130.80370089151069
 30
0.0
 40
7.5
 50
126.8698976458427
 51
180.0
  0
ARC
  5
318
  8
2
 10
91.44154352736382
 20
140.80370089151091
 30
0.0
 40
20.0
 50
233.1301023541572
 51
306.86989764584268
  0
ARC
  5
319
  8
2
 10
83.941543527364047
 20
130.80369707681339
 30
0.0
 40
7.5
 50
180.0
 51
233.1301023541572
  0
ARC
  5
31A
  8
2
 10
98.941543527363592
 20
130.80370089151069
 30
0.0
 40
7.5
 50
306.86989764584263
 51
0.0
  0
ARC
  5
31B
  8
0
 10
91.44154352736382
 20
120.8037008915105
 30
0.0
 40
20.0
 50
53.130102354157273
 51
126.8698976458427
  0
LINE
  5
31C
  8
1
 10
176.44154352736379
 20
109.8037008915109
 30
0.0
 11
176.44154352736371
 21
81.803700891510886
 31
0.0
  0
LINE
  5
31D
  8
0
 10
185.9415435273626
 20
114.8037008915109
 30
0.0
 11
185.9415435273626
 21
87.803700891510886
 31
0.0
  0
LINE
  5
31E
  8
0
 10
165.941543527363
 20
114.8037008915109
 30
0.0
 11
165.941543527363
 21
87.803700891510886
 31
0.0
  0
LINE
  5
31F
  8
0
 10
166.941543527363
 20
86.803700891510886
 30
0.0
 11
184.9415435273626
 21
86.803700891510886
 31
0.0
  0
ARC
  5
325
  8
0
 10
166.941543527363
 20
87.803700891510886
 30
0.0
 40
1.0
 50
180.0
 51
270.0
  0
ARC
  5
33E
  8
0
 10
184.9415435273626
 20
87.803700891510886
 30
0.0
 40
1.0
 50
270.0
 51
0.0
  0
ARC
  5
34A
  8
0
 10
191.941543527363
 20
114.8037008915109
 30
0.0
 40
26.0
 50
90.0
 51
180.0
1001
GENIUS_GENODEF_13
1002
{
1000
HIER
1070
     0
1002
}
1002
{
1000
MANEDIT
1070
     0
1002
}
1002
{
1000
NOSEL
1070
     0
1002
}
1002
{
1000
BEHIND
1070
     0
1002
}
1002
{
1000
REACTOR
1002
}
1001
GENIUS_GENOBJ-N-FIL_13
1002
{
1000
OWNER
1000
GEN
1002
}
  0
ARC
  5
34B
  8
0
 10
191.9415435273626
 20
114.8037008915109
 30
0.0
 40
6.0
 50
90.0
 51
179.99999999999989
  0
LINE
  5
34C
  8
1
 10
234.94154352736379
 20
145.80370089151091
 30
0.0
 11
234.94154352736379
 21
115.8037008915109
 31
0.0
  0
LINE
  5
34D
  8
1
 10
176.4415435273639
 20
204.30370089151131
 30
0.0
 11
176.4415435273639
 21
224.3037008915116
 31
0.0
  0
ARC
  5
34E
  8
0
 10
185.941543527363
 20
214.30370089151171
 30
0.0
 40
20.0
 50
143.1301023541572
 51
216.8698976458428
  0
ARC
  5
34F
  8
0
 10
175.94154352736291
 20
206.80370089151191
 30
0.0
 40
7.5
 50
216.8698976458426
 51
270.0
  0
ARC
  5
350
  8
0
 10
175.94153971266559
 20
221.8037008915114
 30
0.0
 40
7.5
 50
90.0
 51
143.13010235415709
  0
LINE
  5
351
  8
1
 10
234.9415435273639
 20
234.3037008915116
 30
0.0
 11
234.9415435273639
 21
194.3037008915116
 31
0.0
  0
LINE
  5
352
  8
1
 10
293.44154352736427
 20
109.8037008915135
 30
0.0
 11
293.44154352736552
 21
81.803700891513444
 31
0.0
  0
LINE
  5
353
  8
0
 10
303.94154352736268
 20
114.8037008915139
 30
0.0
 11
303.94154352736388
 21
87.803700891513884
 31
0.0
  0
LINE
  5
354
  8
0
 10
283.94154352736319
 20
114.803700891513
 30
0.0
 11
283.94154352736427
 21
87.803700891512946
 31
0.0
  0
ARC
  5
355
  8
0
 10
302.94154352736388
 20
87.803700891513841
 30
0.0
 40
1.0
 50
270.0000000000025
 51
0.0000000000025444
  0
LINE
  5
35C
  8
0
 10
302.94154352736388
 20
86.803700891513841
 30
0.0
 11
284.94154352736427
 21
86.80370089151306
 31
0.0
  0
ARC
  5
35E
  8
0
 10
284.94154352736427
 20
87.803700891513017
 30
0.0
 40
1.0
 50
180.00000000000239
 51
270.0000000000025
  0
ARC
  5
380
  8
0
 10
277.94154352736268
 20
114.8037008915128
 30
0.0
 40
26.0
 50
0.0000000000025444
 51
90.000000000002487
1001
GENIUS_GENODEF_13
1002
{
1000
HIER
1070
     0
1002
}
1002
{
1000
MANEDIT
1070
     0
1002
}
1002
{
1000
NOSEL
1070
     0
1002
}
1002
{
1000
BEHIND
1070
     0
1002
}
1002
{
1000
REACTOR
1002
}
1001
GENIUS_GENOBJ-N-FIL_13
1002
{
1000
OWNER
1000
GEN
1002
}
  0
ARC
  5
381
  8
0
 10
277.94154352736308
 20
114.8037008915127
 30
0.0
 40
6.0
 50
0.0000000000025444
 51
90.000000000002487
  0
ARC
  5
382
  8
0
 10
283.94154352736302
 20
214.30370089151171
 30
0.0
 40
20.0
 50
323.1301023541572
 51
36.869897645842741
  0
LINE
  5
383
  8
1
 10
293.44154352736388
 20
204.30370089151131
 30
0.0
 11
293.44154352736388
 21
224.3037008915116
 31
0.0
  0
ARC
  5
384
  8
0
 10
293.94154352736308
 20
206.80370089151191
 30
0.0
 40
7.5
 50
270.0
 51
323.13010235415737
  0
ARC
  5
385
  8
0
 10
293.9415473420604
 20
221.8037008915114
 30
0.0
 40
7.5
 50
36.869897645842862
 51
90.0
  0
LINE
  5
38A
  8
2
 10
88.118043527363795
 20
88.003700891510903
 30
0.0
 11
86.918043527363807
 21
86.803700891510857
 31
0.0
  0
LINE
  5
38B
  8
2
 10
94.765043527363844
 20
88.003700891510903
 30
0.0
 11
95.965043527363832
 21
86.803700891510857
 31
0.0
  0
LINE
  5
38C
  8
2
 10
94.765043527363844
 20
88.003700891510903
 30
0.0
 11
88.118043527363724
 21
88.003700891510846
 31
0.0
  0
LINE
  5
38D
  8
2
 10
87.44154352736382
 20
99.803700891510871
 30
0.0
 11
88.118043527363724
 21
100.975433262831
 31
0.0
  0
LINE
  5
38E
  8
2
 10
95.441543527363834
 20
99.803700891510871
 30
0.0
 11
94.765043527363886
 21
100.975433262831
 31
0.0
  0
LINE
  5
38F
  8
2
 10
88.118043527363724
 20
101.91737403656261
 30
0.0
 11
94.765043527363886
 21
101.91737403656261
 31
0.0
  0
LINE
  5
390
  8
2
 10
87.44154352736382
 20
99.803700891510871
 30
0.0
 11
95.441543527363834
 21
99.803700891510871
 31
0.0
  0
LINE
  5
391
  8
2
 10
88.118043527363625
 20
101.91737403656261
 30
0.0
 11
91.44154352736382
 21
103.9143343039009
 31
0.0
  0
LINE
  5
392
  8
2
 10
94.765043527364014
 20
101.91737403656261
 30
0.0
 11
91.44154352736382
 21
103.9143343039009
 31
0.0
  0
LINE
  5
393
  8
2
 10
95.441543527363834
 20
87.327200891510927
 30
0.0
 11
95.441543527363834
 21
99.803700891510871
 31
0.0
  0
LINE
  5
394
  8
2
 10
94.765043527363886
 20
88.003700891510846
 30
0.0
 11
94.765043527363886
 21
101.91737403656261
 31
0.0
  0
LINE
  5
395
  8
2
 10
88.118043527363724
 20
88.003700891510846
 30
0.0
 11
88.118043527363724
 21
101.91737403656261
 31
0.0
  0
LINE
  5
396
  8
2
 10
87.44154352736382
 20
87.327200891510927
 30
0.0
 11
87.44154352736382
 21
99.803700891510871
 31
0.0
  0
LINE
  5
397
  8
2
 10
86.44154352736382
 20
105.8037008915108
 30
0.0
 11
86.44154352736382
 21
86.803700891510857
 31
0.0
  0
LINE
  5
398
  8
2
 10
96.44154352736382
 20
105.8037008915108
 30
0.0
 11
86.44154352736382
 21
105.8037008915108
 31
0.0
  0
LINE
  5
399
  8
2
 10
96.44154352736382
 20
86.803700891510857
 30
0.0
 11
96.44154352736382
 21
105.8037008915108
 31
0.0
  0
LINE
  5
39A
  8
2
 10
173.11804352736371
 20
88.003700891510903
 30
0.0
 11
171.91804352736369
 21
86.803700891510857
 31
0.0
  0
LINE
  5
39B
  8
2
 10
179.76504352736379
 20
88.003700891510903
 30
0.0
 11
180.9650435273638
 21
86.803700891510857
 31
0.0
  0
LINE
  5
39C
  8
2
 10
179.76504352736379
 20
88.003700891510903
 30
0.0
 11
173.11804352736371
 21
88.003700891510846
 31
0.0
  0
LINE
  5
39D
  8
2
 10
172.44154352736371
 20
99.803700891510871
 30
0.0
 11
173.11804352736371
 21
100.975433262831
 31
0.0
  0
LINE
  5
39E
  8
2
 10
180.44154352736371
 20
99.803700891510871
 30
0.0
 11
179.76504352736379
 21
100.975433262831
 31
0.0
  0
LINE
  5
39F
  8
2
 10
173.11804352736371
 20
101.91737403656261
 30
0.0
 11
179.76504352736379
 21
101.91737403656261
 31
0.0
  0
LINE
  5
3A0
  8
2
 10
172.44154352736371
 20
99.803700891510871
 30
0.0
 11
180.44154352736371
 21
99.803700891510871
 31
0.0
  0
LINE
  5
3A1
  8
2
 10
173.11804352736351
 20
101.91737403656261
 30
0.0
 11
176.44154352736371
 21
103.9143343039009
 31
0.0
  0
LINE
  5
3A2
  8
2
 10
179.7650435273639
 20
101.91737403656261
 30
0.0
 11
176.44154352736371
 21
103.9143343039009
 31
0.0
  0
LINE
  5
3A3
  8
2
 10
180.44154352736371
 20
87.327200891510927
 30
0.0
 11
180.44154352736371
 21
99.803700891510871
 31
0.0
  0
LINE
  5
3A4
  8
2
 10
179.76504352736379
 20
88.003700891510846
 30
0.0
 11
179.76504352736379
 21
101.91737403656261
 31
0.0
  0
LINE
  5
3A5
  8
2
 10
173.11804352736371
 20
88.003700891510846
 30
0.0
 11
173.11804352736371
 21
101.91737403656261
 31
0.0
  0
LINE
  5
3A6
  8
2
 10
172.44154352736371
 20
87.327200891510927
 30
0.0
 11
172.44154352736371
 21
99.803700891510871
 31
0.0
  0
LINE
  5
3A7
  8
2
 10
171.44154352736371
 20
105.8037008915108
 30
0.0
 11
171.44154352736371
 21
86.803700891510857
 31
0.0
  0
LINE
  5
3A8
  8
2
 10
181.44154352736371
 20
105.8037008915108
 30
0.0
 11
171.44154352736371
 21
105.8037008915108
 31
0.0
  0
LINE
  5
3A9
  8
2
 10
181.44154352736371
 20
86.803700891510857
 30
0.0
 11
181.44154352736371
 21
105.8037008915108
 31
0.0
  0
LINE
  5
3AA
  8
2
 10
290.11804352736527
 20
88.003700891513461
 30
0.0
 11
288.91804352736528
 21
86.803700891513415
 31
0.0
  0
LINE
  5
3AB
  8
2
 10
296.76504352736532
 20
88.003700891513461
 30
0.0
 11
297.96504352736531
 21
86.803700891513415
 31
0.0
  0
LINE
  5
3AC
  8
2
 10
296.76504352736532
 20
88.003700891513461
 30
0.0
 11
290.11804352736522
 21
88.003700891513404
 31
0.0
  0
LINE
  5
3AD
  8
2
 10
289.4415435273653
 20
99.803700891513415
 30
0.0
 11
290.11804352736522
 21
100.9754332628336
 31
0.0
  0
LINE
  5
3AE
  8
2
 10
297.4415435273653
 20
99.803700891513415
 30
0.0
 11
296.76504352736538
 21
100.9754332628336
 31
0.0
  0
LINE
  5
3AF
  8
2
 10
290.11804352736522
 20
101.91737403656521
 30
0.0
 11
296.76504352736538
 21
101.91737403656521
 31
0.0
  0
LINE
  5
3B0
  8
2
 10
289.4415435273653
 20
99.803700891513415
 30
0.0
 11
297.4415435273653
 21
99.803700891513415
 31
0.0
  0
LINE
  5
3B1
  8
2
 10
290.1180435273651
 20
101.91737403656521
 30
0.0
 11
293.4415435273653
 21
103.9143343039034
 31
0.0
  0
LINE
  5
3B2
  8
2
 10
296.76504352736549
 20
101.91737403656521
 30
0.0
 11
293.4415435273653
 21
103.9143343039034
 31
0.0
  0
LINE
  5
3B3
  8
2
 10
297.4415435273653
 20
87.327200891513485
 30
0.0
 11
297.4415435273653
 21
99.803700891513415
 31
0.0
  0
LINE
  5
3B4
  8
2
 10
296.76504352736538
 20
88.003700891513404
 30
0.0
 11
296.76504352736538
 21
101.91737403656521
 31
0.0
  0
LINE
  5
3B5
  8
2
 10
290.11804352736522
 20
88.003700891513404
 30
0.0
 11
290.11804352736522
 21
101.91737403656521
 31
0.0
  0
LINE
  5
3B6
  8
2
 10
289.4415435273653
 20
87.327200891513485
 30
0.0
 11
289.4415435273653
 21
99.803700891513415
 31
0.0
  0
LINE
  5
3B7
  8
2
 10
288.4415435273653
 20
105.8037008915134
 30
0.0
 11
288.4415435273653
 21
86.803700891513415
 31
0.0
  0
LINE
  5
3B8
  8
2
 10
298.4415435273653
 20
105.8037008915134
 30
0.0
 11
288.4415435273653
 21
105.8037008915134
 31
0.0
  0
LINE
  5
3B9
  8
2
 10
298.4415435273653
 20
86.803700891513415
 30
0.0
 11
298.4415435273653
 21
105.8037008915134
 31
0.0
  0
TEXT
  5
447
  8
0
 62
     3
 10
0.0
 20
0.0
 30
0.0
 40
10.0
  1
AGR140
  7
STANDARD1
  0
ENDSEC
  0
EOF
