  0
SECTION
  2
HEADER
  9
$ACADVER
  1
AC1009
  9
$INSBASE
 10
0.0
 20
0.0
 30
0.0
  9
$EXTMIN
 10
-0.0204638472032742
 20
-2.960436562073669
 30
0.0
  9
$EXTMAX
 10
286.93640405030072
 20
215.73597949051711
 30
0.0
  9
$LIMMIN
 10
0.0
 20
0.0
  9
$LIMMAX
 10
1125.0
 20
810.0
  9
$ORTHOMODE
 70
     1
  9
$REGENMODE
 70
     1
  9
$FILLMODE
 70
     1
  9
$QTEXTMODE
 70
     0
  9
$MIRRTEXT
 70
     0
  9
$DRAGMODE
 70
     2
  9
$LTSCALE
 40
30.0
  9
$OSMODE
 70
  3071
  9
$ATTMODE
 70
     1
  9
$TEXTSIZE
 40
0.2
  9
$TRACEWID
 40
0.05
  9
$TEXTSTYLE
  7
STANDARD
  9
$CLAYER
  8
0
  9
$CELTYPE
  6
BYLAYER
  9
$CECOLOR
 62
   256
  9
$DIMSCALE
 40
1.0
  9
$DIMASZ
 40
3.0
  9
$DIMEXO
 40
2.0
  9
$DIMDLI
 40
0.38
  9
$DIMRND
 40
0.0
  9
$DIMDLE
 40
0.0
  9
$DIMEXE
 40
2.0
  9
$DIMTP
 40
0.0
  9
$DIMTM
 40
0.0
  9
$DIMTXT
 40
3.2000000000000002
  9
$DIMCEN
 40
0.0
  9
$DIMTSZ
 40
0.0
  9
$DIMTOL
 70
     0
  9
$DIMLIM
 70
     0
  9
$DIMTIH
 70
     0
  9
$DIMTOH
 70
     0
  9
$DIMSE1
 70
     0
  9
$DIMSE2
 70
     0
  9
$DIMTAD
 70
     1
  9
$DIMZIN
 70
     0
  9
$DIMBLK
  1

  9
$DIMASO
 70
     0
  9
$DIMSHO
 70
     0
  9
$DIMPOST
  1

  9
$DIMAPOST
  1

  9
$DIMALT
 70
     0
  9
$DIMALTD
 70
     2
  9
$DIMALTF
 40
25.399999999999999
  9
$DIMLFAC
 40
1.0
  9
$DIMTOFL
 70
     1
  9
$DIMTVP
 40
1.6000000000000001
  9
$DIMTIX
 70
     1
  9
$DIMSOXD
 70
     0
  9
$DIMSAH
 70
     0
  9
$DIMBLK1
  1

  9
$DIMBLK2
  1

  9
$DIMSTYLE
  2
STANDARD
  9
$DIMCLRD
 70
     0
  9
$DIMCLRE
 70
     0
  9
$DIMCLRT
 70
     0
  9
$DIMTFAC
 40
1.0
  9
$DIMGAP
 40
0.09
  9
$LUNITS
 70
     2
  9
$LUPREC
 70
     4
  9
$SKETCHINC
 40
0.1
  9
$FILLETRAD
 40
0.0
  9
$AUNITS
 70
     0
  9
$AUPREC
 70
     4
  9
$MENU
  1
E:\r13\win\SUPPORT\ACAD
  9
$ELEVATION
 40
0.0
  9
$PELEVATION
 40
0.0
  9
$THICKNESS
 40
0.0
  9
$LIMCHECK
 70
     0
  9
$BLIPMODE
 70
     0
  9
$CHAMFERA
 40
0.0
  9
$CHAMFERB
 40
0.0
  9
$SKPOLY
 70
     0
  9
$TDCREATE
 40
2449839.627581019
  9
$TDUPDATE
 40
2456597.5009210999
  9
$TDINDWG
 40
0.0697502894
  9
$TDUSRTIMER
 40
0.0697502894
  9
$USRTIMER
 70
     1
  9
$ANGBASE
 50
0.0
  9
$ANGDIR
 70
     0
  9
$PDMODE
 70
     0
  9
$PDSIZE
 40
0.0
  9
$PLINEWID
 40
0.0
  9
$COORDS
 70
     1
  9
$SPLFRAME
 70
     0
  9
$SPLINETYPE
 70
     6
  9
$SPLINESEGS
 70
     8
  9
$ATTDIA
 70
     0
  9
$ATTREQ
 70
     1
  9
$HANDLING
 70
     1
  9
$HANDSEED
  5
1325
  9
$SURFTAB1
 70
     6
  9
$SURFTAB2
 70
     6
  9
$SURFTYPE
 70
     6
  9
$SURFU
 70
     6
  9
$SURFV
 70
     6
  9
$UCSNAME
  2

  9
$UCSORG
 10
0.0
 20
0.0
 30
0.0
  9
$UCSXDIR
 10
1.0
 20
0.0
 30
0.0
  9
$UCSYDIR
 10
0.0
 20
1.0
 30
0.0
  9
$PUCSNAME
  2

  9
$PUCSORG
 10
0.0
 20
0.0
 30
0.0
  9
$PUCSXDIR
 10
1.0
 20
0.0
 30
0.0
  9
$PUCSYDIR
 10
0.0
 20
1.0
 30
0.0
  9
$USERI1
 70
     0
  9
$USERI2
 70
     1
  9
$USERI3
 70
     0
  9
$USERI4
 70
     0
  9
$USERI5
 70
     0
  9
$USERR1
 40
0.0
  9
$USERR2
 40
0.0
  9
$USERR3
 40
0.0
  9
$USERR4
 40
0.0
  9
$USERR5
 40
0.0
  9
$WORLDVIEW
 70
     1
  9
$SHADEDGE
 70
     3
  9
$SHADEDIF
 70
    70
  9
$TILEMODE
 70
     1
  9
$MAXACTVP
 70
    16
  9
$PLIMCHECK
 70
     0
  9
$PEXTMIN
 10
1.0000000000000000E+020
 20
1.0000000000000000E+020
 30
1.0000000000000000E+020
  9
$PEXTMAX
 10
-1.0000000000000000E+020
 20
-1.0000000000000000E+020
 30
-1.0000000000000000E+020
  9
$PLIMMIN
 10
0.0
 20
0.0
  9
$PLIMMAX
 10
12.0
 20
9.0
  9
$UNITMODE
 70
     0
  9
$VISRETAIN
 70
     0
  9
$PLINEGEN
 70
     0
  9
$PSLTSCALE
 70
     0
  0
ENDSEC
  0
SECTION
  2
TABLES
  0
TABLE
  2
VPORT
 70
     1
  0
VPORT
  2
*ACTIVE
 70
     0
 10
0.0
 20
0.0
 11
1.0
 21
1.0
 12
585.00993858023253
 22
403.50448702520742
 13
0.0
 23
0.0
 14
30.0
 24
30.0
 15
30.0
 25
30.0
 16
0.0
 26
0.0
 36
1.0
 17
0.0
 27
0.0
 37
0.0
 40
820.28242528545559
 41
1.8318713450292401
 42
50.0
 43
0.0
 44
0.0
 50
0.0
 51
0.0
 71
     0
 72
   500
 73
     1
 74
     0
 75
     0
 76
     0
 77
     0
 78
     2
  0
ENDTAB
  0
TABLE
  2
LTYPE
 70
     4
  0
LTYPE
  2
CONTINUOUS
 70
     0
  3
Solid Line
 72
    65
 73
     0
 40
0.0
  0
LTYPE
  2
CENTER
 70
     0
  3
____ _ ____ _ ____ _ ____ _ ____ _ ____ _ ____
 72
    65
 73
     4
 40
2.0
 49
1.25
 49
-0.25
 49
0.25
 49
-0.25
  0
LTYPE
  2
HIDDEN
 70
     0
  3
_ _ _ _ _ _ _ _ _ _ _ _ _ _ _ _ _ _ _ _ _ _ _
 72
    65
 73
     2
 40
0.375
 49
0.25
 49
-0.125
  0
LTYPE
  2
PHANTOM2
 70
     0
  3
___ _ _ ___ _ _ ___ _ _ ___ _ _
 72
    65
 73
     6
 40
1.25
 49
0.625
 49
-0.125
 49
0.125
 49
-0.125
 49
0.125
 49
-0.125
  0
ENDTAB
  0
TABLE
  2
LAYER
 70
     3
  0
LAYER
  2
0
 70
     0
 62
     7
  6
CONTINUOUS
  0
LAYER
  2
1
 70
     0
 62
     1
  6
CENTER
  0
LAYER
  2
2
 70
     0
 62
     2
  6
HIDDEN
  0
ENDTAB
  0
TABLE
  2
STYLE
 70
     2
  0
STYLE
  2
STANDARD
 70
     0
 40
0.0
 41
1.0
 50
0.0
 71
     0
 42
0.2
  3
TXT
  4
BIGFONT
  0
STYLE
  2
STANDARD1
 70
     0
 40
0.0
 41
1.0
 50
0.0
 71
     0
 42
3.0
  3
txt
  4

  0
ENDTAB
  0
TABLE
  2
VIEW
 70
     1
  0
VIEW
  2
ALL
 70
     0
 40
810.0
 10
662.97478991596643
 20
405.0
 41
0.0
 11
0.0
 21
0.0
 31
1.0
 12
0.0
 22
0.0
 32
0.0
 42
0.0
 43
0.0
 44
0.0
 50
0.0
 71
     0
  0
ENDTAB
  0
TABLE
  2
UCS
 70
     0
  0
ENDTAB
  0
TABLE
  2
APPID
 70
     7
  0
APPID
  2
ACAD
 70
     0
  0
APPID
  2
DCO15
 70
     0
  0
APPID
  2
ACAD_DSTYLE_DIMJAG
 70
     0
  0
APPID
  2
ACAD_DSTYLE_DIMTALN
 70
     0
  0
APPID
  2
ACAD_EXEMPT_FROM_CAD_STANDARDS
 70
     0
  0
APPID
  2
ACAD_MLEADERVER
 70
     0
  0
APPID
  2
ACAD_NAV_VCDISPLAY
 70
     0
  0
ENDTAB
  0
TABLE
  2
DIMSTYLE
 70
     1
  0
DIMSTYLE
  2
STANDARD
 70
     0
  3

  4

  5

  6

  7

 40
1.0
 41
0.18
 42
0.0625
 43
0.38
 44
0.18
 45
0.0
 46
0.0
 47
0.0
 48
0.0
140
0.18
141
0.09
142
0.0
143
25.399999999999999
144
1.0
145
0.0
146
1.0
147
0.09
 71
     0
 72
     0
 73
     1
 74
     1
 75
     0
 76
     0
 77
     0
 78
     0
170
     0
171
     2
172
     0
173
     0
174
     0
175
     0
176
     0
177
     0
178
     0
  0
ENDTAB
  0
ENDSEC
  0
SECTION
  2
BLOCKS
  0
BLOCK
  8
0
  2
$MODEL_SPACE
 70
     0
 10
0.0
 20
0.0
 30
0.0
  3
$MODEL_SPACE
  1

  0
ENDBLK
  5
16D
  8
0
  0
BLOCK
 67
     1
  8
0
  2
$PAPER_SPACE
 70
     0
 10
0.0
 20
0.0
 30
0.0
  3
$PAPER_SPACE
  1

  0
ENDBLK
  5
16B
 67
     1
  8
0
  0
ENDSEC
  0
SECTION
  2
ENTITIES
  0
LINE
  5
108B
  8
1
 10
142.93640405030081
 20
198.23597949051711
 30
0.0
 11
286.93640405030072
 21
198.23597949051711
 31
0.0
  0
LINE
  5
108C
  8
0
 10
155.43640405030081
 20
185.73597949051711
 30
0.0
 11
274.43640405030072
 21
185.73597949051711
 31
0.0
  0
LINE
  5
108D
  8
0
 10
155.43640405030081
 20
210.73597949051711
 30
0.0
 11
274.43640405030078
 21
210.73597949051711
 31
0.0
  0
LINE
  5
108E
  8
0
 10
170.23640405030079
 20
120.0735966459653
 30
0.0
 11
259.63640405030083
 21
120.0735966459653
 31
0.0
  0
LINE
  5
1091
  8
0
 10
82.778082750940996
 20
71.073596645965381
 30
0.0
 11
59.278082750941003
 21
71.073596645965381
 31
0.0
  0
LINE
  5
1093
  8
2
 10
68.641517750940963
 20
85.073596645965381
 30
0.0
 11
71.028082750940996
 21
86.451480591153938
 31
0.0
  0
LINE
  5
1094
  8
2
 10
68.641517750940963
 20
85.073596645965381
 30
0.0
 11
73.414647750941015
 21
85.073596645965381
 31
0.0
  0
LINE
  5
1095
  8
2
 10
68.028082750940996
 20
83.073596645965367
 30
0.0
 11
74.028082750940996
 21
83.073596645965367
 31
0.0
  0
LINE
  5
1096
  8
2
 10
68.641517750940963
 20
71.687031645965419
 30
0.0
 11
73.414647750941015
 21
71.687031645965419
 31
0.0
  0
LINE
  5
1097
  8
2
 10
75.17808275094103
 20
89.073596645965395
 30
0.0
 11
66.878082750940962
 21
89.073596645965395
 31
0.0
  0
LINE
  5
1098
  8
0
 10
58.528082750940989
 20
112.5735966459654
 30
0.0
 11
58.528082750940989
 21
71.823596645965381
 31
0.0
  0
LINE
  5
1099
  8
2
 10
65.878082750940962
 20
88.073596645965367
 30
0.0
 11
65.878082750940962
 21
71.073596645965381
 31
0.0
  0
LINE
  5
109A
  8
2
 10
68.641517750940963
 20
71.687031645965419
 30
0.0
 11
68.641517750940963
 21
85.073596645965381
 31
0.0
  0
LINE
  5
109B
  8
2
 10
68.028082750940996
 20
71.073596645965381
 30
0.0
 11
68.028082750940996
 21
83.073596645965367
 31
0.0
  0
ARC
  5
109C
  8
0
 10
59.278082750941003
 20
71.823596645965381
 30
0.0
 40
0.75
 50
180.0
 51
269.99999999999989
  0
LINE
  5
109D
  8
2
 10
68.028082750940996
 20
71.073596645965381
 30
0.0
 11
68.641517750940963
 21
71.687031645965419
 31
0.0
  0
LINE
  5
109E
  8
2
 10
68.028082750940996
 20
83.073596645965367
 30
0.0
 11
68.641517750940963
 21
84.136097233106398
 31
0.0
  0
LINE
  5
10A0
  8
2
 10
66.878082750940962
 20
89.073596645965395
 30
0.0
 11
65.878082750940962
 21
88.073596645965367
 31
0.0
  0
LINE
  5
10A2
  8
1
 10
71.028082750940996
 20
125.0735966459654
 30
0.0
 11
71.028082750940996
 21
66.073596645965381
 31
0.0
  0
LINE
  5
10A3
  8
0
 10
83.528082750940996
 20
112.5735966459654
 30
0.0
 11
83.528082750940996
 21
71.823596645965381
 31
0.0
  0
LINE
  5
10A4
  8
2
 10
76.17808275094103
 20
88.073596645965367
 30
0.0
 11
76.17808275094103
 21
71.073596645965381
 31
0.0
  0
LINE
  5
10A5
  8
2
 10
73.414647750941015
 20
71.687031645965419
 30
0.0
 11
73.414647750941015
 21
85.073596645965381
 31
0.0
  0
LINE
  5
10A6
  8
2
 10
74.028082750940996
 20
71.073596645965381
 30
0.0
 11
74.028082750940996
 21
83.073596645965367
 31
0.0
  0
LINE
  5
10A7
  8
2
 10
73.414647750941015
 20
71.687031645965419
 30
0.0
 11
74.028082750940996
 21
71.073596645965381
 31
0.0
  0
ARC
  5
10A8
  8
0
 10
82.778082750940996
 20
71.823596645965381
 30
0.0
 40
0.75
 50
270.0
 51
0.0
  0
LINE
  5
10A9
  8
2
 10
74.028082750940996
 20
83.073596645965367
 30
0.0
 11
73.414647750941015
 21
84.136097233106398
 31
0.0
  0
LINE
  5
10AA
  8
2
 10
73.414647750941015
 20
85.073596645965381
 30
0.0
 11
71.028082750940996
 21
86.451480591153938
 31
0.0
  0
LINE
  5
10AD
  8
2
 10
75.17808275094103
 20
89.073596645965395
 30
0.0
 11
76.17808275094103
 21
88.073596645965367
 31
0.0
  0
LINE
  5
10B1
  8
2
 10
151.28640405030069
 20
88.073596645965367
 30
0.0
 11
151.28640405030069
 21
71.073596645965381
 31
0.0
  0
LINE
  5
10B2
  8
1
 10
156.43640405030081
 20
66.073596645965381
 30
0.0
 11
156.43640405030081
 21
94.073596645965395
 31
0.0
  0
LINE
  5
10B3
  8
2
 10
161.58640405030081
 20
88.073596645965367
 30
0.0
 11
161.58640405030081
 21
71.073596645965381
 31
0.0
  0
LINE
  5
10B4
  8
0
 10
147.93640405030069
 20
97.773596645965384
 30
0.0
 11
147.93640405030069
 21
71.373596645965435
 31
0.0
  0
LINE
  5
10B6
  8
2
 10
154.0498390503007
 20
71.687031645965419
 30
0.0
 11
158.8229690503008
 21
71.687031645965419
 31
0.0
  0
LINE
  5
10B7
  8
2
 10
153.43640405030081
 20
83.073596645965367
 30
0.0
 11
159.43640405030069
 21
83.073596645965367
 31
0.0
  0
LINE
  5
10B8
  8
2
 10
154.0498390503007
 20
85.073596645965381
 30
0.0
 11
158.8229690503008
 21
85.073596645965381
 31
0.0
  0
LINE
  5
10B9
  8
2
 10
158.8229690503008
 20
85.073596645965381
 30
0.0
 11
156.43640405030081
 21
86.451480591153938
 31
0.0
  0
LINE
  5
10BA
  8
0
 10
148.23640405030079
 20
71.073596645965381
 30
0.0
 11
162.6364040503008
 21
71.073596645965381
 31
0.0
  0
LINE
  5
10BB
  8
2
 10
153.43640405030081
 20
71.073596645965381
 30
0.0
 11
153.43640405030081
 21
83.073596645965367
 31
0.0
  0
LINE
  5
10BC
  8
2
 10
154.0498390503007
 20
71.687031645965419
 30
0.0
 11
154.0498390503007
 21
85.073596645965381
 31
0.0
  0
ARC
  5
10BD
  8
0
 10
148.23640405030079
 20
71.373596645965435
 30
0.0
 40
0.3
 50
180.0
 51
269.99999999999989
  0
LINE
  5
10BE
  8
2
 10
153.43640405030081
 20
71.073596645965381
 30
0.0
 11
154.0498390503007
 21
71.687031645965419
 31
0.0
  0
LINE
  5
10BF
  8
2
 10
154.0498390503007
 20
85.073596645965381
 30
0.0
 11
156.43640405030081
 21
86.451480591153938
 31
0.0
  0
LINE
  5
10C0
  8
2
 10
153.43640405030081
 20
83.073596645965367
 30
0.0
 11
154.0498390503007
 21
84.136097233106398
 31
0.0
  0
LINE
  5
10C1
  8
2
 10
159.43640405030069
 20
71.073596645965381
 30
0.0
 11
159.43640405030069
 21
83.073596645965367
 31
0.0
  0
LINE
  5
10C2
  8
2
 10
158.8229690503008
 20
71.687031645965419
 30
0.0
 11
158.8229690503008
 21
85.073596645965381
 31
0.0
  0
LINE
  5
10C3
  8
2
 10
158.8229690503008
 20
71.687031645965419
 30
0.0
 11
159.43640405030069
 21
71.073596645965381
 31
0.0
  0
ARC
  5
10C4
  8
0
 10
162.6364040503008
 20
71.373596645965435
 30
0.0
 40
0.3
 50
270.0
 51
0.0
  0
LINE
  5
10C5
  8
2
 10
159.43640405030069
 20
83.073596645965367
 30
0.0
 11
158.8229690503008
 21
84.136097233106398
 31
0.0
  0
LINE
  5
10C6
  8
2
 10
152.28640405030069
 20
89.073596645965395
 30
0.0
 11
160.58640405030081
 21
89.073596645965395
 31
0.0
  0
ARC
  5
10C7
  8
0
 10
170.23640405030079
 20
97.773596645965384
 30
0.0
 40
22.300000000000001
 50
90.0
 51
180.0
  0
LINE
  5
10C8
  8
2
 10
152.28640405030069
 20
89.073596645965395
 30
0.0
 11
151.28640405030069
 21
88.073596645965367
 31
0.0
  0
LINE
  5
10CA
  8
2
 10
160.58640405030081
 20
89.073596645965395
 30
0.0
 11
161.58640405030081
 21
88.073596645965367
 31
0.0
  0
LINE
  5
10CC
  8
1
 10
156.43640405030081
 20
190.23597949051711
 30
0.0
 11
156.43640405030081
 21
206.23597949051711
 31
0.0
  0
LINE
  5
10D1
  8
1
 10
214.93640405030069
 20
125.0735966459654
 30
0.0
 11
214.93640405030081
 21
100.0735966459654
 31
0.0
  0
LINE
  5
10D2
  8
2
 10
268.28640405030069
 20
88.073596645965367
 30
0.0
 11
268.28640405030069
 21
71.073596645965381
 31
0.0
  0
LINE
  5
10D3
  8
1
 10
273.43640405030078
 20
66.073596645965381
 30
0.0
 11
273.43640405030078
 21
94.073596645965395
 31
0.0
  0
LINE
  5
10D4
  8
0
 10
281.93640405030078
 20
97.773596645965384
 30
0.0
 11
281.93640405030078
 21
71.373596645965435
 31
0.0
  0
LINE
  5
10D6
  8
2
 10
278.58640405030093
 20
88.073596645965367
 30
0.0
 11
278.58640405030093
 21
71.073596645965381
 31
0.0
  0
LINE
  5
10D7
  8
2
 10
275.8229690503008
 20
85.073596645965381
 30
0.0
 11
273.43640405030078
 21
86.451480591153938
 31
0.0
  0
LINE
  5
10D8
  8
2
 10
275.8229690503008
 20
85.073596645965381
 30
0.0
 11
271.04983905030082
 21
85.073596645965381
 31
0.0
  0
LINE
  5
10D9
  8
2
 10
276.43640405030078
 20
83.073596645965367
 30
0.0
 11
270.43640405030078
 21
83.073596645965367
 31
0.0
  0
LINE
  5
10DA
  8
2
 10
275.8229690503008
 20
71.687031645965419
 30
0.0
 11
271.04983905030082
 21
71.687031645965419
 31
0.0
  0
LINE
  5
10DB
  8
0
 10
281.63640405030083
 20
71.073596645965381
 30
0.0
 11
267.23640405030079
 21
71.073596645965381
 31
0.0
  0
LINE
  5
10DC
  8
2
 10
271.04983905030082
 20
71.687031645965419
 30
0.0
 11
271.04983905030082
 21
85.073596645965381
 31
0.0
  0
LINE
  5
10DD
  8
2
 10
270.43640405030078
 20
71.073596645965381
 30
0.0
 11
270.43640405030078
 21
83.073596645965367
 31
0.0
  0
ARC
  5
10DE
  8
0
 10
267.23640405030079
 20
71.373596645965392
 30
0.0
 40
0.3
 50
180.0
 51
270.0
  0
LINE
  5
10DF
  8
2
 10
271.04983905030082
 20
71.687031645965419
 30
0.0
 11
270.43640405030078
 21
71.073596645965381
 31
0.0
  0
LINE
  5
10E0
  8
2
 10
271.04983905030082
 20
85.073596645965381
 30
0.0
 11
273.43640405030078
 21
86.451480591153938
 31
0.0
  0
LINE
  5
10E1
  8
2
 10
270.43640405030078
 20
83.073596645965367
 30
0.0
 11
271.04983905030082
 21
84.136097233106398
 31
0.0
  0
LINE
  5
10E2
  8
2
 10
275.8229690503008
 20
71.687031645965419
 30
0.0
 11
275.8229690503008
 21
85.073596645965381
 31
0.0
  0
LINE
  5
10E3
  8
2
 10
276.43640405030078
 20
71.073596645965381
 30
0.0
 11
276.43640405030078
 21
83.073596645965367
 31
0.0
  0
LINE
  5
10E4
  8
2
 10
276.43640405030078
 20
71.073596645965381
 30
0.0
 11
275.8229690503008
 21
71.687031645965419
 31
0.0
  0
ARC
  5
10E5
  8
0
 10
281.63640405030083
 20
71.373596645965435
 30
0.0
 40
0.3
 50
270.00000000000011
 51
0.0
  0
LINE
  5
10E6
  8
2
 10
276.43640405030078
 20
83.073596645965367
 30
0.0
 11
275.8229690503008
 21
84.136097233106398
 31
0.0
  0
ARC
  5
10E7
  8
0
 10
259.63640405030083
 20
97.773596645965384
 30
0.0
 40
22.300000000000001
 50
0.0
 51
90.0
  0
LINE
  5
10E8
  8
2
 10
269.28640405030058
 20
89.073596645965395
 30
0.0
 11
277.58640405030093
 21
89.073596645965395
 31
0.0
  0
LINE
  5
10EA
  8
2
 10
269.28640405030069
 20
89.073596645965395
 30
0.0
 11
268.28640405030069
 21
88.073596645965367
 31
0.0
  0
LINE
  5
10EB
  8
2
 10
277.58640405030093
 20
89.073596645965395
 30
0.0
 11
278.58640405030093
 21
88.073596645965367
 31
0.0
  0
LINE
  5
10EC
  8
1
 10
214.93640405030081
 20
215.73597949051711
 30
0.0
 11
214.93640405030081
 21
180.73597949051711
 31
0.0
  0
LINE
  5
10EF
  8
1
 10
273.43640405030078
 20
190.23597949051711
 30
0.0
 11
273.43640405030078
 21
206.23597949051711
 31
0.0
  0
LINE
  5
1166
  8
0
 10
162.93640405030081
 20
97.773596645965384
 30
0.0
 11
162.93640405030081
 21
71.373596645965435
 31
0.0
  0
LINE
  5
1169
  8
0
 10
266.93640405030078
 20
97.773596645965597
 30
0.0
 11
266.93640405030078
 21
71.373596645965435
 31
0.0
  0
LINE
  5
116A
  8
0
 10
170.23640405030079
 20
105.0735966459654
 30
0.0
 11
259.63640405030088
 21
105.0735966459653
 31
0.0
  0
ARC
  5
116D
  8
0
 10
170.23640405030079
 20
97.773596645965384
 30
0.0
 40
7.2999999999999998
 50
90.0
 51
180.0
  0
ARC
  5
116E
  8
0
 10
259.63640405030088
 20
97.773596645965597
 30
0.0
 40
7.2999999999999998
 50
0.0000000000002799
 51
90.0
  0
POLYLINE
  5
119A
  8
0
 66
     1
 10
0.0
 20
0.0
 30
0.0
  0
VERTEX
  5
119C
  8
0
 10
83.528082750940996
 20
112.5735966459654
 30
0.0
 42
0.1522155302173936
  0
VERTEX
  5
119D
  8
0
 10
82.705119782974904
 20
115.2142446490534
 30
0.0
 42
0.1069431103829777
  0
VERTEX
  5
119E
  8
0
 10
79.866917515772826
 20
117.8768975048645
 30
0.0
 42
0.0743431597850615
 70
     2
 50
149.03624346792651
  0
VERTEX
  5
119F
  8
0
 10
76.035967579868043
 20
119.4606200039124
 30
0.0
 42
0.060973619523835
 50
149.03624346792651
  0
VERTEX
  5
11A0
  8
0
 10
71.028082750940968
 20
120.0735966459653
 30
0.0
 42
0.0609736195238361
  0
VERTEX
  5
11A1
  8
0
 10
66.020197922013779
 20
119.4606200039124
 30
0.0
 42
0.0743431597850589
  0
VERTEX
  5
11A2
  8
0
 10
62.189247986109109
 20
117.8768975048645
 30
0.0
 42
0.1069431103829797
 70
     2
 50
210.9637565320734
  0
VERTEX
  5
11A3
  8
0
 10
59.351045718907002
 20
115.2142446490534
 30
0.0
 42
0.1522155302173927
 50
210.9637565320734
  0
VERTEX
  5
11A4
  8
0
 10
58.528082750940939
 20
112.5735966459654
 30
0.0
 42
0.1522155302173917
  0
SEQEND
  5
119B
  8
0
  0
POLYLINE
  5
11B7
  8
2
 66
     1
 10
0.0
 20
0.0
 30
0.0
  0
VERTEX
  5
11B8
  8
2
 10
83.528082750940996
 20
112.5735966459654
 30
0.0
 42
-0.1522155302173936
  0
VERTEX
  5
11B9
  8
2
 10
82.705119782974904
 20
109.93294864287731
 30
0.0
 42
-0.1069431103829777
  0
VERTEX
  5
11BA
  8
2
 10
79.866917515772826
 20
107.2702957870663
 30
0.0
 42
-0.0743431597850615
 70
     2
 50
149.03624346792651
  0
VERTEX
  5
11BB
  8
2
 10
76.035967579868043
 20
105.68657328801829
 30
0.0
 42
-0.060973619523835
 50
149.03624346792651
  0
VERTEX
  5
11BC
  8
2
 10
71.028082750940968
 20
105.0735966459654
 30
0.0
 42
-0.0609736195238361
  0
VERTEX
  5
11BD
  8
2
 10
66.020197922013779
 20
105.68657328801829
 30
0.0
 42
-0.0743431597850589
  0
VERTEX
  5
11BE
  8
2
 10
62.189247986109109
 20
107.2702957870662
 30
0.0
 42
-0.1069431103829797
 70
     2
 50
210.9637565320734
  0
VERTEX
  5
11BF
  8
2
 10
59.351045718907002
 20
109.93294864287731
 30
0.0
 42
-0.1522155302173927
 50
210.9637565320734
  0
VERTEX
  5
11C0
  8
2
 10
58.528082750940939
 20
112.5735966459654
 30
0.0
 42
-0.1522155302173917
  0
SEQEND
  5
11C1
  8
2
  0
POLYLINE
  5
11D0
  8
0
 66
     1
 10
0.0
 20
0.0
 30
0.0
  0
VERTEX
  5
11D1
  8
0
 10
155.43640405030081
 20
210.73597949051711
 30
0.0
 42
0.1522155302173936
  0
VERTEX
  5
11D2
  8
0
 10
152.79575604721279
 20
209.913016522551
 30
0.0
 42
0.1069431103829777
  0
VERTEX
  5
11D3
  8
0
 10
150.13310319140169
 20
207.07481425534891
 30
0.0
 42
0.0743431597850615
 70
     2
 50
239.03624346792651
  0
VERTEX
  5
11D4
  8
0
 10
148.54938069235371
 20
203.24386431944421
 30
0.0
 42
0.060973619523835
 50
149.03624346792651
  0
VERTEX
  5
11D5
  8
0
 10
147.93640405030081
 20
198.235979490517
 30
0.0
 42
0.0609736195238361
  0
VERTEX
  5
11D6
  8
0
 10
148.54938069235379
 20
193.22809466158989
 30
0.0
 42
0.0743431597850589
  0
VERTEX
  5
11D7
  8
0
 10
150.13310319140169
 20
189.39714472568519
 30
0.0
 42
0.1069431103829797
 70
     2
 50
300.96375653207349
  0
VERTEX
  5
11D8
  8
0
 10
152.79575604721279
 20
186.5589424584831
 30
0.0
 42
0.1522155302173926
 50
210.9637565320734
  0
VERTEX
  5
11D9
  8
0
 10
155.43640405030081
 20
185.735979490517
 30
0.0
 42
0.1522155302173917
  0
SEQEND
  5
11DA
  8
0
  0
POLYLINE
  5
11DB
  8
0
 66
     1
 10
0.0
 20
0.0
 30
0.0
  0
VERTEX
  5
11DC
  8
0
 10
274.43640405030072
 20
210.73597949051711
 30
0.0
 42
-0.1522155302173936
  0
VERTEX
  5
11DD
  8
0
 10
277.0770520533888
 20
209.913016522551
 30
0.0
 42
-0.1069431103829777
  0
VERTEX
  5
11DE
  8
0
 10
279.73970490919982
 20
207.07481425534891
 30
0.0
 42
-0.0743431597850615
 70
     2
 50
59.036243467926482
  0
VERTEX
  5
11DF
  8
0
 10
281.32342740824782
 20
203.24386431944421
 30
0.0
 42
-0.060973619523835
 50
149.03624346792651
  0
VERTEX
  5
11E0
  8
0
 10
281.93640405030072
 20
198.235979490517
 30
0.0
 42
-0.0609736195238361
  0
VERTEX
  5
11E1
  8
0
 10
281.32342740824782
 20
193.22809466158989
 30
0.0
 42
-0.0743431597850589
  0
VERTEX
  5
11E2
  8
0
 10
279.73970490919987
 20
189.39714472568519
 30
0.0
 42
-0.1069431103829797
 70
     2
 50
120.9637565320734
  0
VERTEX
  5
11E3
  8
0
 10
277.07705205338868
 20
186.5589424584831
 30
0.0
 42
-0.1522155302173926
 50
210.9637565320734
  0
VERTEX
  5
11E4
  8
0
 10
274.43640405030072
 20
185.735979490517
 30
0.0
 42
-0.1522155302173917
  0
SEQEND
  5
11E5
  8
0
  0
TEXT
  5
12BA
  8
0
 62
     3
 10
0.0
 20
0.0
 30
0.0
 40
10.0
  1
AGR140NB
  7
STANDARD1
  0
ENDSEC
  0
EOF
