  0
SECTION
  2
HEADER
  9
$ACADVER
  1
AC1009
  9
$INSBASE
 10
0.0
 20
0.0
 30
0.0
  9
$EXTMIN
 10
-0.0204638472032742
 20
-2.960436562073669
 30
0.0
  9
$EXTMAX
 10
294.57788101123413
 20
224.06054590674981
 30
0.0
  9
$LIMMIN
 10
0.0
 20
0.0
  9
$LIMMAX
 10
375.0
 20
270.0
  9
$ORTHOMODE
 70
     0
  9
$REGENMODE
 70
     1
  9
$FILLMODE
 70
     1
  9
$QTEXTMODE
 70
     0
  9
$MIRRTEXT
 70
     0
  9
$DRAGMODE
 70
     2
  9
$LTSCALE
 40
10.0
  9
$OSMODE
 70
  3071
  9
$ATTMODE
 70
     1
  9
$TEXTSIZE
 40
5.0
  9
$TRACEWID
 40
0.05
  9
$TEXTSTYLE
  7
STANDARD
  9
$CLAYER
  8
0
  9
$CELTYPE
  6
BYLAYER
  9
$CECOLOR
 62
   256
  9
$DIMSCALE
 40
1.0
  9
$DIMASZ
 40
3.0
  9
$DIMEXO
 40
2.0
  9
$DIMDLI
 40
0.38
  9
$DIMRND
 40
0.0
  9
$DIMDLE
 40
0.0
  9
$DIMEXE
 40
2.0
  9
$DIMTP
 40
0.0
  9
$DIMTM
 40
0.0
  9
$DIMTXT
 40
3.2000000000000002
  9
$DIMCEN
 40
0.09
  9
$DIMTSZ
 40
0.0
  9
$DIMTOL
 70
     0
  9
$DIMLIM
 70
     0
  9
$DIMTIH
 70
     0
  9
$DIMTOH
 70
     0
  9
$DIMSE1
 70
     0
  9
$DIMSE2
 70
     0
  9
$DIMTAD
 70
     1
  9
$DIMZIN
 70
     0
  9
$DIMBLK
  1

  9
$DIMASO
 70
     1
  9
$DIMSHO
 70
     0
  9
$DIMPOST
  1

  9
$DIMAPOST
  1

  9
$DIMALT
 70
     0
  9
$DIMALTD
 70
     2
  9
$DIMALTF
 40
25.399999999999999
  9
$DIMLFAC
 40
1.0
  9
$DIMTOFL
 70
     0
  9
$DIMTVP
 40
1.6000000000000001
  9
$DIMTIX
 70
     1
  9
$DIMSOXD
 70
     0
  9
$DIMSAH
 70
     0
  9
$DIMBLK1
  1

  9
$DIMBLK2
  1

  9
$DIMSTYLE
  2
STANDARD
  9
$DIMCLRD
 70
     0
  9
$DIMCLRE
 70
     0
  9
$DIMCLRT
 70
     0
  9
$DIMTFAC
 40
1.0
  9
$DIMGAP
 40
0.09
  9
$LUNITS
 70
     2
  9
$LUPREC
 70
     4
  9
$SKETCHINC
 40
0.1
  9
$FILLETRAD
 40
0.75
  9
$AUNITS
 70
     0
  9
$AUPREC
 70
     0
  9
$MENU
  1
E:\r13\win\SUPPORT\ACAD
  9
$ELEVATION
 40
0.0
  9
$PELEVATION
 40
0.0
  9
$THICKNESS
 40
0.0
  9
$LIMCHECK
 70
     0
  9
$BLIPMODE
 70
     0
  9
$CHAMFERA
 40
0.0
  9
$CHAMFERB
 40
0.0
  9
$SKPOLY
 70
     0
  9
$TDCREATE
 40
2449839.7831365741
  9
$TDUPDATE
 40
2456597.5010336689
  9
$TDINDWG
 40
0.0143911343
  9
$TDUSRTIMER
 40
0.0143911343
  9
$USRTIMER
 70
     1
  9
$ANGBASE
 50
0.0
  9
$ANGDIR
 70
     0
  9
$PDMODE
 70
     0
  9
$PDSIZE
 40
0.0
  9
$PLINEWID
 40
0.0
  9
$COORDS
 70
     1
  9
$SPLFRAME
 70
     0
  9
$SPLINETYPE
 70
     6
  9
$SPLINESEGS
 70
     8
  9
$ATTDIA
 70
     0
  9
$ATTREQ
 70
     1
  9
$HANDLING
 70
     1
  9
$HANDSEED
  5
6FC
  9
$SURFTAB1
 70
     6
  9
$SURFTAB2
 70
     6
  9
$SURFTYPE
 70
     6
  9
$SURFU
 70
     6
  9
$SURFV
 70
     6
  9
$UCSNAME
  2

  9
$UCSORG
 10
0.0
 20
0.0
 30
0.0
  9
$UCSXDIR
 10
1.0
 20
0.0
 30
0.0
  9
$UCSYDIR
 10
0.0
 20
1.0
 30
0.0
  9
$PUCSNAME
  2

  9
$PUCSORG
 10
0.0
 20
0.0
 30
0.0
  9
$PUCSXDIR
 10
1.0
 20
0.0
 30
0.0
  9
$PUCSYDIR
 10
0.0
 20
1.0
 30
0.0
  9
$USERI1
 70
     0
  9
$USERI2
 70
     1
  9
$USERI3
 70
     1
  9
$USERI4
 70
     0
  9
$USERI5
 70
     0
  9
$USERR1
 40
0.0
  9
$USERR2
 40
0.0
  9
$USERR3
 40
0.0
  9
$USERR4
 40
0.0
  9
$USERR5
 40
0.0
  9
$WORLDVIEW
 70
     1
  9
$SHADEDGE
 70
     3
  9
$SHADEDIF
 70
    70
  9
$TILEMODE
 70
     1
  9
$MAXACTVP
 70
    16
  9
$PLIMCHECK
 70
     0
  9
$PEXTMIN
 10
1.0000000000000000E+020
 20
1.0000000000000000E+020
 30
1.0000000000000000E+020
  9
$PEXTMAX
 10
-1.0000000000000000E+020
 20
-1.0000000000000000E+020
 30
-1.0000000000000000E+020
  9
$PLIMMIN
 10
0.0
 20
0.0
  9
$PLIMMAX
 10
12.0
 20
9.0
  9
$UNITMODE
 70
     0
  9
$VISRETAIN
 70
     0
  9
$PLINEGEN
 70
     0
  9
$PSLTSCALE
 70
     0
  0
ENDSEC
  0
SECTION
  2
TABLES
  0
TABLE
  2
VPORT
 70
     1
  0
VPORT
  2
*ACTIVE
 70
     0
 10
0.0
 20
0.0
 11
1.0
 21
1.0
 12
195.04380321732449
 22
133.5127261426681
 13
0.0
 23
0.0
 14
10.0
 24
10.0
 15
10.0
 25
10.0
 16
0.0
 26
0.0
 36
1.0
 17
0.0
 27
0.0
 37
0.0
 40
275.42274993631997
 41
1.831871345029239
 42
50.0
 43
0.0
 44
0.0
 50
0.0
 51
0.0
 71
     0
 72
   500
 73
     1
 74
     0
 75
     0
 76
     0
 77
     0
 78
     2
  0
ENDTAB
  0
TABLE
  2
LTYPE
 70
     4
  0
LTYPE
  2
CONTINUOUS
 70
     0
  3
Solid Line
 72
    65
 73
     0
 40
0.0
  0
LTYPE
  2
CENTER
 70
     0
  3
____ _ ____ _ ____ _ ____ _ ____ _ ____ _ ____
 72
    65
 73
     4
 40
2.0
 49
1.25
 49
-0.25
 49
0.25
 49
-0.25
  0
LTYPE
  2
HIDDEN
 70
     0
  3
_ _ _ _ _ _ _ _ _ _ _ _ _ _ _ _ _ _ _ _ _ _ _
 72
    65
 73
     2
 40
0.375
 49
0.25
 49
-0.125
  0
LTYPE
  2
PHANTOM2
 70
     0
  3
___ _ _ ___ _ _ ___ _ _ ___ _ _
 72
    65
 73
     6
 40
1.25
 49
0.625
 49
-0.125
 49
0.125
 49
-0.125
 49
0.125
 49
-0.125
  0
ENDTAB
  0
TABLE
  2
LAYER
 70
     3
  0
LAYER
  2
0
 70
     0
 62
     7
  6
CONTINUOUS
  0
LAYER
  2
1
 70
     0
 62
     1
  6
CENTER
  0
LAYER
  2
2
 70
     0
 62
     2
  6
HIDDEN
  0
ENDTAB
  0
TABLE
  2
STYLE
 70
     2
  0
STYLE
  2
STANDARD
 70
     0
 40
0.0
 41
1.0
 50
0.0
 71
     0
 42
5.0
  3
TXT
  4
BIGFONT
  0
STYLE
  2
STANDARD1
 70
     0
 40
0.0
 41
1.0
 50
0.0
 71
     0
 42
3.0
  3
txt
  4

  0
ENDTAB
  0
TABLE
  2
VIEW
 70
     1
  0
VIEW
  2
ALL
 70
     0
 40
270.0
 10
220.99159663865549
 20
135.0
 41
0.0
 11
0.0
 21
0.0
 31
1.0
 12
0.0
 22
0.0
 32
0.0
 42
0.0
 43
0.0
 44
0.0
 50
0.0
 71
     0
  0
ENDTAB
  0
TABLE
  2
UCS
 70
     0
  0
ENDTAB
  0
TABLE
  2
APPID
 70
     5
  0
APPID
  2
ACAD
 70
     0
  0
APPID
  2
GENIUS_GENODEF_13
 70
     0
  0
APPID
  2
GENIUS_GENOBJ-N-FIL_13
 70
     0
  0
APPID
  2
ACAD_MLEADERVER
 70
     0
  0
APPID
  2
ACAD_NAV_VCDISPLAY
 70
     0
  0
ENDTAB
  0
TABLE
  2
DIMSTYLE
 70
     1
  0
DIMSTYLE
  2
STANDARD
 70
     0
  3

  4

  5

  6

  7

 40
1.0
 41
0.18
 42
0.0625
 43
0.38
 44
0.18
 45
0.0
 46
0.0
 47
0.0
 48
0.0
140
0.18
141
0.09
142
0.0
143
25.399999999999999
144
1.0
145
0.0
146
1.0
147
0.09
 71
     0
 72
     0
 73
     1
 74
     1
 75
     0
 76
     0
 77
     0
 78
     0
170
     0
171
     2
172
     0
173
     0
174
     0
175
     0
176
     0
177
     0
178
     0
  0
ENDTAB
  0
ENDSEC
  0
SECTION
  2
BLOCKS
  0
BLOCK
  8
0
  2
$MODEL_SPACE
 70
     0
 10
0.0
 20
0.0
 30
0.0
  3
$MODEL_SPACE
  1

  0
ENDBLK
  5
544
  8
0
  0
BLOCK
 67
     1
  8
0
  2
$PAPER_SPACE
 70
     0
 10
0.0
 20
0.0
 30
0.0
  3
$PAPER_SPACE
  1

  0
ENDBLK
  5
542
 67
     1
  8
0
  0
ENDSEC
  0
SECTION
  2
ENTITIES
  0
LINE
  5
4AD
  8
1
 10
206.57788101123441
 20
147.20304978753461
 30
0.0
 11
206.57788101123421
 21
121.0605459067497
 31
0.0
  0
LINE
  5
4AE
  8
1
 10
60.077881011234268
 20
147.0605459067497
 30
0.0
 11
60.077881011234147
 21
81.060545906749724
 31
0.0
  0
ARC
  5
4AF
  8
2
 10
52.477863050479442
 20
134.0751039486488
 30
0.0
 40
5.9000000000000012
 50
180.14137545850809
 51
239.24874272312331
  0
ARC
  5
4B0
  8
2
 10
67.677898971989094
 20
134.0751039486488
 30
0.0
 40
5.9000000000000012
 50
300.7512572768768
 51
359.85862454149191
  0
ARC
  5
4B1
  8
0
 10
264.57788101123452
 20
117.06054590674979
 30
0.0
 40
25.0
 50
359.99999999999989
 51
90.0
1001
GENIUS_GENODEF_13
1002
{
1000
HIER
1070
     0
1002
}
1002
{
1000
MANEDIT
1070
     0
1002
}
1002
{
1000
NOSEL
1070
     0
1002
}
1002
{
1000
BEHIND
1070
     0
1002
}
1002
{
1000
REACTOR
1002
}
1001
GENIUS_GENOBJ-N-FIL_13
1002
{
1000
OWNER
1000
GEN
1002
}
  0
LINE
  5
4B2
  8
0
 10
73.577881011234268
 20
134.07065935672699
 30
0.0
 11
73.577881011234268
 21
86.060545906749724
 31
0.0
  0
LINE
  5
4B3
  8
0
 10
46.577881011234268
 20
134.07065935672699
 30
0.0
 11
46.577881011234268
 21
86.060545906749724
 31
0.0
  0
ARC
  5
4B4
  8
0
 10
148.57788101123421
 20
117.06054590674979
 30
0.0
 40
25.0
 50
90.0
 51
180.00000000000011
1001
GENIUS_GENODEF_13
1002
{
1000
HIER
1070
     0
1002
}
1002
{
1000
MANEDIT
1070
     0
1002
}
1002
{
1000
NOSEL
1070
     0
1002
}
1002
{
1000
BEHIND
1070
     0
1002
}
1002
{
1000
REACTOR
1002
}
1001
GENIUS_GENOBJ-N-FIL_13
1002
{
1000
OWNER
1000
GEN
1002
}
  0
LINE
  5
4B5
  8
1
 10
118.5898931684014
 20
205.56054590674981
 30
0.0
 11
294.57788101123413
 21
205.56054590674981
 31
0.0
  0
LINE
  5
4B6
  8
0
 10
206.57788101123441
 20
126.0605459067497
 30
0.0
 11
262.07788101123458
 21
126.0605459067497
 31
0.0
  0
LINE
  5
4B7
  8
0
 10
206.57788101123441
 20
192.06054590674981
 30
0.0
 11
281.69788101123441
 21
192.06054590674981
 31
0.0
  0
LINE
  5
4B8
  8
0
 10
206.57788101123441
 20
219.06054590674981
 30
0.0
 11
281.69788101123441
 21
219.06054590674981
 31
0.0
  0
LINE
  5
4B9
  8
0
 10
206.57788101123441
 20
219.06054590674981
 30
0.0
 11
131.45788101123429
 21
219.06054590674981
 31
0.0
  0
LINE
  5
4BA
  8
0
 10
206.57788101123441
 20
192.06054590674981
 30
0.0
 11
131.45788101123429
 21
192.06054590674981
 31
0.0
  0
LINE
  5
4BB
  8
1
 10
131.5778810112343
 20
195.56054590674941
 30
0.0
 11
131.5778810112343
 21
215.56054590674981
 31
0.0
  0
ARC
  5
4BC
  8
0
 10
144.28026196361529
 20
205.56054590674981
 30
0.0
 40
20.702380952381041
 50
149.10736726461499
 51
210.89263273538501
  0
ARC
  5
4BD
  8
0
 10
131.5778810112343
 20
197.9605459067497
 30
0.0
 40
5.9000000000000012
 50
210.89263273538481
 51
270.0
  0
ARC
  5
4BE
  8
0
 10
131.5778810112343
 20
213.1605459067498
 30
0.0
 40
5.9000000000000012
 50
90.0
 51
149.10736726461519
  0
LINE
  5
4BF
  8
1
 10
206.57788101123441
 20
224.06054590674981
 30
0.0
 11
206.57788101123421
 21
187.06054590674981
 31
0.0
  0
LINE
  5
4C0
  8
2
 10
134.80673160825211
 20
101.0605459067497
 30
0.0
 11
131.57352535825211
 21
102.9272384055329
 31
0.0
  0
LINE
  5
4C1
  8
2
 10
135.57352535825211
 20
99.06054590674978
 30
0.0
 11
127.5735253582521
 21
99.06054590674978
 31
0.0
  0
LINE
  5
4C2
  8
2
 10
134.80673160825211
 20
101.0605459067497
 30
0.0
 11
128.3403191082522
 21
101.0605459067497
 31
0.0
  0
LINE
  5
4C3
  8
2
 10
131.57352535825211
 20
104.06054590674979
 30
0.0
 11
135.7235253582522
 21
104.06054590674979
 31
0.0
  0
LINE
  5
4C4
  8
2
 10
134.80673160825211
 20
86.827339656749757
 30
0.0
 11
128.3403191082522
 21
86.827339656749757
 31
0.0
  0
LINE
  5
4C5
  8
0
 10
140.0778810112343
 20
86.060545906749766
 30
0.0
 11
123.5778810112343
 21
86.060545906749766
 31
0.0
  0
LINE
  5
4C6
  8
1
 10
131.57352535825211
 20
81.060545906749837
 30
0.0
 11
131.573525358252
 21
109.06054590674979
 31
0.0
  0
LINE
  5
4C7
  8
2
 10
126.42352535825199
 20
103.06054590674979
 30
0.0
 11
126.42352535825199
 21
86.060545906749766
 31
0.0
  0
LINE
  5
4C8
  8
2
 10
127.5735253582521
 20
86.060545906749766
 30
0.0
 11
127.5735253582521
 21
99.06054590674978
 31
0.0
  0
LINE
  5
4C9
  8
2
 10
128.3403191082522
 20
86.827339656749757
 30
0.0
 11
128.3403191082522
 21
101.0605459067497
 31
0.0
  0
LINE
  5
4CA
  8
2
 10
56.844674761234302
 20
86.8273396567497
 30
0.0
 11
56.844674761234302
 21
101.0605459067497
 31
0.0
  0
LINE
  5
4CB
  8
2
 10
56.077881011234268
 20
86.060545906749724
 30
0.0
 11
56.077881011234268
 21
99.060545906749724
 31
0.0
  0
LINE
  5
4CC
  8
2
 10
63.311087261234242
 20
86.8273396567497
 30
0.0
 11
63.311087261234242
 21
101.0605459067497
 31
0.0
  0
LINE
  5
4CD
  8
2
 10
64.077881011234268
 20
86.060545906749724
 30
0.0
 11
64.077881011234268
 21
99.060545906749724
 31
0.0
  0
LINE
  5
4CE
  8
2
 10
65.227881011234359
 20
103.0605459067497
 30
0.0
 11
65.227881011234359
 21
86.060545906749724
 31
0.0
  0
LINE
  5
4CF
  8
2
 10
54.927881011234177
 20
103.0605459067497
 30
0.0
 11
54.927881011234177
 21
86.060545906749724
 31
0.0
  0
LINE
  5
4D0
  8
0
 10
123.5778810112343
 20
86.060545906749766
 30
0.0
 11
123.5778810112342
 21
117.06054590674979
 31
0.0
  0
LINE
  5
4D1
  8
0
 10
73.577881011234268
 20
86.060545906749724
 30
0.0
 11
46.577881011234268
 21
86.060545906749724
 31
0.0
  0
LINE
  5
4D2
  8
2
 10
63.311087261234242
 20
86.8273396567497
 30
0.0
 11
56.844674761234302
 21
86.8273396567497
 31
0.0
  0
LINE
  5
4D3
  8
2
 10
56.844674761234302
 20
86.8273396567497
 30
0.0
 11
56.077881011234268
 21
86.060545906749724
 31
0.0
  0
LINE
  5
4D4
  8
2
 10
64.077881011234268
 20
86.060545906749724
 30
0.0
 11
63.311087261234242
 21
86.8273396567497
 31
0.0
  0
LINE
  5
4D5
  8
2
 10
128.3403191082522
 20
86.827339656749757
 30
0.0
 11
127.5735253582521
 21
86.060545906749766
 31
0.0
  0
ARC
  5
4D6
  8
2
 10
60.109264784846708
 20
146.7961989644339
 30
0.0
 40
20.702380952381041
 50
238.9659918061069
 51
300.75125727687691
  0
LINE
  5
4D7
  8
2
 10
60.077881011234268
 20
104.0605459067497
 30
0.0
 11
64.227881011234359
 21
104.0605459067497
 31
0.0
  0
LINE
  5
4D8
  8
2
 10
63.311087261234242
 20
101.0605459067497
 30
0.0
 11
56.844674761234302
 21
101.0605459067497
 31
0.0
  0
LINE
  5
4D9
  8
2
 10
64.077881011234268
 20
99.060545906749724
 30
0.0
 11
56.077881011234268
 21
99.060545906749724
 31
0.0
  0
LINE
  5
4DA
  8
2
 10
63.311087261234242
 20
101.0605459067497
 30
0.0
 11
60.077881011234268
 21
102.9272384055328
 31
0.0
  0
LINE
  5
4DB
  8
2
 10
60.077881011234268
 20
104.0605459067497
 30
0.0
 11
55.92788101123417
 21
104.0605459067497
 31
0.0
  0
LINE
  5
4DC
  8
2
 10
56.077881011234268
 20
99.060545906749724
 30
0.0
 11
56.844674761234302
 21
100.38867164067589
 31
0.0
  0
LINE
  5
4DD
  8
2
 10
56.844674761234302
 20
101.0605459067497
 30
0.0
 11
60.077881011234268
 21
102.9272384055328
 31
0.0
  0
LINE
  5
4DE
  8
2
 10
55.92788101123417
 20
104.0605459067497
 30
0.0
 11
54.927881011234177
 21
103.0605459067497
 31
0.0
  0
LINE
  5
4DF
  8
2
 10
64.227881011234359
 20
104.0605459067497
 30
0.0
 11
65.227881011234359
 21
103.0605459067497
 31
0.0
  0
LINE
  5
4E0
  8
2
 10
64.077881011234268
 20
99.060545906749724
 30
0.0
 11
63.311087261234242
 21
100.38867164067589
 31
0.0
  0
LINE
  5
4E1
  8
2
 10
127.42352535825199
 20
104.06054590674979
 30
0.0
 11
126.42352535825199
 21
103.06054590674979
 31
0.0
  0
LINE
  5
4E2
  8
2
 10
128.3403191082522
 20
101.0605459067497
 30
0.0
 11
131.57352535825211
 21
102.9272384055329
 31
0.0
  0
LINE
  5
4E3
  8
2
 10
127.5735253582521
 20
99.06054590674978
 30
0.0
 11
128.3403191082522
 21
100.38867164067599
 31
0.0
  0
LINE
  5
4E4
  8
2
 10
131.57352535825211
 20
104.06054590674979
 30
0.0
 11
127.42352535825199
 21
104.06054590674979
 31
0.0
  0
LINE
  5
4E5
  8
2
 10
136.7235253582522
 20
103.06054590674979
 30
0.0
 11
136.7235253582522
 21
86.060545906749766
 31
0.0
  0
LINE
  5
4E6
  8
2
 10
135.57352535825211
 20
86.060545906749766
 30
0.0
 11
135.57352535825211
 21
99.06054590674978
 31
0.0
  0
LINE
  5
4E7
  8
2
 10
134.80673160825211
 20
86.827339656749757
 30
0.0
 11
134.80673160825211
 21
101.0605459067497
 31
0.0
  0
LINE
  5
4E8
  8
0
 10
140.0778810112343
 20
86.060545906749766
 30
0.0
 11
140.0778810112341
 21
115.0605459067497
 31
0.0
  0
LINE
  5
4E9
  8
2
 10
135.57352535825211
 20
86.060545906749766
 30
0.0
 11
134.80673160825211
 21
86.827339656749757
 31
0.0
  0
LINE
  5
4EA
  8
0
 10
206.57788101123441
 20
126.0605459067497
 30
0.0
 11
151.0778810112341
 21
126.0605459067497
 31
0.0
  0
LINE
  5
4EB
  8
2
 10
135.57352535825211
 20
99.06054590674978
 30
0.0
 11
134.80673160825211
 21
100.38867164067599
 31
0.0
  0
LINE
  5
4EC
  8
2
 10
135.7235253582522
 20
104.06054590674979
 30
0.0
 11
136.7235253582522
 21
103.06054590674979
 31
0.0
  0
ARC
  5
4ED
  8
0
 10
151.0778810112341
 20
115.0605459067497
 30
0.0
 40
11.0
 50
90.000000000000057
 51
180.0000000000002
1001
GENIUS_GENODEF_13
1002
{
1000
HIER
1070
     0
1002
}
1002
{
1000
MANEDIT
1070
     0
1002
}
1002
{
1000
NOSEL
1070
     0
1002
}
1002
{
1000
BEHIND
1070
     0
1002
}
1002
{
1000
REACTOR
1002
}
1001
GENIUS_GENOBJ-N-FIL_13
1002
{
1000
OWNER
1000
GEN
1002
}
  0
LINE
  5
4EE
  8
1
 10
281.57788101123441
 20
195.56054590674941
 30
0.0
 11
281.57788101123441
 21
215.56054590674981
 31
0.0
  0
ARC
  5
4EF
  8
0
 10
268.87550005885339
 20
205.56054590674981
 30
0.0
 40
20.702380952381041
 50
329.10736726461499
 51
30.892632735385
  0
ARC
  5
4F0
  8
0
 10
281.57788101123441
 20
197.9605459067497
 30
0.0
 40
5.9000000000000012
 50
270.0
 51
329.10736726461522
  0
ARC
  5
4F1
  8
0
 10
281.57788101123441
 20
213.1605459067498
 30
0.0
 40
5.9000000000000012
 50
30.892632735384851
 51
90.0
  0
LINE
  5
4F2
  8
1
 10
281.58223666421662
 20
81.060545906749766
 30
0.0
 11
281.5822366642164
 21
109.06054590674979
 31
0.0
  0
LINE
  5
4F3
  8
2
 10
284.81544291421648
 20
86.827339656749757
 30
0.0
 11
284.81544291421648
 21
101.0605459067497
 31
0.0
  0
LINE
  5
4F4
  8
2
 10
285.58223666421662
 20
86.060545906749766
 30
0.0
 11
285.58223666421662
 21
99.06054590674978
 31
0.0
  0
LINE
  5
4F5
  8
2
 10
286.7322366642166
 20
103.06054590674979
 30
0.0
 11
286.7322366642166
 21
86.060545906749766
 31
0.0
  0
LINE
  5
4F6
  8
2
 10
278.3490304142166
 20
86.827339656749757
 30
0.0
 11
278.3490304142166
 21
101.0605459067497
 31
0.0
  0
LINE
  5
4F7
  8
2
 10
277.58223666421662
 20
86.060545906749766
 30
0.0
 11
277.58223666421662
 21
99.06054590674978
 31
0.0
  0
LINE
  5
4F8
  8
2
 10
276.43223666421648
 20
103.06054590674979
 30
0.0
 11
276.43223666421648
 21
86.060545906749766
 31
0.0
  0
LINE
  5
4F9
  8
0
 10
289.5778810112343
 20
86.060545906749766
 30
0.0
 11
289.57788101123452
 21
117.06054590674979
 31
0.0
  0
LINE
  5
4FA
  8
0
 10
273.07788101123441
 20
86.060545906749766
 30
0.0
 11
273.07788101123458
 21
115.0605459067497
 31
0.0
  0
LINE
  5
4FB
  8
0
 10
273.07788101123441
 20
86.060545906749766
 30
0.0
 11
289.5778810112343
 21
86.060545906749766
 31
0.0
  0
LINE
  5
4FC
  8
2
 10
285.58223666421662
 20
86.060545906749766
 30
0.0
 11
284.81544291421648
 21
86.827339656749757
 31
0.0
  0
LINE
  5
4FD
  8
2
 10
278.3490304142166
 20
86.827339656749757
 30
0.0
 11
277.58223666421662
 21
86.060545906749766
 31
0.0
  0
LINE
  5
4FE
  8
2
 10
284.81544291421648
 20
86.827339656749757
 30
0.0
 11
278.3490304142166
 21
86.827339656749757
 31
0.0
  0
LINE
  5
4FF
  8
2
 10
277.43223666421648
 20
104.06054590674979
 30
0.0
 11
276.43223666421648
 21
103.06054590674979
 31
0.0
  0
LINE
  5
500
  8
2
 10
285.73223666421671
 20
104.06054590674979
 30
0.0
 11
286.7322366642166
 21
103.06054590674979
 31
0.0
  0
LINE
  5
501
  8
2
 10
285.58223666421662
 20
99.06054590674978
 30
0.0
 11
284.81544291421648
 21
100.38867164067599
 31
0.0
  0
LINE
  5
502
  8
2
 10
281.58223666421662
 20
104.06054590674979
 30
0.0
 11
277.43223666421648
 21
104.06054590674979
 31
0.0
  0
LINE
  5
503
  8
2
 10
277.58223666421662
 20
99.06054590674978
 30
0.0
 11
278.3490304142166
 21
100.38867164067599
 31
0.0
  0
LINE
  5
504
  8
2
 10
278.3490304142166
 20
101.0605459067497
 30
0.0
 11
281.58223666421662
 21
102.9272384055329
 31
0.0
  0
LINE
  5
505
  8
2
 10
281.58223666421662
 20
104.06054590674979
 30
0.0
 11
285.73223666421671
 21
104.06054590674979
 31
0.0
  0
LINE
  5
506
  8
2
 10
284.81544291421648
 20
101.0605459067497
 30
0.0
 11
278.3490304142166
 21
101.0605459067497
 31
0.0
  0
LINE
  5
507
  8
2
 10
285.58223666421662
 20
99.06054590674978
 30
0.0
 11
277.58223666421662
 21
99.06054590674978
 31
0.0
  0
LINE
  5
508
  8
2
 10
284.81544291421648
 20
101.0605459067497
 30
0.0
 11
281.58223666421662
 21
102.9272384055329
 31
0.0
  0
ARC
  5
509
  8
0
 10
262.07788101123458
 20
115.0605459067497
 30
0.0
 40
11.0
 50
359.99999999999977
 51
89.999999999999957
1001
GENIUS_GENODEF_13
1002
{
1000
HIER
1070
     0
1002
}
1002
{
1000
MANEDIT
1070
     0
1002
}
1002
{
1000
NOSEL
1070
     0
1002
}
1002
{
1000
BEHIND
1070
     0
1002
}
1002
{
1000
REACTOR
1002
}
1001
GENIUS_GENOBJ-N-FIL_13
1002
{
1000
OWNER
1000
GEN
1002
}
  0
LINE
  5
50A
  8
0
 10
206.57788101123441
 20
142.06054590674981
 30
0.0
 11
264.57788101123452
 21
142.06054590674981
 31
0.0
  0
ARC
  5
50B
  8
0
 10
60.077881011234268
 20
121.3581649543687
 30
0.0
 40
20.702380952381041
 50
59.107367264614993
 51
120.89263273538501
  0
ARC
  5
50C
  8
0
 10
52.477881011234253
 20
134.0605459067497
 30
0.0
 40
5.9000000000000012
 50
120.89263273538479
 51
180.0
  0
ARC
  5
50D
  8
0
 10
67.677881011234291
 20
134.0605459067497
 30
0.0
 40
5.9000000000000012
 50
0.0
 51
59.107367264615142
  0
LINE
  5
50E
  8
0
 10
206.57788101123441
 20
142.06054590674981
 30
0.0
 11
148.57788101123421
 21
142.06054590674981
 31
0.0
  0
TEXT
  5
66D
  8
0
 62
     3
 10
0.0
 20
0.0
 30
0.0
 40
10.0
  1
AGR180N
  7
STANDARD1
  0
ENDSEC
  0
EOF
