  0
SECTION
  2
HEADER
  9
$ACADVER
  1
AC1009
  9
$INSBASE
 10
0.0
 20
0.0
 30
0.0
  9
$EXTMIN
 10
-0.0204638472032742
 20
-2.960436562073669
 30
0.0
  9
$EXTMAX
 10
315.76474352791882
 20
154.88011596580989
 30
0.0
  9
$LIMMIN
 10
0.0
 20
0.0
  9
$LIMMAX
 10
187.5
 20
135.0
  9
$ORTHOMODE
 70
     1
  9
$REGENMODE
 70
     1
  9
$FILLMODE
 70
     1
  9
$QTEXTMODE
 70
     0
  9
$MIRRTEXT
 70
     0
  9
$DRAGMODE
 70
     2
  9
$LTSCALE
 40
5.0
  9
$OSMODE
 70
  3071
  9
$ATTMODE
 70
     1
  9
$TEXTSIZE
 40
4.000000000000048
  9
$TRACEWID
 40
0.05
  9
$TEXTSTYLE
  7
STANDARD
  9
$CLAYER
  8
0
  9
$CELTYPE
  6
BYLAYER
  9
$CECOLOR
 62
   256
  9
$DIMSCALE
 40
0.5
  9
$DIMASZ
 40
3.0
  9
$DIMEXO
 40
2.0
  9
$DIMDLI
 40
0.38
  9
$DIMRND
 40
0.0
  9
$DIMDLE
 40
0.0
  9
$DIMEXE
 40
2.0
  9
$DIMTP
 40
0.0
  9
$DIMTM
 40
0.0
  9
$DIMTXT
 40
3.2000000000000002
  9
$DIMCEN
 40
0.0
  9
$DIMTSZ
 40
0.0
  9
$DIMTOL
 70
     0
  9
$DIMLIM
 70
     0
  9
$DIMTIH
 70
     0
  9
$DIMTOH
 70
     0
  9
$DIMSE1
 70
     0
  9
$DIMSE2
 70
     0
  9
$DIMTAD
 70
     1
  9
$DIMZIN
 70
     0
  9
$DIMBLK
  1

  9
$DIMASO
 70
     1
  9
$DIMSHO
 70
     0
  9
$DIMPOST
  1

  9
$DIMAPOST
  1

  9
$DIMALT
 70
     0
  9
$DIMALTD
 70
     2
  9
$DIMALTF
 40
25.399999999999999
  9
$DIMLFAC
 40
1.0
  9
$DIMTOFL
 70
     1
  9
$DIMTVP
 40
1.6000000000000001
  9
$DIMTIX
 70
     1
  9
$DIMSOXD
 70
     0
  9
$DIMSAH
 70
     0
  9
$DIMBLK1
  1

  9
$DIMBLK2
  1

  9
$DIMSTYLE
  2
STANDARD
  9
$DIMCLRD
 70
     0
  9
$DIMCLRE
 70
     0
  9
$DIMCLRT
 70
     0
  9
$DIMTFAC
 40
1.0
  9
$DIMGAP
 40
0.09
  9
$LUNITS
 70
     2
  9
$LUPREC
 70
     4
  9
$SKETCHINC
 40
0.1
  9
$FILLETRAD
 40
1.0
  9
$AUNITS
 70
     1
  9
$AUPREC
 70
     4
  9
$MENU
  1
E:\r13\win\SUPPORT\ACAD
  9
$ELEVATION
 40
0.0
  9
$PELEVATION
 40
0.0
  9
$THICKNESS
 40
0.0
  9
$LIMCHECK
 70
     0
  9
$BLIPMODE
 70
     0
  9
$CHAMFERA
 40
3.0
  9
$CHAMFERB
 40
3.0
  9
$SKPOLY
 70
     0
  9
$TDCREATE
 40
2449839.7904861118
  9
$TDUPDATE
 40
2456597.5012555332
  9
$TDINDWG
 40
0.1502130787
  9
$TDUSRTIMER
 40
0.1502130787
  9
$USRTIMER
 70
     1
  9
$ANGBASE
 50
0.0
  9
$ANGDIR
 70
     0
  9
$PDMODE
 70
     0
  9
$PDSIZE
 40
0.0
  9
$PLINEWID
 40
0.0
  9
$COORDS
 70
     1
  9
$SPLFRAME
 70
     0
  9
$SPLINETYPE
 70
     6
  9
$SPLINESEGS
 70
     8
  9
$ATTDIA
 70
     0
  9
$ATTREQ
 70
     1
  9
$HANDLING
 70
     1
  9
$HANDSEED
  5
14E2
  9
$SURFTAB1
 70
     6
  9
$SURFTAB2
 70
     6
  9
$SURFTYPE
 70
     6
  9
$SURFU
 70
     6
  9
$SURFV
 70
     6
  9
$UCSNAME
  2

  9
$UCSORG
 10
0.0
 20
0.0
 30
0.0
  9
$UCSXDIR
 10
1.0
 20
0.0
 30
0.0
  9
$UCSYDIR
 10
0.0
 20
1.0
 30
0.0
  9
$PUCSNAME
  2

  9
$PUCSORG
 10
0.0
 20
0.0
 30
0.0
  9
$PUCSXDIR
 10
1.0
 20
0.0
 30
0.0
  9
$PUCSYDIR
 10
0.0
 20
1.0
 30
0.0
  9
$USERI1
 70
     0
  9
$USERI2
 70
     1
  9
$USERI3
 70
     1
  9
$USERI4
 70
     0
  9
$USERI5
 70
     0
  9
$USERR1
 40
0.0
  9
$USERR2
 40
0.0
  9
$USERR3
 40
0.0
  9
$USERR4
 40
0.0
  9
$USERR5
 40
0.0
  9
$WORLDVIEW
 70
     1
  9
$SHADEDGE
 70
     3
  9
$SHADEDIF
 70
    70
  9
$TILEMODE
 70
     1
  9
$MAXACTVP
 70
    16
  9
$PLIMCHECK
 70
     0
  9
$PEXTMIN
 10
1.0000000000000000E+020
 20
1.0000000000000000E+020
 30
1.0000000000000000E+020
  9
$PEXTMAX
 10
-1.0000000000000000E+020
 20
-1.0000000000000000E+020
 30
-1.0000000000000000E+020
  9
$PLIMMIN
 10
0.0
 20
0.0
  9
$PLIMMAX
 10
12.0
 20
9.0
  9
$UNITMODE
 70
     0
  9
$VISRETAIN
 70
     0
  9
$PLINEGEN
 70
     0
  9
$PSLTSCALE
 70
     0
  0
ENDSEC
  0
SECTION
  2
TABLES
  0
TABLE
  2
VPORT
 70
     1
  0
VPORT
  2
*ACTIVE
 70
     0
 10
0.0
 20
0.0
 11
1.0
 21
1.0
 12
162.77576088337059
 22
75.957098247052045
 13
0.0
 23
0.0
 14
5.0
 24
5.0
 15
5.0
 25
5.0
 16
0.0
 26
0.0
 36
1.0
 17
0.0
 27
0.0
 37
0.0
 40
178.622218103536
 41
1.8318713450292401
 42
50.0
 43
0.0
 44
0.0
 50
0.0
 51
0.0
 71
     0
 72
   500
 73
     1
 74
     0
 75
     0
 76
     0
 77
     0
 78
     2
  0
ENDTAB
  0
TABLE
  2
LTYPE
 70
     4
  0
LTYPE
  2
CONTINUOUS
 70
     0
  3
Solid Line
 72
    65
 73
     0
 40
0.0
  0
LTYPE
  2
CENTER
 70
     0
  3
____ _ ____ _ ____ _ ____ _ ____ _ ____ _ ____
 72
    65
 73
     4
 40
2.0
 49
1.25
 49
-0.25
 49
0.25
 49
-0.25
  0
LTYPE
  2
HIDDEN
 70
     0
  3
_ _ _ _ _ _ _ _ _ _ _ _ _ _ _ _ _ _ _ _ _ _ _
 72
    65
 73
     2
 40
0.375
 49
0.25
 49
-0.125
  0
LTYPE
  2
PHANTOM2
 70
     0
  3
___ _ _ ___ _ _ ___ _ _ ___ _ _
 72
    65
 73
     6
 40
1.25
 49
0.625
 49
-0.125
 49
0.125
 49
-0.125
 49
0.125
 49
-0.125
  0
ENDTAB
  0
TABLE
  2
LAYER
 70
     4
  0
LAYER
  2
0
 70
     0
 62
     7
  6
CONTINUOUS
  0
LAYER
  2
1
 70
     0
 62
     1
  6
CENTER
  0
LAYER
  2
2
 70
     0
 62
     2
  6
HIDDEN
  0
LAYER
  2
DEFPOINTS
 70
     0
 62
     7
  6
CONTINUOUS
  0
ENDTAB
  0
TABLE
  2
STYLE
 70
     2
  0
STYLE
  2
STANDARD
 70
     0
 40
0.0
 41
1.0
 50
0.0
 71
     0
 42
4.000000000000048
  3
TXT
  4
BIGFONT
  0
STYLE
  2
STANDARD1
 70
     0
 40
0.0
 41
1.0
 50
0.0
 71
     0
 42
3.0
  3
txt
  4

  0
ENDTAB
  0
TABLE
  2
VIEW
 70
     1
  0
VIEW
  2
ALL
 70
     0
 40
135.0
 10
110.4957983193277
 20
67.5
 41
0.0
 11
0.0
 21
0.0
 31
1.0
 12
0.0
 22
0.0
 32
0.0
 42
0.0
 43
0.0
 44
0.0
 50
0.0
 71
     0
  0
ENDTAB
  0
TABLE
  2
UCS
 70
     0
  0
ENDTAB
  0
TABLE
  2
APPID
 70
     3
  0
APPID
  2
ACAD
 70
     0
  0
APPID
  2
ACAD_MLEADERVER
 70
     0
  0
APPID
  2
ACAD_NAV_VCDISPLAY
 70
     0
  0
ENDTAB
  0
TABLE
  2
DIMSTYLE
 70
     1
  0
DIMSTYLE
  2
STANDARD
 70
     0
  3

  4

  5

  6

  7

 40
1.0
 41
0.18
 42
0.0625
 43
0.38
 44
0.18
 45
0.0
 46
0.0
 47
0.0
 48
0.0
140
0.18
141
0.09
142
0.0
143
25.399999999999999
144
1.0
145
0.0
146
1.0
147
0.09
 71
     0
 72
     0
 73
     1
 74
     1
 75
     0
 76
     0
 77
     0
 78
     0
170
     0
171
     2
172
     0
173
     0
174
     0
175
     0
176
     0
177
     0
178
     0
  0
ENDTAB
  0
ENDSEC
  0
SECTION
  2
BLOCKS
  0
BLOCK
  8
0
  2
$MODEL_SPACE
 70
     0
 10
0.0
 20
0.0
 30
0.0
  3
$MODEL_SPACE
  1

  0
ENDBLK
  5
13F
  8
0
  0
BLOCK
 67
     1
  8
0
  2
$PAPER_SPACE
 70
     0
 10
0.0
 20
0.0
 30
0.0
  3
$PAPER_SPACE
  1

  0
ENDBLK
  5
13D
 67
     1
  8
0
  0
ENDSEC
  0
SECTION
  2
ENTITIES
  0
LINE
  5
747
  8
1
 10
193.7152844575788
 20
59.416560314801529
 30
0.0
 11
193.7152844575788
 21
30.10778029442131
 31
0.0
  0
LINE
  5
748
  8
1
 10
61.715284457578832
 20
59.416560314801529
 30
0.0
 11
61.715284457578832
 21
30.10778029442131
 31
0.0
  0
POLYLINE
  5
749
  8
0
 66
     1
 10
0.0
 20
0.0
 30
0.0
  0
VERTEX
  5
C7C
  8
0
 10
200.76528445757879
 20
52.581929094960678
 30
0.0
  0
VERTEX
  5
C7D
  8
0
 10
200.76453879266489
 20
52.582108113267878
 30
0.0
  0
VERTEX
  5
C7E
  8
0
 10
200.75857441973099
 20
52.583540032520567
 30
0.0
  0
VERTEX
  5
C7F
  8
0
 10
200.7466507203178
 20
52.58640265947929
 30
0.0
  0
VERTEX
  5
C80
  8
0
 10
200.7384570791256
 20
52.588369778689071
 30
0.0
  0
VERTEX
  5
C81
  8
0
 10
200.72877778306591
 20
52.590693572075878
 30
0.0
  0
VERTEX
  5
C82
  8
0
 10
200.70497073026419
 20
52.596409139769861
 30
0.0
  0
VERTEX
  5
C83
  8
0
 10
200.6752497050563
 20
52.60354452662034
 30
0.0
  0
VERTEX
  5
C84
  8
0
 10
200.63963985439679
 20
52.612093695377723
 30
0.0
  0
VERTEX
  5
C85
  8
0
 10
200.59817130777441
 20
52.6220494125917
 30
0.0
  0
VERTEX
  5
C86
  8
0
 10
200.5508791517195
 20
52.633403254731547
 30
0.0
  0
VERTEX
  5
C87
  8
0
 10
200.52506153291679
 20
52.639601516616132
 30
0.0
  0
VERTEX
  5
C88
  8
0
 10
200.4978034001179
 20
52.646145615313351
 30
0.0
  0
VERTEX
  5
C89
  8
0
 10
200.4389889603539
 20
52.660265713027847
 30
0.0
  0
VERTEX
  5
C8A
  8
0
 10
200.37448559531549
 20
52.675751600862782
 30
0.0
  0
VERTEX
  5
C8B
  8
0
 10
200.3043478812892
 20
52.692590176210899
 30
0.0
  0
VERTEX
  5
C8C
  8
0
 10
200.22863516178339
 20
52.71076719195645
 30
0.0
  0
VERTEX
  5
C8D
  8
0
 10
200.14741149731751
 20
52.73026726852936
 30
0.0
  0
VERTEX
  5
C8E
  8
0
 10
200.10475435618719
 20
52.740508342037828
 30
0.0
  0
VERTEX
  5
C8F
  8
0
 10
200.06074561122091
 20
52.751073906918002
 30
0.0
  0
VERTEX
  5
C90
  8
0
 10
199.96871083148531
 20
52.773169502629138
 30
0.0
  0
VERTEX
  5
C91
  8
0
 10
199.87138502872281
 20
52.796535360582851
 30
0.0
  0
VERTEX
  5
C92
  8
0
 10
199.82076355425909
 20
52.808688501354879
 30
0.0
  0
VERTEX
  5
C93
  8
0
 10
199.7688505502791
 20
52.821151710930501
 30
0.0
  0
VERTEX
  5
C94
  8
0
 10
199.66119415055971
 20
52.846997725782209
 30
0.0
  0
VERTEX
  5
C95
  8
0
 10
199.54850691762641
 20
52.874051536828972
 30
0.0
  0
VERTEX
  5
C96
  8
0
 10
199.49030636981621
 20
52.888024252125028
 30
0.0
  0
VERTEX
  5
C97
  8
0
 10
199.4308841961288
 20
52.902290253845763
 30
0.0
  0
VERTEX
  5
C98
  8
0
 10
199.30842550663201
 20
52.931689984058721
 30
0.0
  0
VERTEX
  5
C99
  8
0
 10
199.1812344614132
 20
52.96222585236098
 30
0.0
  0
VERTEX
  5
C9A
  8
0
 10
199.0494186767946
 20
52.993872022359369
 30
0.0
  0
VERTEX
  5
C9B
  8
0
 10
198.9130896820902
 20
53.026601718234652
 30
0.0
  0
VERTEX
  5
C9C
  8
0
 10
198.77236282523981
 20
53.060387247396541
 30
0.0
  0
VERTEX
  5
C9D
  8
0
 10
198.70038726494391
 20
53.07766705059646
 30
0.0
  0
VERTEX
  5
C9E
  8
0
 10
198.627357175214
 20
53.095200023914337
 30
0.0
  0
VERTEX
  5
C9F
  8
0
 10
198.47819542126919
 20
53.131010592703603
 30
0.0
  0
VERTEX
  5
CA0
  8
0
 10
198.32500376914109
 20
53.167788654447953
 30
0.0
  0
VERTEX
  5
CA1
  8
0
 10
198.16791183426139
 20
53.205503091235357
 30
0.0
  0
VERTEX
  5
CA2
  8
0
 10
198.0070525320902
 20
53.244121992887102
 30
0.0
  0
VERTEX
  5
CA3
  8
0
 10
197.8425619656569
 20
53.283612683956811
 30
0.0
  0
VERTEX
  5
CA4
  8
0
 10
197.7589983338537
 20
53.303674536984367
 30
0.0
  0
VERTEX
  5
CA5
  8
0
 10
197.67457931040241
 20
53.323941751377298
 30
0.0
  0
VERTEX
  5
CA6
  8
0
 10
197.5032466964239
 20
53.365075072731202
 30
0.0
  0
VERTEX
  5
CA7
  8
0
 10
197.32870908821789
 20
53.406977845122121
 30
0.0
  0
VERTEX
  5
CA8
  8
0
 10
197.15111416202589
 20
53.449614614621233
 30
0.0
  0
VERTEX
  5
CA9
  8
0
 10
196.97061218088581
 20
53.49294930626484
 30
0.0
  0
VERTEX
  5
CAA
  8
0
 10
196.78735586749431
 20
53.536945254577489
 30
0.0
  0
VERTEX
  5
CAB
  8
0
 10
196.6947432028507
 20
53.5591795881802
 30
0.0
  0
VERTEX
  5
CAC
  8
0
 10
196.6015002749877
 20
53.581565234594528
 30
0.0
  0
VERTEX
  5
CAD
  8
0
 10
196.41320265575271
 20
53.626771493358227
 30
0.0
  0
VERTEX
  5
CAE
  8
0
 10
196.22262232837369
 20
53.672525781860479
 30
0.0
  0
VERTEX
  5
CAF
  8
0
 10
196.0299205428345
 20
53.718789387405252
 30
0.0
  0
VERTEX
  5
CB0
  8
0
 10
195.83526034408391
 20
53.76552316636355
 30
0.0
  0
VERTEX
  5
CB1
  8
0
 10
195.63880643408439
 20
53.812687577292678
 30
0.0
  0
VERTEX
  5
CB2
  8
0
 10
195.5399587255516
 20
53.836418812495161
 30
0.0
  0
VERTEX
  5
CB3
  8
0
 10
195.44072503245681
 20
53.860242714392307
 30
0.0
  0
VERTEX
  5
CB4
  8
0
 10
195.24118373584241
 20
53.908148341268713
 30
0.0
  0
VERTEX
  5
CB5
  8
0
 10
195.04035137609961
 20
53.956363924978909
 30
0.0
  0
VERTEX
  5
CB6
  8
0
 10
194.8383978774549
 20
54.00484867032543
 30
0.0
  0
VERTEX
  5
CB7
  8
0
 10
194.6354941127301
 20
54.053561554373211
 30
0.0
  0
VERTEX
  5
CB8
  8
0
 10
194.43181175876759
 20
54.102461361159051
 30
0.0
  0
VERTEX
  5
CB9
  8
0
 10
194.32973244394981
 20
54.12696843638826
 30
0.0
  0
VERTEX
  5
CBA
  8
0
 10
194.2275231511733
 20
54.151506716564512
 30
0.0
  0
VERTEX
  5
CBB
  8
0
 10
194.02280113850441
 20
54.200656123322432
 30
0.0
  0
VERTEX
  5
CBC
  8
0
 10
193.81781893602249
 20
54.249867996127811
 30
0.0
  0
VERTEX
  5
CBD
  8
0
 10
193.7152844575788
 20
54.274484346475482
 30
0.0
  0
VERTEX
  5
CBE
  8
0
 10
193.6127499791352
 20
54.29910069682316
 30
0.0
  0
VERTEX
  5
CBF
  8
0
 10
193.4077677766532
 20
54.348312569628547
 30
0.0
  0
VERTEX
  5
CC0
  8
0
 10
193.20304576398439
 20
54.397461976386438
 30
0.0
  0
VERTEX
  5
CC1
  8
0
 10
193.1008364712078
 20
54.422000256562711
 30
0.0
  0
VERTEX
  5
CC2
  8
0
 10
192.99875715639001
 20
54.446507331791913
 30
0.0
  0
VERTEX
  5
CC3
  8
0
 10
192.79507480242751
 20
54.495407138577782
 30
0.0
  0
VERTEX
  5
CC4
  8
0
 10
192.59217103770271
 20
54.544120022625549
 30
0.0
  0
VERTEX
  5
CC5
  8
0
 10
192.39021753905811
 20
54.592604767972063
 30
0.0
  0
VERTEX
  5
CC6
  8
0
 10
192.1893851793152
 20
54.640820351682258
 30
0.0
  0
VERTEX
  5
CC7
  8
0
 10
191.9898438827008
 20
54.688725978558672
 30
0.0
  0
VERTEX
  5
CC8
  8
0
 10
191.89061018960601
 20
54.712549880455811
 30
0.0
  0
VERTEX
  5
CC9
  8
0
 10
191.79176248107319
 20
54.736281115658272
 30
0.0
  0
VERTEX
  5
CCA
  8
0
 10
191.5953085710737
 20
54.783445526587393
 30
0.0
  0
VERTEX
  5
CCB
  8
0
 10
191.40064837232319
 20
54.830179305545698
 30
0.0
  0
VERTEX
  5
CCC
  8
0
 10
191.20794658678389
 20
54.876442911090493
 30
0.0
  0
VERTEX
  5
CCD
  8
0
 10
191.01736625940501
 20
54.922197199592738
 30
0.0
  0
VERTEX
  5
CCE
  8
0
 10
190.82906864016991
 20
54.967403458356443
 30
0.0
  0
VERTEX
  5
CCF
  8
0
 10
190.73582571230691
 20
54.98978910477075
 30
0.0
  0
VERTEX
  5
CD0
  8
0
 10
190.64321304766341
 20
55.012023438373483
 30
0.0
  0
VERTEX
  5
CD1
  8
0
 10
190.4599567342718
 20
55.056019386686131
 30
0.0
  0
VERTEX
  5
CD2
  8
0
 10
190.27945475313169
 20
55.099354078329732
 30
0.0
  0
VERTEX
  5
CD3
  8
0
 10
190.10185982693969
 20
55.141990847828822
 30
0.0
  0
VERTEX
  5
CD4
  8
0
 10
189.92732221873371
 20
55.183893620219749
 30
0.0
  0
VERTEX
  5
CD5
  8
0
 10
189.7559896047552
 20
55.225026941573667
 30
0.0
  0
VERTEX
  5
CD6
  8
0
 10
189.671570581304
 20
55.245294155966597
 30
0.0
  0
VERTEX
  5
CD7
  8
0
 10
189.58800694950079
 20
55.265356008994132
 30
0.0
  0
VERTEX
  5
CD8
  8
0
 10
189.42351638306741
 20
55.304846700063841
 30
0.0
  0
VERTEX
  5
CD9
  8
0
 10
189.26265708089619
 20
55.3434656017156
 30
0.0
  0
VERTEX
  5
CDA
  8
0
 10
189.10556514601649
 20
55.381180038503032
 30
0.0
  0
VERTEX
  5
CDB
  8
0
 10
188.95237349388839
 20
55.41795810024734
 30
0.0
  0
VERTEX
  5
CDC
  8
0
 10
188.80321173994361
 20
55.453768669036599
 30
0.0
  0
VERTEX
  5
CDD
  8
0
 10
188.73018165021369
 20
55.471301642354518
 30
0.0
  0
VERTEX
  5
CDE
  8
0
 10
188.6582060899178
 20
55.488581445554424
 30
0.0
  0
VERTEX
  5
CDF
  8
0
 10
188.51747923306741
 20
55.522366974716313
 30
0.0
  0
VERTEX
  5
CE0
  8
0
 10
188.38115023836301
 20
55.555096670591581
 30
0.0
  0
VERTEX
  5
CE1
  8
0
 10
188.2493344537445
 20
55.586742840589977
 30
0.0
  0
VERTEX
  5
CE2
  8
0
 10
188.1221434085256
 20
55.617278708892229
 30
0.0
  0
VERTEX
  5
CE3
  8
0
 10
187.99968471902889
 20
55.646678439105187
 30
0.0
  0
VERTEX
  5
CE4
  8
0
 10
187.94026254534151
 20
55.660944440825908
 30
0.0
  0
VERTEX
  5
CE5
  8
0
 10
187.8820619975312
 20
55.674917156121978
 30
0.0
  0
VERTEX
  5
CE6
  8
0
 10
187.7693747645979
 20
55.701970967168762
 30
0.0
  0
VERTEX
  5
CE7
  8
0
 10
187.66171836487851
 20
55.727816982020443
 30
0.0
  0
VERTEX
  5
CE8
  8
0
 10
187.6098053608986
 20
55.740280191596071
 30
0.0
  0
VERTEX
  5
CE9
  8
0
 10
187.55918388643491
 20
55.75243333236812
 30
0.0
  0
VERTEX
  5
CEA
  8
0
 10
187.46185808367241
 20
55.775799190321813
 30
0.0
  0
VERTEX
  5
CEB
  8
0
 10
187.3698233039367
 20
55.797894786032941
 30
0.0
  0
VERTEX
  5
CEC
  8
0
 10
187.32581455897051
 20
55.808460350913151
 30
0.0
  0
VERTEX
  5
CED
  8
0
 10
187.2831574178401
 20
55.818701424421619
 30
0.0
  0
VERTEX
  5
CEE
  8
0
 10
187.20193375337431
 20
55.838201500994501
 30
0.0
  0
VERTEX
  5
CEF
  8
0
 10
187.1262210338684
 20
55.856378516740051
 30
0.0
  0
VERTEX
  5
CF0
  8
0
 10
187.05608331984209
 20
55.873217092088169
 30
0.0
  0
VERTEX
  5
CF1
  8
0
 10
186.9915799548038
 20
55.888702979923089
 30
0.0
  0
VERTEX
  5
CF2
  8
0
 10
186.93276551503979
 20
55.902823077637613
 30
0.0
  0
VERTEX
  5
CF3
  8
0
 10
186.9055073822409
 20
55.909367176334818
 30
0.0
  0
VERTEX
  5
CF4
  8
0
 10
186.87968976343811
 20
55.91556543821941
 30
0.0
  0
VERTEX
  5
CF5
  8
0
 10
186.83239760738331
 20
55.926919280359272
 30
0.0
  0
VERTEX
  5
CF6
  8
0
 10
186.79092906076079
 20
55.93687499757322
 30
0.0
  0
VERTEX
  5
CF7
  8
0
 10
186.75531921010131
 20
55.945424166330611
 30
0.0
  0
VERTEX
  5
CF8
  8
0
 10
186.72559818489341
 20
55.952559553181118
 30
0.0
  0
VERTEX
  5
CF9
  8
0
 10
186.70179113209181
 20
55.958275120875101
 30
0.0
  0
VERTEX
  5
CFA
  8
0
 10
186.69211183603201
 20
55.96059891426188
 30
0.0
  0
VERTEX
  5
CFB
  8
0
 10
186.68391819483969
 20
55.96256603347166
 30
0.0
  0
VERTEX
  5
CFC
  8
0
 10
186.6719944954267
 20
55.965428660430412
 30
0.0
  0
VERTEX
  5
CFD
  8
0
 10
186.66603012249271
 20
55.9668605796831
 30
0.0
  0
VERTEX
  5
CFE
  8
0
 10
186.66528445757891
 20
55.967039597990293
 30
0.0
  0
SEQEND
  5
CFF
  8
0
  0
POLYLINE
  5
760
  8
0
 66
     1
 10
0.0
 20
0.0
 30
0.0
  0
VERTEX
  5
D00
  8
0
 10
202.7152844575788
 20
51.864870544517373
 30
0.0
  0
VERTEX
  5
D01
  8
0
 10
202.81870507034719
 20
51.820074657466307
 30
0.0
  0
VERTEX
  5
D02
  8
0
 10
203.02559695457811
 20
51.728260042373329
 30
0.0
  0
VERTEX
  5
D03
  8
0
 10
203.23239040586549
 20
51.633517207945317
 30
0.0
  0
VERTEX
  5
D04
  8
0
 10
203.33568879277121
 20
51.585062775448023
 30
0.0
  0
VERTEX
  5
D05
  8
0
 10
203.43888955870071
 20
51.53589516853404
 30
0.0
  0
VERTEX
  5
D06
  8
0
 10
203.64490689794741
 20
51.43544794189534
 30
0.0
  0
VERTEX
  5
D07
  8
0
 10
203.85025851436041
 20
51.332236653155832
 30
0.0
  0
VERTEX
  5
D08
  8
0
 10
204.05476156282771
 20
51.226330900992032
 30
0.0
  0
VERTEX
  5
D09
  8
0
 10
204.25823611245019
 20
51.117807983436649
 30
0.0
  0
VERTEX
  5
D0A
  8
0
 10
204.46050622714881
 20
51.006752384025731
 30
0.0
  0
VERTEX
  5
D0B
  8
0
 10
204.5611359738073
 20
50.950303059604671
 30
0.0
  0
VERTEX
  5
D0C
  8
0
 10
204.6614009324982
 20
50.893255220617903
 30
0.0
  0
VERTEX
  5
D0D
  8
0
 10
204.86075507924619
 20
50.777413658872383
 30
0.0
  0
VERTEX
  5
D0E
  8
0
 10
205.0584101140112
 20
50.659330291627157
 30
0.0
  0
VERTEX
  5
D0F
  8
0
 10
205.2542367276443
 20
50.539098818315921
 30
0.0
  0
VERTEX
  5
D10
  8
0
 10
205.44811350539311
 20
50.416815545747568
 30
0.0
  0
VERTEX
  5
D11
  8
0
 10
205.6398984526806
 20
50.292597669925783
 30
0.0
  0
VERTEX
  5
D12
  8
0
 10
205.73496318255479
 20
50.229801642001568
 30
0.0
  0
VERTEX
  5
D13
  8
0
 10
205.82945354677
 20
50.166568780407772
 30
0.0
  0
VERTEX
  5
D14
  8
0
 10
206.0166454385803
 20
50.038858342914857
 30
0.0
  0
VERTEX
  5
D15
  8
0
 10
206.2013460360107
 20
49.909601187300382
 30
0.0
  0
VERTEX
  5
D16
  8
0
 10
206.29272363017739
 20
49.84443606493641
 30
0.0
  0
VERTEX
  5
D17
  8
0
 10
206.38343299331581
 20
49.778936994023098
 30
0.0
  0
VERTEX
  5
D18
  8
0
 10
206.56279011817961
 20
49.647009778966542
 30
0.0
  0
VERTEX
  5
D19
  8
0
 10
206.73930765551859
 20
49.513967415377628
 30
0.0
  0
VERTEX
  5
D1A
  8
0
 10
206.8264688526057
 20
49.447075389095289
 30
0.0
  0
VERTEX
  5
D1B
  8
0
 10
206.9128813917558
 20
49.379962031413839
 30
0.0
  0
VERTEX
  5
D1C
  8
0
 10
207.08341116877409
 20
49.245150963344173
 30
0.0
  0
VERTEX
  5
D1D
  8
0
 10
207.25080104365881
 20
49.109696513274912
 30
0.0
  0
VERTEX
  5
D1E
  8
0
 10
207.41495964802681
 20
48.973765508184442
 30
0.0
  0
VERTEX
  5
D1F
  8
0
 10
207.5758004631582
 20
48.837528874206548
 30
0.0
  0
VERTEX
  5
D20
  8
0
 10
207.73324202151821
 20
48.701161225027278
 30
0.0
  0
VERTEX
  5
D21
  8
0
 10
207.810664036936
 20
48.63298374646061
 30
0.0
  0
VERTEX
  5
D22
  8
0
 10
207.88720804398969
 20
48.564840463120248
 30
0.0
  0
VERTEX
  5
D23
  8
0
 10
208.0377694669271
 20
48.42861757987027
 30
0.0
  0
VERTEX
  5
D24
  8
0
 10
208.1862575691105
 20
48.291362560534083
 30
0.0
  0
VERTEX
  5
D25
  8
0
 10
208.3330126901937
 20
48.15278687918709
 30
0.0
  0
VERTEX
  5
D26
  8
0
 10
208.47803140427641
 20
48.012909600233222
 30
0.0
  0
VERTEX
  5
D27
  8
0
 10
208.62131015673901
 20
47.871749803947658
 30
0.0
  0
VERTEX
  5
D28
  8
0
 10
208.69229590163201
 20
47.8006949337693
 30
0.0
  0
VERTEX
  5
D29
  8
0
 10
208.76284526560829
 20
47.729326606795951
 30
0.0
  0
VERTEX
  5
D2A
  8
0
 10
208.90263292537679
 20
47.585659179927369
 30
0.0
  0
VERTEX
  5
D2B
  8
0
 10
209.0406692129759
 20
47.44076676588022
 30
0.0
  0
VERTEX
  5
D2C
  8
0
 10
209.17695009562189
 20
47.294668693545731
 30
0.0
  0
VERTEX
  5
D2D
  8
0
 10
209.3114714402723
 20
47.147384391446558
 30
0.0
  0
VERTEX
  5
D2E
  8
0
 10
209.44422902445189
 20
46.998933399393451
 30
0.0
  0
VERTEX
  5
D2F
  8
0
 10
209.5099450653133
 20
46.92427653377203
 30
0.0
  0
VERTEX
  5
D30
  8
0
 10
209.575218548224
 20
46.849335378586893
 30
0.0
  0
VERTEX
  5
D31
  8
0
 10
209.7044356471016
 20
46.698610120236587
 30
0.0
  0
VERTEX
  5
D32
  8
0
 10
209.831875905716
 20
46.546777552771971
 30
0.0
  0
VERTEX
  5
D33
  8
0
 10
210.26385976068221
 20
46.006934631993772
 30
0.0
  0
VERTEX
  5
D34
  8
0
 10
210.95308772061711
 20
45.053039730146793
 30
0.0
  0
VERTEX
  5
D35
  8
0
 10
211.2731561549117
 20
44.563800999008123
 30
0.0
  0
VERTEX
  5
D36
  8
0
 10
211.57672278097141
 20
44.067145490427663
 30
0.0
  0
VERTEX
  5
D37
  8
0
 10
212.13400111903491
 20
43.053994872453039
 30
0.0
  0
VERTEX
  5
D38
  8
0
 10
212.62437942083349
 20
42.01852352753474
 30
0.0
  0
VERTEX
  5
D39
  8
0
 10
213.04765061115731
 20
40.965730992978422
 30
0.0
  0
VERTEX
  5
D3A
  8
0
 10
213.4039472862045
 20
39.900734372744978
 30
0.0
  0
VERTEX
  5
D3B
  8
0
 10
213.69371699387551
 20
38.829039278187679
 30
0.0
  0
VERTEX
  5
D3C
  8
0
 10
213.81392441414911
 20
38.292441382066897
 30
0.0
  0
VERTEX
  5
D3D
  8
0
 10
213.9178905192465
 20
37.756291381766118
 30
0.0
  0
VERTEX
  5
D3E
  8
0
 10
214.07793593635489
 20
36.688214286060912
 30
0.0
  0
VERTEX
  5
D3F
  8
0
 10
214.1758874995665
 20
35.630699868297057
 30
0.0
  0
VERTEX
  5
D40
  8
0
 10
214.20238534212669
 20
35.107780294421282
 30
0.0
  0
SEQEND
  5
D41
  8
0
  0
LINE
  5
762
  8
0
 10
188.90351862069221
 20
35.107780294421282
 30
0.0
 11
214.20238534212669
 21
35.107780294421282
 31
0.0
  0
POLYLINE
  5
763
  8
0
 66
     1
 10
0.0
 20
0.0
 30
0.0
  0
VERTEX
  5
D42
  8
0
 10
185.4047720809624
 20
35.107780294421282
 30
0.0
  0
VERTEX
  5
D43
  8
0
 10
185.41050170021421
 20
35.107780294421282
 30
0.0
  0
VERTEX
  5
D44
  8
0
 10
185.42235294349601
 20
35.107780294421282
 30
0.0
  0
VERTEX
  5
D45
  8
0
 10
185.43471304532949
 20
35.107780294421282
 30
0.0
  0
VERTEX
  5
D46
  8
0
 10
185.4410783380701
 20
35.107780294421282
 30
0.0
  0
VERTEX
  5
D47
  8
0
 10
185.4475639382562
 20
35.107780294421282
 30
0.0
  0
VERTEX
  5
D48
  8
0
 10
185.46088587556989
 20
35.107780294421282
 30
0.0
  0
VERTEX
  5
D49
  8
0
 10
185.47465746436319
 20
35.107780294421282
 30
0.0
  0
VERTEX
  5
D4A
  8
0
 10
185.4888557056498
 20
35.107780294421282
 30
0.0
  0
VERTEX
  5
D4B
  8
0
 10
185.5034560414002
 20
35.107780294421282
 30
0.0
  0
VERTEX
  5
D4C
  8
0
 10
185.5184324084457
 20
35.107780294421282
 30
0.0
  0
VERTEX
  5
D4D
  8
0
 10
185.5260530622329
 20
35.107780294421282
 30
0.0
  0
VERTEX
  5
D4E
  8
0
 10
185.53375729933379
 20
35.107780294421282
 30
0.0
  0
VERTEX
  5
D4F
  8
0
 10
185.54940183035251
 20
35.107780294421282
 30
0.0
  0
VERTEX
  5
D50
  8
0
 10
185.56534247462491
 20
35.107780294421282
 30
0.0
  0
VERTEX
  5
D51
  8
0
 10
185.5818020222286
 20
35.107780294421282
 30
0.0
  0
VERTEX
  5
D52
  8
0
 10
185.5989016128573
 20
35.107780294421282
 30
0.0
  0
VERTEX
  5
D53
  8
0
 10
185.61663989015059
 20
35.107780294421282
 30
0.0
  0
VERTEX
  5
D54
  8
0
 10
185.62574769364431
 20
35.107780294421282
 30
0.0
  0
VERTEX
  5
D55
  8
0
 10
185.6350139663418
 20
35.107780294421282
 30
0.0
  0
VERTEX
  5
D56
  8
0
 10
185.65401942535701
 20
35.107780294421282
 30
0.0
  0
VERTEX
  5
D57
  8
0
 10
185.67365033175071
 20
35.107780294421282
 30
0.0
  0
VERTEX
  5
D58
  8
0
 10
185.68369806102231
 20
35.107780294421282
 30
0.0
  0
VERTEX
  5
D59
  8
0
 10
185.6938992458243
 20
35.107780294421282
 30
0.0
  0
VERTEX
  5
D5A
  8
0
 10
185.7147572453141
 20
35.107780294421282
 30
0.0
  0
VERTEX
  5
D5B
  8
0
 10
185.73621395407881
 20
35.107780294421282
 30
0.0
  0
VERTEX
  5
D5C
  8
0
 10
185.7471631930899
 20
35.107780294421282
 30
0.0
  0
VERTEX
  5
D5D
  8
0
 10
185.7582575782707
 20
35.107780294421282
 30
0.0
  0
VERTEX
  5
D5E
  8
0
 10
185.7808749505364
 20
35.107780294421282
 30
0.0
  0
VERTEX
  5
D5F
  8
0
 10
185.80405158286271
 20
35.107780294421282
 30
0.0
  0
VERTEX
  5
D60
  8
0
 10
185.8277717287597
 20
35.107780294421282
 30
0.0
  0
VERTEX
  5
D61
  8
0
 10
185.85201845555639
 20
35.107780294421282
 30
0.0
  0
VERTEX
  5
D62
  8
0
 10
185.876773727677
 20
35.107780294421282
 30
0.0
  0
VERTEX
  5
D63
  8
0
 10
185.88933615371181
 20
35.107780294421282
 30
0.0
  0
VERTEX
  5
D64
  8
0
 10
185.90201850116671
 20
35.107780294421282
 30
0.0
  0
VERTEX
  5
D65
  8
0
 10
185.92773270832271
 20
35.107780294421282
 30
0.0
  0
VERTEX
  5
D66
  8
0
 10
185.95389485967149
 20
35.107780294421282
 30
0.0
  0
VERTEX
  5
D67
  8
0
 10
185.9804818902831
 20
35.107780294421282
 30
0.0
  0
VERTEX
  5
D68
  8
0
 10
186.00746920776109
 20
35.107780294421282
 30
0.0
  0
VERTEX
  5
D69
  8
0
 10
186.0348307477027
 20
35.107780294421282
 30
0.0
  0
VERTEX
  5
D6A
  8
0
 10
186.04864331769249
 20
35.107780294421282
 30
0.0
  0
VERTEX
  5
D6B
  8
0
 10
186.06253903170989
 20
35.107780294421282
 30
0.0
  0
VERTEX
  5
D6C
  8
0
 10
186.09056522802999
 20
35.107780294421282
 30
0.0
  0
VERTEX
  5
D6D
  8
0
 10
186.11887921497919
 20
35.107780294421282
 30
0.0
  0
VERTEX
  5
D6E
  8
0
 10
186.1474496473781
 20
35.107780294421282
 30
0.0
  0
VERTEX
  5
D6F
  8
0
 10
186.1762440263185
 20
35.107780294421282
 30
0.0
  0
VERTEX
  5
D70
  8
0
 10
186.20522877266481
 20
35.107780294421282
 30
0.0
  0
VERTEX
  5
D71
  8
0
 10
186.21978176379869
 20
35.107780294421282
 30
0.0
  0
VERTEX
  5
D72
  8
0
 10
186.23436930480949
 20
35.107780294421282
 30
0.0
  0
VERTEX
  5
D73
  8
0
 10
186.26363012131219
 20
35.107780294421282
 30
0.0
  0
VERTEX
  5
D74
  8
0
 10
186.2929748891938
 20
35.107780294421282
 30
0.0
  0
VERTEX
  5
D75
  8
0
 10
186.32236653882481
 20
35.107780294421282
 30
0.0
  0
VERTEX
  5
D76
  8
0
 10
186.3518563547787
 20
35.107780294421282
 30
0.0
  0
VERTEX
  5
D77
  8
0
 10
186.38192659292801
 20
35.107780294421282
 30
0.0
  0
VERTEX
  5
D78
  8
0
 10
186.39720488841539
 20
35.107780294421282
 30
0.0
  0
VERTEX
  5
D79
  8
0
 10
186.4126426285699
 20
35.107780294421282
 30
0.0
  0
VERTEX
  5
D7A
  8
0
 10
186.44398795953279
 20
35.107780294421282
 30
0.0
  0
VERTEX
  5
D7B
  8
0
 10
186.47594486540251
 20
35.107780294421282
 30
0.0
  0
VERTEX
  5
D7C
  8
0
 10
186.50849444959289
 20
35.107780294421282
 30
0.0
  0
VERTEX
  5
D7D
  8
0
 10
186.54161668378009
 20
35.107780294421282
 30
0.0
  0
VERTEX
  5
D7E
  8
0
 10
186.57529045542651
 20
35.107780294421282
 30
0.0
  0
VERTEX
  5
D7F
  8
0
 10
186.5923272862027
 20
35.107780294421282
 30
0.0
  0
VERTEX
  5
D80
  8
0
 10
186.6094936190903
 20
35.107780294421282
 30
0.0
  0
VERTEX
  5
D81
  8
0
 10
186.6442030522029
 20
35.107780294421282
 30
0.0
  0
VERTEX
  5
D82
  8
0
 10
186.67939471600599
 20
35.107780294421282
 30
0.0
  0
VERTEX
  5
D83
  8
0
 10
186.69716363809201
 20
35.107780294421282
 30
0.0
  0
VERTEX
  5
D84
  8
0
 10
186.7150437223558
 20
35.107780294421282
 30
0.0
  0
VERTEX
  5
D85
  8
0
 10
186.751124407134
 20
35.107780294421282
 30
0.0
  0
VERTEX
  5
D86
  8
0
 10
186.78761041104531
 20
35.107780294421282
 30
0.0
  0
VERTEX
  5
D87
  8
0
 10
186.80599700203271
 20
35.107780294421282
 30
0.0
  0
VERTEX
  5
D88
  8
0
 10
186.82447476863581
 20
35.107780294421282
 30
0.0
  0
VERTEX
  5
D89
  8
0
 10
186.8616900064232
 20
35.107780294421282
 30
0.0
  0
VERTEX
  5
D8A
  8
0
 10
186.89922824998689
 20
35.107780294421282
 30
0.0
  0
VERTEX
  5
D8B
  8
0
 10
186.93706117169449
 20
35.107780294421282
 30
0.0
  0
VERTEX
  5
D8C
  8
0
 10
186.97515944385049
 20
35.107780294421282
 30
0.0
  0
VERTEX
  5
D8D
  8
0
 10
187.01349255470981
 20
35.107780294421282
 30
0.0
  0
VERTEX
  5
D8E
  8
0
 10
187.03273733504281
 20
35.107780294421282
 30
0.0
  0
VERTEX
  5
D8F
  8
0
 10
187.05202888644931
 20
35.107780294421282
 30
0.0
  0
VERTEX
  5
D90
  8
0
 10
187.09073579683201
 20
35.107780294421282
 30
0.0
  0
VERTEX
  5
D91
  8
0
 10
187.12957969900339
 20
35.107780294421282
 30
0.0
  0
VERTEX
  5
D92
  8
0
 10
187.16852613987851
 20
35.107780294421282
 30
0.0
  0
VERTEX
  5
D93
  8
0
 10
187.20753987761501
 20
35.107780294421282
 30
0.0
  0
VERTEX
  5
D94
  8
0
 10
187.2465849586996
 20
35.107780294421282
 30
0.0
  0
VERTEX
  5
D95
  8
0
 10
187.2661078419298
 20
35.107780294421282
 30
0.0
  0
VERTEX
  5
D96
  8
0
 10
187.28562479522179
 20
35.107780294421282
 30
0.0
  0
VERTEX
  5
D97
  8
0
 10
187.3246222429654
 20
35.107780294421282
 30
0.0
  0
VERTEX
  5
D98
  8
0
 10
187.36353968101849
 20
35.107780294421282
 30
0.0
  0
VERTEX
  5
D99
  8
0
 10
187.498569234884
 20
35.107780294421282
 30
0.0
  0
VERTEX
  5
D9A
  8
0
 10
187.6350874904943
 20
35.107780294421282
 30
0.0
  0
VERTEX
  5
D9B
  8
0
 10
187.6752971572549
 20
35.107780294421282
 30
0.0
  0
VERTEX
  5
D9C
  8
0
 10
187.71599419464221
 20
35.107780294421282
 30
0.0
  0
VERTEX
  5
D9D
  8
0
 10
187.73651627659069
 20
35.107780294421282
 30
0.0
  0
VERTEX
  5
D9E
  8
0
 10
187.75714908172699
 20
35.107780294421282
 30
0.0
  0
VERTEX
  5
D9F
  8
0
 10
187.7987316882716
 20
35.107780294421282
 30
0.0
  0
VERTEX
  5
DA0
  8
0
 10
187.84071134014181
 20
35.107780294421282
 30
0.0
  0
VERTEX
  5
DA1
  8
0
 10
187.8830568866459
 20
35.107780294421282
 30
0.0
  0
VERTEX
  5
DA2
  8
0
 10
187.92573677058809
 20
35.107780294421282
 30
0.0
  0
VERTEX
  5
DA3
  8
0
 10
187.96871910179971
 20
35.107780294421282
 30
0.0
  0
VERTEX
  5
DA4
  8
0
 10
187.99031364744519
 20
35.107780294421282
 30
0.0
  0
VERTEX
  5
DA5
  8
0
 10
188.0119717349055
 20
35.107780294421282
 30
0.0
  0
VERTEX
  5
DA6
  8
0
 10
188.0554623520911
 20
35.107780294421282
 30
0.0
  0
VERTEX
  5
DA7
  8
0
 10
188.09915855165281
 20
35.107780294421282
 30
0.0
  0
VERTEX
  5
DA8
  8
0
 10
188.1210736196189
 20
35.107780294421282
 30
0.0
  0
VERTEX
  5
DA9
  8
0
 10
188.1430279431392
 20
35.107780294421282
 30
0.0
  0
VERTEX
  5
DAA
  8
0
 10
188.18703824993031
 20
35.107780294421282
 30
0.0
  0
VERTEX
  5
DAB
  8
0
 10
188.2311573906664
 20
35.107780294421282
 30
0.0
  0
VERTEX
  5
DAC
  8
0
 10
188.2532477225601
 20
35.107780294421282
 30
0.0
  0
VERTEX
  5
DAD
  8
0
 10
188.2753531178403
 20
35.107780294421282
 30
0.0
  0
VERTEX
  5
DAE
  8
0
 10
188.3195924970957
 20
35.107780294421282
 30
0.0
  0
VERTEX
  5
DAF
  8
0
 10
188.3638419281481
 20
35.107780294421282
 30
0.0
  0
VERTEX
  5
DB0
  8
0
 10
188.40806724204609
 20
35.107780294421282
 30
0.0
  0
VERTEX
  5
DB1
  8
0
 10
188.45223379323519
 20
35.107780294421282
 30
0.0
  0
VERTEX
  5
DB2
  8
0
 10
188.49630654710859
 20
35.107780294421282
 30
0.0
  0
VERTEX
  5
DB3
  8
0
 10
188.518296716029
 20
35.107780294421282
 30
0.0
  0
VERTEX
  5
DB4
  8
0
 10
188.5402501637391
 20
35.107780294421282
 30
0.0
  0
VERTEX
  5
DB5
  8
0
 10
188.58402907847821
 20
35.107780294421282
 30
0.0
  0
VERTEX
  5
DB6
  8
0
 10
188.62760758012249
 20
35.107780294421282
 30
0.0
  0
VERTEX
  5
DB7
  8
0
 10
188.7780377425
 20
35.107780294421282
 30
0.0
  0
VERTEX
  5
DB8
  8
0
 10
188.90351862069221
 20
35.107780294421282
 30
0.0
  0
SEQEND
  5
DB9
  8
0
  0
POLYLINE
  5
764
  8
0
 66
     1
 10
0.0
 20
0.0
 30
0.0
  0
VERTEX
  5
DBA
  8
0
 10
184.2595149324911
 20
35.107780294421282
 30
0.0
  0
VERTEX
  5
DBB
  8
0
 10
184.26030280675511
 20
35.107780294421282
 30
0.0
  0
VERTEX
  5
DBC
  8
0
 10
184.26669319296059
 20
35.107780294421282
 30
0.0
  0
VERTEX
  5
DBD
  8
0
 10
184.2796850322577
 20
35.107780294421282
 30
0.0
  0
VERTEX
  5
DBE
  8
0
 10
184.28871910906059
 20
35.107780294421282
 30
0.0
  0
VERTEX
  5
DBF
  8
0
 10
184.2994756403273
 20
35.107780294421282
 30
0.0
  0
VERTEX
  5
DC0
  8
0
 10
184.32623785288169
 20
35.107780294421282
 30
0.0
  0
VERTEX
  5
DC1
  8
0
 10
184.36011965734221
 20
35.107780294421282
 30
0.0
  0
VERTEX
  5
DC2
  8
0
 10
184.40124399975409
 20
35.107780294421282
 30
0.0
  0
VERTEX
  5
DC3
  8
0
 10
184.44970877434019
 20
35.107780294421282
 30
0.0
  0
VERTEX
  5
DC4
  8
0
 10
184.50558680876659
 20
35.107780294421282
 30
0.0
  0
VERTEX
  5
DC5
  8
0
 10
184.53632155618649
 20
35.107780294421282
 30
0.0
  0
VERTEX
  5
DC6
  8
0
 10
184.5689252744539
 20
35.107780294421282
 30
0.0
  0
VERTEX
  5
DC7
  8
0
 10
184.639745277375
 20
35.107780294421282
 30
0.0
  0
VERTEX
  5
DC8
  8
0
 10
184.71804180593529
 20
35.107780294421282
 30
0.0
  0
VERTEX
  5
DC9
  8
0
 10
184.80378385128191
 20
35.107780294421282
 30
0.0
  0
VERTEX
  5
DCA
  8
0
 10
184.89691469785021
 20
35.107780294421282
 30
0.0
  0
VERTEX
  5
DCB
  8
0
 10
184.9973532091031
 20
35.107780294421282
 30
0.0
  0
VERTEX
  5
DCC
  8
0
 10
185.0502839685567
 20
35.107780294421282
 30
0.0
  0
VERTEX
  5
DCD
  8
0
 10
185.1050032242604
 20
35.107780294421282
 30
0.0
  0
VERTEX
  5
DCE
  8
0
 10
185.21973715210251
 20
35.107780294421282
 30
0.0
  0
VERTEX
  5
DCF
  8
0
 10
185.34139891542429
 20
35.107780294421282
 30
0.0
  0
VERTEX
  5
DD0
  8
0
 10
185.4047720809624
 20
35.107780294421282
 30
0.0
  0
SEQEND
  5
DD1
  8
0
  0
ARC
  5
766
  8
0
 10
195.21528445757559
 20
34.407780294413158
 30
0.0
 40
19.000000000008711
 50
66.750437409413635
 51
71.162527559687646
  0
LINE
  5
768
  8
0
 10
201.35009473437461
 20
52.390107809726999
 30
0.0
 11
184.6251412020456
 21
56.40541389944115
 31
0.0
  0
POLYLINE
  5
76C
  8
0
 66
     1
 10
0.0
 20
0.0
 30
0.0
  0
VERTEX
  5
DD2
  8
0
 10
66.527050294465425
 20
35.107780294421282
 30
0.0
  0
VERTEX
  5
DD3
  8
0
 10
66.652531172657518
 20
35.107780294421282
 30
0.0
  0
VERTEX
  5
DD4
  8
0
 10
66.802961335034979
 20
35.107780294421282
 30
0.0
  0
VERTEX
  5
DD5
  8
0
 10
66.846539836679142
 20
35.107780294421282
 30
0.0
  0
VERTEX
  5
DD6
  8
0
 10
66.890318751418249
 20
35.107780294421282
 30
0.0
  0
VERTEX
  5
DD7
  8
0
 10
66.912272199128324
 20
35.107780294421282
 30
0.0
  0
VERTEX
  5
DD8
  8
0
 10
66.934262368048735
 20
35.107780294421282
 30
0.0
  0
VERTEX
  5
DD9
  8
0
 10
66.9783351219221
 20
35.107780294421282
 30
0.0
  0
VERTEX
  5
DDA
  8
0
 10
67.022501673111094
 20
35.107780294421282
 30
0.0
  0
VERTEX
  5
DDB
  8
0
 10
67.066726987009133
 20
35.107780294421282
 30
0.0
  0
VERTEX
  5
DDC
  8
0
 10
67.110976418061398
 20
35.107780294421282
 30
0.0
  0
VERTEX
  5
DDD
  8
0
 10
67.155215797316771
 20
35.107780294421282
 30
0.0
  0
VERTEX
  5
DDE
  8
0
 10
67.177321192596992
 20
35.107780294421282
 30
0.0
  0
VERTEX
  5
DDF
  8
0
 10
67.199411524490642
 20
35.107780294421282
 30
0.0
  0
VERTEX
  5
DE0
  8
0
 10
67.243530665226785
 20
35.107780294421282
 30
0.0
  0
VERTEX
  5
DE1
  8
0
 10
67.287540972017837
 20
35.107780294421282
 30
0.0
  0
VERTEX
  5
DE2
  8
0
 10
67.309495295538113
 20
35.107780294421282
 30
0.0
  0
VERTEX
  5
DE3
  8
0
 10
67.331410363504176
 20
35.107780294421282
 30
0.0
  0
VERTEX
  5
DE4
  8
0
 10
67.375106563065913
 20
35.107780294421282
 30
0.0
  0
VERTEX
  5
DE5
  8
0
 10
67.418597180251524
 20
35.107780294421282
 30
0.0
  0
VERTEX
  5
DE6
  8
0
 10
67.440255267711791
 20
35.107780294421282
 30
0.0
  0
VERTEX
  5
DE7
  8
0
 10
67.461849813357276
 20
35.107780294421282
 30
0.0
  0
VERTEX
  5
DE8
  8
0
 10
67.504832144568752
 20
35.107780294421282
 30
0.0
  0
VERTEX
  5
DE9
  8
0
 10
67.547512028510937
 20
35.107780294421282
 30
0.0
  0
VERTEX
  5
DEA
  8
0
 10
67.694052638566063
 20
35.107780294421282
 30
0.0
  0
VERTEX
  5
DEB
  8
0
 10
67.931999680272654
 20
35.107780294421282
 30
0.0
  0
VERTEX
  5
DEC
  8
0
 10
68.067029234137976
 20
35.107780294421282
 30
0.0
  0
VERTEX
  5
DED
  8
0
 10
68.105946672191124
 20
35.107780294421282
 30
0.0
  0
VERTEX
  5
DEE
  8
0
 10
68.144944119934678
 20
35.107780294421282
 30
0.0
  0
VERTEX
  5
DEF
  8
0
 10
68.164461073226605
 20
35.107780294421282
 30
0.0
  0
VERTEX
  5
DF0
  8
0
 10
68.183983956456814
 20
35.107780294421282
 30
0.0
  0
VERTEX
  5
DF1
  8
0
 10
68.22302903754138
 20
35.107780294421282
 30
0.0
  0
VERTEX
  5
DF2
  8
0
 10
68.262042775277905
 20
35.107780294421282
 30
0.0
  0
VERTEX
  5
DF3
  8
0
 10
68.300989216152857
 20
35.107780294421282
 30
0.0
  0
VERTEX
  5
DF4
  8
0
 10
68.339833118324236
 20
35.107780294421282
 30
0.0
  0
VERTEX
  5
DF5
  8
0
 10
68.37854002870705
 20
35.107780294421282
 30
0.0
  0
VERTEX
  5
DF6
  8
0
 10
68.397831580113518
 20
35.107780294421282
 30
0.0
  0
VERTEX
  5
DF7
  8
0
 10
68.417076360446401
 20
35.107780294421282
 30
0.0
  0
VERTEX
  5
DF8
  8
0
 10
68.455409471305757
 20
35.107780294421282
 30
0.0
  0
VERTEX
  5
DF9
  8
0
 10
68.493507743461805
 20
35.107780294421282
 30
0.0
  0
VERTEX
  5
DFA
  8
0
 10
68.531340665169409
 20
35.107780294421282
 30
0.0
  0
VERTEX
  5
DFB
  8
0
 10
68.568878908732927
 20
35.107780294421282
 30
0.0
  0
VERTEX
  5
DFC
  8
0
 10
68.606094146520377
 20
35.107780294421282
 30
0.0
  0
VERTEX
  5
DFD
  8
0
 10
68.624571913123404
 20
35.107780294421282
 30
0.0
  0
VERTEX
  5
DFE
  8
0
 10
68.642958504110879
 20
35.107780294421282
 30
0.0
  0
VERTEX
  5
DFF
  8
0
 10
68.679444508022115
 20
35.107780294421282
 30
0.0
  0
VERTEX
  5
E00
  8
0
 10
68.715525192800271
 20
35.107780294421282
 30
0.0
  0
VERTEX
  5
E01
  8
0
 10
68.733405277064207
 20
35.107780294421282
 30
0.0
  0
VERTEX
  5
E02
  8
0
 10
68.751174199150114
 20
35.107780294421282
 30
0.0
  0
VERTEX
  5
E03
  8
0
 10
68.786365862953176
 20
35.107780294421282
 30
0.0
  0
VERTEX
  5
E04
  8
0
 10
68.821075296065771
 20
35.107780294421282
 30
0.0
  0
VERTEX
  5
E05
  8
0
 10
68.838241628953483
 20
35.107780294421282
 30
0.0
  0
VERTEX
  5
E06
  8
0
 10
68.855278459729561
 20
35.107780294421282
 30
0.0
  0
VERTEX
  5
E07
  8
0
 10
68.888952231376038
 20
35.107780294421282
 30
0.0
  0
VERTEX
  5
E08
  8
0
 10
68.922074465563185
 20
35.107780294421282
 30
0.0
  0
VERTEX
  5
E09
  8
0
 10
68.95462404975359
 20
35.107780294421282
 30
0.0
  0
VERTEX
  5
E0A
  8
0
 10
68.98658095562331
 20
35.107780294421282
 30
0.0
  0
VERTEX
  5
E0B
  8
0
 10
69.017926286586089
 20
35.107780294421282
 30
0.0
  0
VERTEX
  5
E0C
  8
0
 10
69.033364026740628
 20
35.107780294421282
 30
0.0
  0
VERTEX
  5
E0D
  8
0
 10
69.048642322228091
 20
35.107780294421282
 30
0.0
  0
VERTEX
  5
E0E
  8
0
 10
69.078712560377426
 20
35.107780294421282
 30
0.0
  0
VERTEX
  5
E0F
  8
0
 10
69.108202376331406
 20
35.107780294421282
 30
0.0
  0
VERTEX
  5
E10
  8
0
 10
69.137594025962358
 20
35.107780294421282
 30
0.0
  0
VERTEX
  5
E11
  8
0
 10
69.16693879384394
 20
35.107780294421282
 30
0.0
  0
VERTEX
  5
E12
  8
0
 10
69.196199610346525
 20
35.107780294421282
 30
0.0
  0
VERTEX
  5
E13
  8
0
 10
69.210787151357295
 20
35.107780294421282
 30
0.0
  0
VERTEX
  5
E14
  8
0
 10
69.225340142491291
 20
35.107780294421282
 30
0.0
  0
VERTEX
  5
E15
  8
0
 10
69.254324888837573
 20
35.107780294421282
 30
0.0
  0
VERTEX
  5
E16
  8
0
 10
69.283119267777863
 20
35.107780294421282
 30
0.0
  0
VERTEX
  5
E17
  8
0
 10
69.311689700176828
 20
35.107780294421282
 30
0.0
  0
VERTEX
  5
E18
  8
0
 10
69.340003687125943
 20
35.107780294421282
 30
0.0
  0
VERTEX
  5
E19
  8
0
 10
69.368029883446127
 20
35.107780294421282
 30
0.0
  0
VERTEX
  5
E1A
  8
0
 10
69.381925597463464
 20
35.107780294421282
 30
0.0
  0
VERTEX
  5
E1B
  8
0
 10
69.395738167453374
 20
35.107780294421282
 30
0.0
  0
VERTEX
  5
E1C
  8
0
 10
69.423099707394954
 20
35.107780294421282
 30
0.0
  0
VERTEX
  5
E1D
  8
0
 10
69.450087024872843
 20
35.107780294421282
 30
0.0
  0
VERTEX
  5
E1E
  8
0
 10
69.476674055484466
 20
35.107780294421282
 30
0.0
  0
VERTEX
  5
E1F
  8
0
 10
69.502836206833194
 20
35.107780294421282
 30
0.0
  0
VERTEX
  5
E20
  8
0
 10
69.528550413989294
 20
35.107780294421282
 30
0.0
  0
VERTEX
  5
E21
  8
0
 10
69.541232761444178
 20
35.107780294421282
 30
0.0
  0
VERTEX
  5
E22
  8
0
 10
69.553795187479011
 20
35.107780294421282
 30
0.0
  0
VERTEX
  5
E23
  8
0
 10
69.578550459599626
 20
35.107780294421282
 30
0.0
  0
VERTEX
  5
E24
  8
0
 10
69.602797186396401
 20
35.107780294421282
 30
0.0
  0
VERTEX
  5
E25
  8
0
 10
69.626517332293361
 20
35.107780294421282
 30
0.0
  0
VERTEX
  5
E26
  8
0
 10
69.649693964619644
 20
35.107780294421282
 30
0.0
  0
VERTEX
  5
E27
  8
0
 10
69.6723113368854
 20
35.107780294421282
 30
0.0
  0
VERTEX
  5
E28
  8
0
 10
69.683405722066254
 20
35.107780294421282
 30
0.0
  0
VERTEX
  5
E29
  8
0
 10
69.694354961077295
 20
35.107780294421282
 30
0.0
  0
VERTEX
  5
E2A
  8
0
 10
69.715811669842026
 20
35.107780294421282
 30
0.0
  0
VERTEX
  5
E2B
  8
0
 10
69.736669669331832
 20
35.107780294421282
 30
0.0
  0
VERTEX
  5
E2C
  8
0
 10
69.746870854133931
 20
35.107780294421282
 30
0.0
  0
VERTEX
  5
E2D
  8
0
 10
69.756918583405479
 20
35.107780294421282
 30
0.0
  0
VERTEX
  5
E2E
  8
0
 10
69.776549489799265
 20
35.107780294421282
 30
0.0
  0
VERTEX
  5
E2F
  8
0
 10
69.795554948814527
 20
35.107780294421282
 30
0.0
  0
VERTEX
  5
E30
  8
0
 10
69.804821221511986
 20
35.107780294421282
 30
0.0
  0
VERTEX
  5
E31
  8
0
 10
69.813929025005677
 20
35.107780294421282
 30
0.0
  0
VERTEX
  5
E32
  8
0
 10
69.831667302299081
 20
35.107780294421282
 30
0.0
  0
VERTEX
  5
E33
  8
0
 10
69.848766892927756
 20
35.107780294421282
 30
0.0
  0
VERTEX
  5
E34
  8
0
 10
69.865226440531501
 20
35.107780294421282
 30
0.0
  0
VERTEX
  5
E35
  8
0
 10
69.881167084803906
 20
35.107780294421282
 30
0.0
  0
VERTEX
  5
E36
  8
0
 10
69.896811615822742
 20
35.107780294421282
 30
0.0
  0
VERTEX
  5
E37
  8
0
 10
69.904515852923737
 20
35.107780294421282
 30
0.0
  0
VERTEX
  5
E38
  8
0
 10
69.912136506711022
 20
35.107780294421282
 30
0.0
  0
VERTEX
  5
E39
  8
0
 10
69.927112873756641
 20
35.107780294421282
 30
0.0
  0
VERTEX
  5
E3A
  8
0
 10
69.941713209507157
 20
35.107780294421282
 30
0.0
  0
VERTEX
  5
E3B
  8
0
 10
69.955911450793906
 20
35.107780294421282
 30
0.0
  0
VERTEX
  5
E3C
  8
0
 10
69.96968303958738
 20
35.107780294421282
 30
0.0
  0
VERTEX
  5
E3D
  8
0
 10
69.983004976901213
 20
35.107780294421282
 30
0.0
  0
VERTEX
  5
E3E
  8
0
 10
69.989490577087338
 20
35.107780294421282
 30
0.0
  0
VERTEX
  5
E3F
  8
0
 10
69.995855869828063
 20
35.107780294421282
 30
0.0
  0
VERTEX
  5
E40
  8
0
 10
70.008215971661684
 20
35.107780294421282
 30
0.0
  0
VERTEX
  5
E41
  8
0
 10
70.020067214943353
 20
35.107780294421282
 30
0.0
  0
VERTEX
  5
E42
  8
0
 10
70.025796834195319
 20
35.107780294421282
 30
0.0
  0
SEQEND
  5
E43
  8
0
  0
POLYLINE
  5
771
  8
0
 66
     1
 10
0.0
 20
0.0
 30
0.0
  0
VERTEX
  5
E44
  8
0
 10
70.025796834195319
 20
35.107780294421282
 30
0.0
  0
VERTEX
  5
E45
  8
0
 10
70.089169999733429
 20
35.107780294421282
 30
0.0
  0
VERTEX
  5
E46
  8
0
 10
70.210831763055182
 20
35.107780294421282
 30
0.0
  0
VERTEX
  5
E47
  8
0
 10
70.325565690897292
 20
35.107780294421282
 30
0.0
  0
VERTEX
  5
E48
  8
0
 10
70.380284946600909
 20
35.107780294421282
 30
0.0
  0
VERTEX
  5
E49
  8
0
 10
70.433215706054554
 20
35.107780294421282
 30
0.0
  0
VERTEX
  5
E4A
  8
0
 10
70.533654217307443
 20
35.107780294421282
 30
0.0
  0
VERTEX
  5
E4B
  8
0
 10
70.626785063875786
 20
35.107780294421282
 30
0.0
  0
VERTEX
  5
E4C
  8
0
 10
70.712527109222364
 20
35.107780294421282
 30
0.0
  0
VERTEX
  5
E4D
  8
0
 10
70.790823637782637
 20
35.107780294421282
 30
0.0
  0
VERTEX
  5
E4E
  8
0
 10
70.861643640703733
 20
35.107780294421282
 30
0.0
  0
VERTEX
  5
E4F
  8
0
 10
70.894247358971086
 20
35.107780294421282
 30
0.0
  0
VERTEX
  5
E50
  8
0
 10
70.924982106390985
 20
35.107780294421282
 30
0.0
  0
VERTEX
  5
E51
  8
0
 10
70.980860140817356
 20
35.107780294421282
 30
0.0
  0
VERTEX
  5
E52
  8
0
 10
71.029324915403606
 20
35.107780294421282
 30
0.0
  0
VERTEX
  5
E53
  8
0
 10
71.070449257815355
 20
35.107780294421282
 30
0.0
  0
VERTEX
  5
E54
  8
0
 10
71.104331062275875
 20
35.107780294421282
 30
0.0
  0
VERTEX
  5
E55
  8
0
 10
71.131093274830334
 20
35.107780294421282
 30
0.0
  0
VERTEX
  5
E56
  8
0
 10
71.141849806097014
 20
35.107780294421282
 30
0.0
  0
VERTEX
  5
E57
  8
0
 10
71.150883882899905
 20
35.107780294421282
 30
0.0
  0
VERTEX
  5
E58
  8
0
 10
71.163875722197076
 20
35.107780294421282
 30
0.0
  0
VERTEX
  5
E59
  8
0
 10
71.170266108402529
 20
35.107780294421282
 30
0.0
  0
VERTEX
  5
E5A
  8
0
 10
71.171053982666535
 20
35.107780294421282
 30
0.0
  0
SEQEND
  5
E5B
  8
0
  0
POLYLINE
  5
772
  8
0
 66
     1
 10
0.0
 20
0.0
 30
0.0
  0
VERTEX
  5
E5C
  8
0
 10
41.228183573030947
 20
35.107780294421282
 30
0.0
  0
VERTEX
  5
E5D
  8
0
 10
41.254681415591172
 20
35.63069986829683
 30
0.0
  0
VERTEX
  5
E5E
  8
0
 10
41.352632978802603
 20
36.68821428606006
 30
0.0
  0
VERTEX
  5
E5F
  8
0
 10
41.512678395910882
 20
37.756291381764612
 30
0.0
  0
VERTEX
  5
E60
  8
0
 10
41.616644501008167
 20
38.29244138206505
 30
0.0
  0
VERTEX
  5
E61
  8
0
 10
41.736851921281747
 20
38.829039278185519
 30
0.0
  0
VERTEX
  5
E62
  8
0
 10
42.026621628952391
 20
39.900734372742193
 30
0.0
  0
VERTEX
  5
E63
  8
0
 10
42.382918303999013
 20
40.965730992975011
 30
0.0
  0
VERTEX
  5
E64
  8
0
 10
42.806189494322439
 20
42.018523527530697
 30
0.0
  0
VERTEX
  5
E65
  8
0
 10
43.296567796120478
 20
43.05399487244852
 30
0.0
  0
VERTEX
  5
E66
  8
0
 10
43.853846134183243
 20
44.067145490422632
 30
0.0
  0
VERTEX
  5
E67
  8
0
 10
44.157412760242657
 20
44.563800999002858
 30
0.0
  0
VERTEX
  5
E68
  8
0
 10
44.477481194536892
 20
45.053039730141329
 30
0.0
  0
VERTEX
  5
E69
  8
0
 10
45.166709154470929
 20
46.00693463198791
 30
0.0
  0
VERTEX
  5
E6A
  8
0
 10
45.598693009436708
 20
46.546777552765938
 30
0.0
  0
VERTEX
  5
E6B
  8
0
 10
45.726133268050937
 20
46.698610120230512
 30
0.0
  0
VERTEX
  5
E6C
  8
0
 10
45.855350366928398
 20
46.849335378580783
 30
0.0
  0
VERTEX
  5
E6D
  8
0
 10
45.920623849838869
 20
46.924276533765862
 30
0.0
  0
VERTEX
  5
E6E
  8
0
 10
45.986339890700201
 20
46.998933399387283
 30
0.0
  0
VERTEX
  5
E6F
  8
0
 10
46.119097474879773
 20
47.147384391440369
 30
0.0
  0
VERTEX
  5
E70
  8
0
 10
46.253618819529997
 20
47.294668693539442
 30
0.0
  0
VERTEX
  5
E71
  8
0
 10
46.38989970217574
 20
47.440766765873938
 30
0.0
  0
VERTEX
  5
E72
  8
0
 10
46.527935989774733
 20
47.585659179921031
 30
0.0
  0
VERTEX
  5
E73
  8
0
 10
46.667723649543063
 20
47.729326606789577
 30
0.0
  0
VERTEX
  5
E74
  8
0
 10
46.738273013519461
 20
47.800694933762912
 30
0.0
  0
VERTEX
  5
E75
  8
0
 10
46.80925875841222
 20
47.87174980394127
 30
0.0
  0
VERTEX
  5
E76
  8
0
 10
46.952537510874599
 20
48.012909600226799
 30
0.0
  0
VERTEX
  5
E77
  8
0
 10
47.097556224957081
 20
48.15278687918066
 30
0.0
  0
VERTEX
  5
E78
  8
0
 10
47.244311346040199
 20
48.291362560527602
 30
0.0
  0
VERTEX
  5
E79
  8
0
 10
47.3927994482234
 20
48.428617579863783
 30
0.0
  0
VERTEX
  5
E7A
  8
0
 10
47.54336087116058
 20
48.564840463113683
 30
0.0
  0
VERTEX
  5
E7B
  8
0
 10
47.619904878214179
 20
48.632983746453988
 30
0.0
  0
VERTEX
  5
E7C
  8
0
 10
47.697326893631782
 20
48.701161225020648
 30
0.0
  0
VERTEX
  5
E7D
  8
0
 10
47.854768451991617
 20
48.83752887419984
 30
0.0
  0
VERTEX
  5
E7E
  8
0
 10
48.015609267122727
 20
48.973765508177671
 30
0.0
  0
VERTEX
  5
E7F
  8
0
 10
48.179767871490412
 20
49.109696513268091
 30
0.0
  0
VERTEX
  5
E80
  8
0
 10
48.34715774637499
 20
49.245150963337288
 30
0.0
  0
VERTEX
  5
E81
  8
0
 10
48.517687523393022
 20
49.379962031406933
 30
0.0
  0
VERTEX
  5
E82
  8
0
 10
48.604100062543068
 20
49.447075389088383
 30
0.0
  0
VERTEX
  5
E83
  8
0
 10
48.691261259630039
 20
49.513967415370701
 30
0.0
  0
VERTEX
  5
E84
  8
0
 10
48.867778796968707
 20
49.647009778959578
 30
0.0
  0
VERTEX
  5
E85
  8
0
 10
49.04713592183213
 20
49.778936994016128
 30
0.0
  0
VERTEX
  5
E86
  8
0
 10
49.137845284970517
 20
49.844436064929418
 30
0.0
  0
VERTEX
  5
E87
  8
0
 10
49.229222879137133
 20
49.90960118729339
 30
0.0
  0
VERTEX
  5
E88
  8
0
 10
49.41392347656722
 20
50.038858342907872
 30
0.0
  0
VERTEX
  5
E89
  8
0
 10
49.60111536837735
 20
50.16656878040078
 30
0.0
  0
VERTEX
  5
E8A
  8
0
 10
49.695605732592291
 20
50.229801641994612
 30
0.0
  0
VERTEX
  5
E8B
  8
0
 10
49.790670462466487
 20
50.292597669918791
 30
0.0
  0
VERTEX
  5
E8C
  8
0
 10
49.982455409753697
 20
50.416815545740661
 30
0.0
  0
VERTEX
  5
E8D
  8
0
 10
50.176332187502233
 20
50.539098818309007
 30
0.0
  0
VERTEX
  5
E8E
  8
0
 10
50.372158801135178
 20
50.659330291620329
 30
0.0
  0
VERTEX
  5
E8F
  8
0
 10
50.569813835899879
 20
50.777413658865576
 30
0.0
  0
VERTEX
  5
E90
  8
0
 10
50.769167982647787
 20
50.893255220611159
 30
0.0
  0
VERTEX
  5
E91
  8
0
 10
50.869432941338523
 20
50.95030305959795
 30
0.0
  0
VERTEX
  5
E92
  8
0
 10
50.970062687996851
 20
51.00675238401908
 30
0.0
  0
VERTEX
  5
E93
  8
0
 10
51.172332802695387
 20
51.11780798343009
 30
0.0
  0
VERTEX
  5
E94
  8
0
 10
51.375807352317622
 20
51.226330900985538
 30
0.0
  0
VERTEX
  5
E95
  8
0
 10
51.580310400784811
 20
51.33223665314943
 30
0.0
  0
VERTEX
  5
E96
  8
0
 10
51.785662017197581
 20
51.435447941889038
 30
0.0
  0
VERTEX
  5
E97
  8
0
 10
51.991679356444138
 20
51.535895168527837
 30
0.0
  0
VERTEX
  5
E98
  8
0
 10
52.094880122373688
 20
51.585062775441997
 30
0.0
  0
VERTEX
  5
E99
  8
0
 10
52.198178509280751
 20
51.633517207940081
 30
0.0
  0
VERTEX
  5
E9A
  8
0
 10
52.404971960573732
 20
51.728260042370692
 30
0.0
  0
VERTEX
  5
E9B
  8
0
 10
52.611863844809697
 20
51.820074657465931
 30
0.0
  0
VERTEX
  5
E9C
  8
0
 10
52.715284457578832
 20
51.864870544517373
 30
0.0
  0
SEQEND
  5
E9D
  8
0
  0
LINE
  5
773
  8
0
 10
66.527050294465425
 20
35.107780294421282
 30
0.0
 11
41.228183573030947
 21
35.107780294421282
 31
0.0
  0
LINE
  5
777
  8
0
 10
186.66528445757891
 20
55.967039597990293
 30
0.0
 11
186.66528445757891
 21
55.91561883830704
 31
0.0
  0
LINE
  5
778
  8
0
 10
200.76528445757879
 20
52.53050833527741
 30
0.0
 11
200.76528445757879
 21
52.581929094960678
 31
0.0
  0
ARC
  5
783
  8
0
 10
127.7152844575788
 20
20.107780294421278
 30
0.0
 40
58.499999999999993
 50
14.857165544922911
 51
165.14283445507709
  0
ARC
  5
784
  8
0
 10
127.7152844575788
 20
20.107780294421278
 30
0.0
 40
67.5
 50
32.530107826520542
 51
147.46989217347939
  0
LINE
  5
7FF
  8
1
 10
304.26474352791882
 20
92.607780294421346
 30
0.0
 11
304.26474352791882
 21
30.10778029442131
 31
0.0
  0
POLYLINE
  5
800
  8
0
 66
     1
 10
0.0
 20
0.0
 30
0.0
  0
VERTEX
  5
E9E
  8
0
 10
297.21474352791881
 20
54.223063586792193
 30
0.0
  0
VERTEX
  5
E9F
  8
0
 10
297.21492994661202
 20
54.235372087431948
 30
0.0
  0
VERTEX
  5
EA0
  8
0
 10
297.21642123700542
 20
54.259986485018629
 30
0.0
  0
VERTEX
  5
EA1
  8
0
 10
297.21940350233058
 20
54.28459307207774
 30
0.0
  0
VERTEX
  5
EA2
  8
0
 10
297.22145356576658
 20
54.296891809945258
 30
0.0
  0
VERTEX
  5
EA3
  8
0
 10
297.22387611173059
 20
54.309186643426692
 30
0.0
  0
VERTEX
  5
EA4
  8
0
 10
297.22983811908659
 20
54.333761996636177
 30
0.0
  0
VERTEX
  5
EA5
  8
0
 10
297.23728826321877
 20
54.358313933130688
 30
0.0
  0
VERTEX
  5
EA6
  8
0
 10
297.24622496815249
 20
54.38283725928823
 30
0.0
  0
VERTEX
  5
EA7
  8
0
 10
297.25664634345139
 20
54.407326787538892
 30
0.0
  0
VERTEX
  5
EA8
  8
0
 10
297.26855018461799
 20
54.43177733746225
 30
0.0
  0
VERTEX
  5
EA9
  8
0
 10
297.27505725523338
 20
54.443986378894493
 30
0.0
  0
VERTEX
  5
EAA
  8
0
 10
297.2819339735596
 20
54.456183736883247
 30
0.0
  0
VERTEX
  5
EAB
  8
0
 10
297.29679487912108
 20
54.480540822966162
 30
0.0
  0
VERTEX
  5
EAC
  8
0
 10
297.31312975768373
 20
54.504843443306889
 30
0.0
  0
VERTEX
  5
EAD
  8
0
 10
297.3309351538303
 20
54.529086457022863
 30
0.0
  0
VERTEX
  5
EAE
  8
0
 10
297.35020730107601
 20
54.553264735840308
 30
0.0
  0
VERTEX
  5
EAF
  8
0
 10
297.37094212266493
 20
54.577373165179353
 30
0.0
  0
VERTEX
  5
EB0
  8
0
 10
297.38185667772319
 20
54.589399591998991
 30
0.0
  0
VERTEX
  5
EB1
  8
0
 10
297.393135232433
 20
54.601406645235777
 30
0.0
  0
VERTEX
  5
EB2
  8
0
 10
297.41678193573517
 20
54.62536009205985
 30
0.0
  0
VERTEX
  5
EB3
  8
0
 10
297.44187723043922
 20
54.649228438631717
 30
0.0
  0
VERTEX
  5
EB4
  8
0
 10
297.45496645258078
 20
54.661129120772529
 30
0.0
  0
VERTEX
  5
EB5
  8
0
 10
297.46841580798292
 20
54.673006635933383
 30
0.0
  0
VERTEX
  5
EB6
  8
0
 10
297.4963920544979
 20
54.696689654016581
 30
0.0
  0
VERTEX
  5
EB7
  8
0
 10
297.52580005199712
 20
54.720272483066957
 30
0.0
  0
VERTEX
  5
EB8
  8
0
 10
297.54103902514379
 20
54.732024766904118
 30
0.0
  0
VERTEX
  5
EB9
  8
0
 10
297.55663357962572
 20
54.743750134463802
 30
0.0
  0
VERTEX
  5
EBA
  8
0
 10
297.58888611497832
 20
54.767117641835192
 30
0.0
  0
VERTEX
  5
EBB
  8
0
 10
297.6225508354778
 20
54.79037006210865
 30
0.0
  0
VERTEX
  5
EBC
  8
0
 10
297.65762061981911
 20
54.81350247655687
 30
0.0
  0
VERTEX
  5
EBD
  8
0
 10
297.694088049475
 20
54.836509991838
 30
0.0
  0
VERTEX
  5
EBE
  8
0
 10
297.73194541026618
 20
54.859387741030979
 30
0.0
  0
VERTEX
  5
EBF
  8
0
 10
297.75139282371418
 20
54.870776439909463
 30
0.0
  0
VERTEX
  5
EC0
  8
0
 10
297.77118469399238
 20
54.88213088466491
 30
0.0
  0
VERTEX
  5
EC1
  8
0
 10
297.81179760012662
 20
54.904734611742811
 30
0.0
  0
VERTEX
  5
EC2
  8
0
 10
297.85377553757149
 20
54.927194140759411
 30
0.0
  0
VERTEX
  5
EC3
  8
0
 10
297.8971096264757
 20
54.94950472071249
 30
0.0
  0
VERTEX
  5
EC4
  8
0
 10
297.9417907001133
 20
54.971661632107981
 30
0.0
  0
VERTEX
  5
EC5
  8
0
 10
297.98780930682199
 20
54.99366018795822
 30
0.0
  0
VERTEX
  5
EC6
  8
0
 10
298.01131715401232
 20
55.004598627002849
 30
0.0
  0
VERTEX
  5
EC7
  8
0
 10
298.03515571200319
 20
55.015495734773481
 30
0.0
  0
VERTEX
  5
EC8
  8
0
 10
298.08381990018091
 20
55.037163653546337
 30
0.0
  0
VERTEX
  5
EC9
  8
0
 10
298.13379157712001
 20
55.058659360728853
 30
0.0
  0
VERTEX
  5
ECA
  8
0
 10
298.18506017200491
 20
55.079978309201863
 30
0.0
  0
VERTEX
  5
ECB
  8
0
 10
298.23761483967451
 20
55.101115989237229
 30
0.0
  0
VERTEX
  5
ECC
  8
0
 10
298.2914444629169
 20
55.12206792945161
 30
0.0
  0
VERTEX
  5
ECD
  8
0
 10
298.31883383493789
 20
55.132472860536467
 30
0.0
  0
VERTEX
  5
ECE
  8
0
 10
298.34653765482119
 20
55.14282969775229
 30
0.0
  0
VERTEX
  5
ECF
  8
0
 10
298.40288276118582
 20
55.163396902274862
 30
0.0
  0
VERTEX
  5
ED0
  8
0
 10
298.46046786298422
 20
55.18376519231208
 30
0.0
  0
VERTEX
  5
ED1
  8
0
 10
298.51928077888579
 20
55.203930259234433
 30
0.0
  0
VERTEX
  5
ED2
  8
0
 10
298.57930906783298
 20
55.22388783740135
 30
0.0
  0
VERTEX
  5
ED3
  8
0
 10
298.64054003167303
 20
55.243633705063729
 30
0.0
  0
VERTEX
  5
ED4
  8
0
 10
298.67160247886562
 20
55.253425940380573
 30
0.0
  0
VERTEX
  5
ED5
  8
0
 10
298.70296071784389
 20
55.263163685256728
 30
0.0
  0
VERTEX
  5
ED6
  8
0
 10
298.76655792211398
 20
55.282473646683712
 30
0.0
  0
VERTEX
  5
ED7
  8
0
 10
298.83131819137589
 20
55.301559504589818
 30
0.0
  0
VERTEX
  5
ED8
  8
0
 10
298.89722782649199
 20
55.320417221626229
 30
0.0
  0
VERTEX
  5
ED9
  8
0
 10
298.96427288519197
 20
55.339042808704129
 30
0.0
  0
VERTEX
  5
EDA
  8
0
 10
299.03243918502261
 20
55.35743232583868
 30
0.0
  0
VERTEX
  5
EDB
  8
0
 10
299.06693830340743
 20
55.366537340564072
 30
0.0
  0
VERTEX
  5
EDC
  8
0
 10
299.10171230634739
 20
55.375581882982289
 30
0.0
  0
VERTEX
  5
EDD
  8
0
 10
299.17207759539752
 20
55.393487640847553
 30
0.0
  0
VERTEX
  5
EDE
  8
0
 10
299.24352016737072
 20
55.411145811719479
 30
0.0
  0
VERTEX
  5
EDF
  8
0
 10
299.27964072055357
 20
55.419880882671237
 30
0.0
  0
VERTEX
  5
EE0
  8
0
 10
299.31602490958062
 20
55.428552660256649
 30
0.0
  0
VERTEX
  5
EE1
  8
0
 10
299.38957648465367
 20
55.44570450428148
 30
0.0
  0
VERTEX
  5
EE2
  8
0
 10
299.4641593337733
 20
55.462597715558928
 30
0.0
  0
VERTEX
  5
EE3
  8
0
 10
299.50183256422838
 20
55.470946215033017
 30
0.0
  0
VERTEX
  5
EE4
  8
0
 10
299.53975767997071
 20
55.479228720564237
 30
0.0
  0
VERTEX
  5
EE5
  8
0
 10
299.61635553146323
 20
55.495594001238629
 30
0.0
  0
VERTEX
  5
EE6
  8
0
 10
299.69393668503682
 20
55.511690095733769
 30
0.0
  0
VERTEX
  5
EE7
  8
0
 10
299.77248472947292
 20
55.527513599143873
 30
0.0
  0
VERTEX
  5
EE8
  8
0
 10
299.8519830490211
 20
55.543061164225982
 30
0.0
  0
VERTEX
  5
EE9
  8
0
 10
299.93241482691337
 20
55.558329502108108
 30
0.0
  0
VERTEX
  5
EEA
  8
0
 10
299.97297545340729
 20
55.565857949208947
 30
0.0
  0
VERTEX
  5
EEB
  8
0
 10
300.01376304892131
 20
55.57331538298493
 30
0.0
  0
VERTEX
  5
EEC
  8
0
 10
300.09601050695551
 20
55.588015636800911
 30
0.0
  0
VERTEX
  5
EED
  8
0
 10
300.17913980270578
 20
55.60242715392107
 30
0.0
  0
VERTEX
  5
EEE
  8
0
 10
300.2631333513213
 20
55.616546885788608
 30
0.0
  0
VERTEX
  5
EEF
  8
0
 10
300.3479733851305
 20
55.630371845569869
 30
0.0
  0
VERTEX
  5
EF0
  8
0
 10
300.43364195739969
 20
55.643899108786108
 30
0.0
  0
VERTEX
  5
EF1
  8
0
 10
300.4767812890737
 20
55.65055020748548
 30
0.0
  0
VERTEX
  5
EF2
  8
0
 10
300.52012094612928
 20
55.657125813932247
 30
0.0
  0
VERTEX
  5
EF3
  8
0
 10
300.60739205788713
 20
55.670049163082041
 30
0.0
  0
VERTEX
  5
EF4
  8
0
 10
300.69543683167882
 20
55.682666422480018
 30
0.0
  0
VERTEX
  5
EF5
  8
0
 10
300.78423664285202
 20
55.694974923119759
 30
0.0
  0
VERTEX
  5
EF6
  8
0
 10
300.87377270703712
 20
55.706972061308512
 30
0.0
  0
VERTEX
  5
EF7
  8
0
 10
300.96402608412012
 20
55.718655299217829
 30
0.0
  0
VERTEX
  5
EF8
  8
0
 10
301.00941580461182
 20
55.724378430638517
 30
0.0
  0
VERTEX
  5
EF9
  8
0
 10
301.0549776822495
 20
55.730022165420621
 30
0.0
  0
VERTEX
  5
EFA
  8
0
 10
301.1466082618748
 20
55.74107025541386
 30
0.0
  0
VERTEX
  5
EFB
  8
0
 10
301.2388984398163
 20
55.751797232127103
 30
0.0
  0
VERTEX
  5
EFC
  8
0
 10
301.33182869336542
 20
55.762200826417107
 30
0.0
  0
VERTEX
  5
EFD
  8
0
 10
301.4253793644146
 20
55.772278837547617
 30
0.0
  0
VERTEX
  5
EFE
  8
0
 10
301.5195306636154
 20
55.782029133654959
 30
0.0
  0
VERTEX
  5
EFF
  8
0
 10
301.56682532974492
 20
55.786780741311219
 30
0.0
  0
VERTEX
  5
F00
  8
0
 10
301.614262674565
 20
55.791449652199141
 30
0.0
  0
VERTEX
  5
F01
  8
0
 10
301.70955535801858
 20
55.800538400399908
 30
0.0
  0
VERTEX
  5
F02
  8
0
 10
301.80538855612951
 20
55.809293455658569
 30
0.0
  0
VERTEX
  5
F03
  8
0
 10
301.9017419967123
 20
55.817712965964432
 30
0.0
  0
VERTEX
  5
F04
  8
0
 10
301.99859529753138
 20
55.825795150286751
 30
0.0
  0
VERTEX
  5
F05
  8
0
 10
302.0959279706131
 20
55.833538298951368
 30
0.0
  0
VERTEX
  5
F06
  8
0
 10
302.14476764141358
 20
55.837282220239821
 30
0.0
  0
VERTEX
  5
F07
  8
0
 10
302.19371942657858
 20
55.840940774002512
 30
0.0
  0
VERTEX
  5
F08
  8
0
 10
302.29194897900032
 20
55.848001009549137
 30
0.0
  0
VERTEX
  5
F09
  8
0
 10
302.39059584877731
 20
55.854717512096187
 30
0.0
  0
VERTEX
  5
F0A
  8
0
 10
302.44006925994597
 20
55.857946416651536
 30
0.0
  0
VERTEX
  5
F0B
  8
0
 10
302.48963916853103
 20
55.861088860860633
 30
0.0
  0
VERTEX
  5
F0C
  8
0
 10
302.58905798701932
 20
55.867113708071912
 30
0.0
  0
VERTEX
  5
F0D
  8
0
 10
302.68883127356833
 20
55.872790779257031
 30
0.0
  0
VERTEX
  5
F0E
  8
0
 10
302.73884424965519
 20
55.87549852067599
 30
0.0
  0
VERTEX
  5
F0F
  8
0
 10
302.78893792252188
 20
55.878118873510289
 30
0.0
  0
VERTEX
  5
F10
  8
0
 10
302.88935675770512
 20
55.883096863747113
 30
0.0
  0
VERTEX
  5
F11
  8
0
 10
302.99006653690458
 20
55.887723696942679
 30
0.0
  0
VERTEX
  5
F12
  8
0
 10
303.09104595636188
 20
55.891998394354481
 30
0.0
  0
VERTEX
  5
F13
  8
0
 10
303.19227365527979
 20
55.895920051729519
 30
0.0
  0
VERTEX
  5
F14
  8
0
 10
303.29372822034111
 20
55.899487839495521
 30
0.0
  0
VERTEX
  5
F15
  8
0
 10
303.34453387276739
 20
55.901138793497829
 30
0.0
  0
VERTEX
  5
F16
  8
0
 10
303.39538819023801
 20
55.902701002936432
 30
0.0
  0
VERTEX
  5
F17
  8
0
 10
303.49723206021241
 20
55.905558862351967
 30
0.0
  0
VERTEX
  5
F18
  8
0
 10
303.59923828660447
 20
55.908060813201637
 30
0.0
  0
VERTEX
  5
F19
  8
0
 10
303.70138529141042
 20
55.910206326232377
 30
0.0
  0
VERTEX
  5
F1A
  8
0
 10
303.8036514668463
 20
55.911994947590607
 30
0.0
  0
VERTEX
  5
F1B
  8
0
 10
303.90601517991951
 20
55.913426298918303
 30
0.0
  0
VERTEX
  5
F1C
  8
0
 10
303.95722684699319
 20
55.914007900747123
 30
0.0
  0
VERTEX
  5
F1D
  8
0
 10
304.00845477700511
 20
55.914500077432898
 30
0.0
  0
VERTEX
  5
F1E
  8
0
 10
304.11094858842512
 20
55.915216055991401
 30
0.0
  0
VERTEX
  5
F1F
  8
0
 10
304.21347493303392
 20
55.915574083138502
 30
0.0
  0
VERTEX
  5
F20
  8
0
 10
304.26474352791882
 20
55.915618838307012
 30
0.0
  0
SEQEND
  5
F21
  8
0
  0
POLYLINE
  5
801
  8
0
 66
     1
 10
0.0
 20
0.0
 30
0.0
  0
VERTEX
  5
F22
  8
0
 10
311.31474352791872
 20
54.223063586792193
 30
0.0
  0
VERTEX
  5
F23
  8
0
 10
311.31399786300477
 20
54.198447236444537
 30
0.0
  0
VERTEX
  5
F24
  8
0
 10
311.3080334900709
 20
54.149235363639143
 30
0.0
  0
VERTEX
  5
F25
  8
0
 10
311.29610979065791
 20
54.10008595688123
 30
0.0
  0
VERTEX
  5
F26
  8
0
 10
311.28791614946562
 20
54.075547676704979
 30
0.0
  0
VERTEX
  5
F27
  8
0
 10
311.27823685340582
 20
54.051040601475762
 30
0.0
  0
VERTEX
  5
F28
  8
0
 10
311.25442980060421
 20
54.002140794689922
 30
0.0
  0
VERTEX
  5
F29
  8
0
 10
311.22470877539632
 20
53.953427910642148
 30
0.0
  0
VERTEX
  5
F2A
  8
0
 10
311.1890989247367
 20
53.904943165295627
 30
0.0
  0
VERTEX
  5
F2B
  8
0
 10
311.14763037811429
 20
53.856727581585432
 30
0.0
  0
VERTEX
  5
F2C
  8
0
 10
311.10033822205952
 20
53.808821954709003
 30
0.0
  0
VERTEX
  5
F2D
  8
0
 10
311.0745206032567
 20
53.784998052811879
 30
0.0
  0
VERTEX
  5
F2E
  8
0
 10
311.04726247045778
 20
53.761266817609403
 30
0.0
  0
VERTEX
  5
F2F
  8
0
 10
310.9884480306938
 20
53.714102406680261
 30
0.0
  0
VERTEX
  5
F30
  8
0
 10
310.92394466565543
 20
53.66736862772197
 30
0.0
  0
VERTEX
  5
F31
  8
0
 10
310.85380695162922
 20
53.621105022177211
 30
0.0
  0
VERTEX
  5
F32
  8
0
 10
310.77809423212329
 20
53.575350733674952
 30
0.0
  0
VERTEX
  5
F33
  8
0
 10
310.69687056765753
 20
53.530144474911253
 30
0.0
  0
VERTEX
  5
F34
  8
0
 10
310.65421342652712
 20
53.507758828496918
 30
0.0
  0
VERTEX
  5
F35
  8
0
 10
310.6102046815609
 20
53.485524494894207
 30
0.0
  0
VERTEX
  5
F36
  8
0
 10
310.51816990182522
 20
53.441528546581559
 30
0.0
  0
VERTEX
  5
F37
  8
0
 10
310.42084409906272
 20
53.398193854937936
 30
0.0
  0
VERTEX
  5
F38
  8
0
 10
310.37022262459902
 20
53.376785961034777
 30
0.0
  0
VERTEX
  5
F39
  8
0
 10
310.31830962061912
 20
53.355557085438853
 30
0.0
  0
VERTEX
  5
F3A
  8
0
 10
310.21065322089959
 20
53.31365431304792
 30
0.0
  0
VERTEX
  5
F3B
  8
0
 10
310.0979659879664
 20
53.27252099169403
 30
0.0
  0
VERTEX
  5
F3C
  8
0
 10
310.0397654401562
 20
53.252253777301092
 30
0.0
  0
VERTEX
  5
F3D
  8
0
 10
309.98034326646871
 20
53.232191924273529
 30
0.0
  0
VERTEX
  5
F3E
  8
0
 10
309.85788457697203
 20
53.19270123320382
 30
0.0
  0
VERTEX
  5
F3F
  8
0
 10
309.7306935317531
 20
53.154082331552068
 30
0.0
  0
VERTEX
  5
F40
  8
0
 10
309.59887774713462
 20
53.116367894764657
 30
0.0
  0
VERTEX
  5
F41
  8
0
 10
309.46254875243011
 20
53.079589833020322
 30
0.0
  0
VERTEX
  5
F42
  8
0
 10
309.32182189557977
 20
53.043779264231063
 30
0.0
  0
VERTEX
  5
F43
  8
0
 10
309.24984633528391
 20
53.026246290913178
 30
0.0
  0
VERTEX
  5
F44
  8
0
 10
309.17681624555388
 20
53.008966487713252
 30
0.0
  0
VERTEX
  5
F45
  8
0
 10
309.02765449160921
 20
52.975180958551363
 30
0.0
  0
VERTEX
  5
F46
  8
0
 10
308.87446283948111
 20
52.94245126267608
 30
0.0
  0
VERTEX
  5
F47
  8
0
 10
308.7173709046013
 20
52.910805092677691
 30
0.0
  0
VERTEX
  5
F48
  8
0
 10
308.55651160243019
 20
52.880269224375439
 30
0.0
  0
VERTEX
  5
F49
  8
0
 10
308.39202103599689
 20
52.850869494162481
 30
0.0
  0
VERTEX
  5
F4A
  8
0
 10
308.30845740419369
 20
52.83660349244176
 30
0.0
  0
VERTEX
  5
F4B
  8
0
 10
308.2240383807424
 20
52.82263077714569
 30
0.0
  0
VERTEX
  5
F4C
  8
0
 10
308.05270576676389
 20
52.795576966098928
 30
0.0
  0
VERTEX
  5
F4D
  8
0
 10
307.8781681585578
 20
52.769730951247233
 30
0.0
  0
VERTEX
  5
F4E
  8
0
 10
307.70057323236591
 20
52.745114600899569
 30
0.0
  0
VERTEX
  5
F4F
  8
0
 10
307.52007125122577
 20
52.721748742945863
 30
0.0
  0
VERTEX
  5
F50
  8
0
 10
307.33681493783422
 20
52.699653147234727
 30
0.0
  0
VERTEX
  5
F51
  8
0
 10
307.24420227319069
 20
52.689087582354539
 30
0.0
  0
VERTEX
  5
F52
  8
0
 10
307.15095934532769
 20
52.678846508846071
 30
0.0
  0
VERTEX
  5
F53
  8
0
 10
306.96266172609262
 20
52.659346432273168
 30
0.0
  0
VERTEX
  5
F54
  8
0
 10
306.77208139871368
 20
52.641169416527617
 30
0.0
  0
VERTEX
  5
F55
  8
0
 10
306.57937961317441
 20
52.6243308411795
 30
0.0
  0
VERTEX
  5
F56
  8
0
 10
306.3847194144239
 20
52.608844953344573
 30
0.0
  0
VERTEX
  5
F57
  8
0
 10
306.18826550442441
 20
52.594724855630062
 30
0.0
  0
VERTEX
  5
F58
  8
0
 10
306.08941779589162
 20
52.588180756932843
 30
0.0
  0
VERTEX
  5
F59
  8
0
 10
305.99018410279677
 20
52.581982495048258
 30
0.0
  0
VERTEX
  5
F5A
  8
0
 10
305.7906428061824
 20
52.570628652908418
 30
0.0
  0
VERTEX
  5
F5B
  8
0
 10
305.58981044643951
 20
52.560672935694441
 30
0.0
  0
VERTEX
  5
F5C
  8
0
 10
305.38785694779477
 20
52.552123766937051
 30
0.0
  0
VERTEX
  5
F5D
  8
0
 10
305.18495318307009
 20
52.544988380086572
 30
0.0
  0
VERTEX
  5
F5E
  8
0
 10
304.98127082910747
 20
52.539272812392603
 30
0.0
  0
VERTEX
  5
F5F
  8
0
 10
304.8791915142898
 20
52.536949019005789
 30
0.0
  0
VERTEX
  5
F60
  8
0
 10
304.77698222151321
 20
52.534981899796009
 30
0.0
  0
VERTEX
  5
F61
  8
0
 10
304.5722602088444
 20
52.532119272837292
 30
0.0
  0
VERTEX
  5
F62
  8
0
 10
304.36727800636243
 20
52.530687353584597
 30
0.0
  0
VERTEX
  5
F63
  8
0
 10
304.26474352791882
 20
52.53050833527741
 30
0.0
  0
VERTEX
  5
F64
  8
0
 10
304.16220904947511
 20
52.530687353584597
 30
0.0
  0
VERTEX
  5
F65
  8
0
 10
303.95722684699319
 20
52.532119272837292
 30
0.0
  0
VERTEX
  5
F66
  8
0
 10
303.75250483432433
 20
52.534981899796009
 30
0.0
  0
VERTEX
  5
F67
  8
0
 10
303.65029554154768
 20
52.536949019005789
 30
0.0
  0
VERTEX
  5
F68
  8
0
 10
303.54821622673001
 20
52.539272812392603
 30
0.0
  0
VERTEX
  5
F69
  8
0
 10
303.34453387276739
 20
52.544988380086572
 30
0.0
  0
VERTEX
  5
F6A
  8
0
 10
303.1416301080427
 20
52.552123766937051
 30
0.0
  0
VERTEX
  5
F6B
  8
0
 10
302.93967660939802
 20
52.560672935694441
 30
0.0
  0
VERTEX
  5
F6C
  8
0
 10
302.73884424965519
 20
52.570628652908418
 30
0.0
  0
VERTEX
  5
F6D
  8
0
 10
302.53930295304082
 20
52.581982495048258
 30
0.0
  0
VERTEX
  5
F6E
  8
0
 10
302.44006925994597
 20
52.588180756932843
 30
0.0
  0
VERTEX
  5
F6F
  8
0
 10
302.34122155141313
 20
52.594724855630062
 30
0.0
  0
VERTEX
  5
F70
  8
0
 10
302.14476764141358
 20
52.608844953344573
 30
0.0
  0
VERTEX
  5
F71
  8
0
 10
301.95010744266312
 20
52.6243308411795
 30
0.0
  0
VERTEX
  5
F72
  8
0
 10
301.75740565712391
 20
52.641169416527617
 30
0.0
  0
VERTEX
  5
F73
  8
0
 10
301.56682532974492
 20
52.659346432273168
 30
0.0
  0
VERTEX
  5
F74
  8
0
 10
301.37852771050979
 20
52.678846508846071
 30
0.0
  0
VERTEX
  5
F75
  8
0
 10
301.2852847826469
 20
52.689087582354539
 30
0.0
  0
VERTEX
  5
F76
  8
0
 10
301.19267211800332
 20
52.699653147234727
 30
0.0
  0
VERTEX
  5
F77
  8
0
 10
301.00941580461182
 20
52.721748742945863
 30
0.0
  0
VERTEX
  5
F78
  8
0
 10
300.82891382347168
 20
52.745114600899569
 30
0.0
  0
VERTEX
  5
F79
  8
0
 10
300.65131889727968
 20
52.769730951247233
 30
0.0
  0
VERTEX
  5
F7A
  8
0
 10
300.4767812890737
 20
52.795576966098928
 30
0.0
  0
VERTEX
  5
F7B
  8
0
 10
300.30544867509508
 20
52.82263077714569
 30
0.0
  0
VERTEX
  5
F7C
  8
0
 10
300.2210296516439
 20
52.83660349244176
 30
0.0
  0
VERTEX
  5
F7D
  8
0
 10
300.13746601984059
 20
52.850869494162481
 30
0.0
  0
VERTEX
  5
F7E
  8
0
 10
299.97297545340729
 20
52.880269224375439
 30
0.0
  0
VERTEX
  5
F7F
  8
0
 10
299.81211615123618
 20
52.910805092677691
 30
0.0
  0
VERTEX
  5
F80
  8
0
 10
299.65502421635642
 20
52.94245126267608
 30
0.0
  0
VERTEX
  5
F81
  8
0
 10
299.50183256422838
 20
52.975180958551363
 30
0.0
  0
VERTEX
  5
F82
  8
0
 10
299.3526708102836
 20
53.008966487713252
 30
0.0
  0
VERTEX
  5
F83
  8
0
 10
299.27964072055357
 20
53.026246290913178
 30
0.0
  0
VERTEX
  5
F84
  8
0
 10
299.20766516025782
 20
53.043779264231063
 30
0.0
  0
VERTEX
  5
F85
  8
0
 10
299.06693830340743
 20
53.079589833020322
 30
0.0
  0
VERTEX
  5
F86
  8
0
 10
298.93060930870303
 20
53.116367894764657
 30
0.0
  0
VERTEX
  5
F87
  8
0
 10
298.79879352408437
 20
53.154082331552068
 30
0.0
  0
VERTEX
  5
F88
  8
0
 10
298.67160247886562
 20
53.19270123320382
 30
0.0
  0
VERTEX
  5
F89
  8
0
 10
298.54914378936883
 20
53.232191924273529
 30
0.0
  0
VERTEX
  5
F8A
  8
0
 10
298.48972161568128
 20
53.252253777301092
 30
0.0
  0
VERTEX
  5
F8B
  8
0
 10
298.43152106787107
 20
53.27252099169403
 30
0.0
  0
VERTEX
  5
F8C
  8
0
 10
298.31883383493789
 20
53.31365431304792
 30
0.0
  0
VERTEX
  5
F8D
  8
0
 10
298.21117743521847
 20
53.355557085438853
 30
0.0
  0
VERTEX
  5
F8E
  8
0
 10
298.15926443123851
 20
53.376785961034777
 30
0.0
  0
VERTEX
  5
F8F
  8
0
 10
298.10864295677482
 20
53.398193854937936
 30
0.0
  0
VERTEX
  5
F90
  8
0
 10
298.01131715401232
 20
53.441528546581559
 30
0.0
  0
VERTEX
  5
F91
  8
0
 10
297.91928237427669
 20
53.485524494894207
 30
0.0
  0
VERTEX
  5
F92
  8
0
 10
297.87527362931041
 20
53.507758828496918
 30
0.0
  0
VERTEX
  5
F93
  8
0
 10
297.83261648818012
 20
53.530144474911253
 30
0.0
  0
VERTEX
  5
F94
  8
0
 10
297.75139282371418
 20
53.575350733674952
 30
0.0
  0
VERTEX
  5
F95
  8
0
 10
297.67568010420842
 20
53.621105022177211
 30
0.0
  0
VERTEX
  5
F96
  8
0
 10
297.60554239018211
 20
53.66736862772197
 30
0.0
  0
VERTEX
  5
F97
  8
0
 10
297.54103902514379
 20
53.714102406680261
 30
0.0
  0
VERTEX
  5
F98
  8
0
 10
297.4822245853797
 20
53.761266817609403
 30
0.0
  0
VERTEX
  5
F99
  8
0
 10
297.45496645258078
 20
53.784998052811879
 30
0.0
  0
VERTEX
  5
F9A
  8
0
 10
297.42914883377807
 20
53.808821954709032
 30
0.0
  0
VERTEX
  5
F9B
  8
0
 10
297.38185667772319
 20
53.856727581585432
 30
0.0
  0
VERTEX
  5
F9C
  8
0
 10
297.34038813110078
 20
53.904943165295627
 30
0.0
  0
VERTEX
  5
F9D
  8
0
 10
297.30477828044121
 20
53.953427910642148
 30
0.0
  0
VERTEX
  5
F9E
  8
0
 10
297.27505725523338
 20
54.002140794689922
 30
0.0
  0
VERTEX
  5
F9F
  8
0
 10
297.25125020243172
 20
54.051040601475762
 30
0.0
  0
VERTEX
  5
FA0
  8
0
 10
297.24157090637198
 20
54.075547676704979
 30
0.0
  0
VERTEX
  5
FA1
  8
0
 10
297.23337726517968
 20
54.10008595688123
 30
0.0
  0
VERTEX
  5
FA2
  8
0
 10
297.22145356576658
 20
54.149235363639143
 30
0.0
  0
VERTEX
  5
FA3
  8
0
 10
297.21548919283271
 20
54.198447236444537
 30
0.0
  0
VERTEX
  5
FA4
  8
0
 10
297.21474352791881
 20
54.223063586792193
 30
0.0
  0
SEQEND
  5
FA5
  8
0
  0
POLYLINE
  5
802
  8
0
 66
     1
 10
0.0
 20
0.0
 30
0.0
  0
VERTEX
  5
FA6
  8
0
 10
304.26474352791882
 20
55.915618838307012
 30
0.0
  0
VERTEX
  5
FA7
  8
0
 10
304.31601212280361
 20
55.915574083138502
 30
0.0
  0
VERTEX
  5
FA8
  8
0
 10
304.41853846741242
 20
55.915216055991401
 30
0.0
  0
VERTEX
  5
FA9
  8
0
 10
304.52103227883242
 20
55.914500077432898
 30
0.0
  0
VERTEX
  5
FAA
  8
0
 10
304.5722602088444
 20
55.914007900747123
 30
0.0
  0
VERTEX
  5
FAB
  8
0
 10
304.62347187591803
 20
55.913426298918303
 30
0.0
  0
VERTEX
  5
FAC
  8
0
 10
304.72583558899117
 20
55.911994947590607
 30
0.0
  0
VERTEX
  5
FAD
  8
0
 10
304.82810176442717
 20
55.910206326232377
 30
0.0
  0
VERTEX
  5
FAE
  8
0
 10
304.930248769233
 20
55.908060813201637
 30
0.0
  0
VERTEX
  5
FAF
  8
0
 10
305.03225499562512
 20
55.905558862351967
 30
0.0
  0
VERTEX
  5
FB0
  8
0
 10
305.13409886559953
 20
55.902701002936432
 30
0.0
  0
VERTEX
  5
FB1
  8
0
 10
305.18495318307009
 20
55.901138793497829
 30
0.0
  0
VERTEX
  5
FB2
  8
0
 10
305.23575883549643
 20
55.899487839495521
 30
0.0
  0
VERTEX
  5
FB3
  8
0
 10
305.33721340055757
 20
55.895920051729519
 30
0.0
  0
VERTEX
  5
FB4
  8
0
 10
305.43844109947571
 20
55.891998394354481
 30
0.0
  0
VERTEX
  5
FB5
  8
0
 10
305.53942051893301
 20
55.887723696942679
 30
0.0
  0
VERTEX
  5
FB6
  8
0
 10
305.64013029813248
 20
55.883096863747113
 30
0.0
  0
VERTEX
  5
FB7
  8
0
 10
305.7405491333156
 20
55.878118873510289
 30
0.0
  0
VERTEX
  5
FB8
  8
0
 10
305.7906428061824
 20
55.87549852067599
 30
0.0
  0
VERTEX
  5
FB9
  8
0
 10
305.84065578226921
 20
55.872790779257031
 30
0.0
  0
VERTEX
  5
FBA
  8
0
 10
305.94042906881828
 20
55.867113708071912
 30
0.0
  0
VERTEX
  5
FBB
  8
0
 10
306.03984788730662
 20
55.861088860860633
 30
0.0
  0
VERTEX
  5
FBC
  8
0
 10
306.08941779589162
 20
55.857946416651536
 30
0.0
  0
VERTEX
  5
FBD
  8
0
 10
306.13889120706028
 20
55.854717512096187
 30
0.0
  0
VERTEX
  5
FBE
  8
0
 10
306.23753807683732
 20
55.848001009549137
 30
0.0
  0
VERTEX
  5
FBF
  8
0
 10
306.33576762925901
 20
55.840940774002512
 30
0.0
  0
VERTEX
  5
FC0
  8
0
 10
306.3847194144239
 20
55.837282220239821
 30
0.0
  0
VERTEX
  5
FC1
  8
0
 10
306.43355908522449
 20
55.833538298951368
 30
0.0
  0
VERTEX
  5
FC2
  8
0
 10
306.5308917583061
 20
55.825795150286751
 30
0.0
  0
VERTEX
  5
FC3
  8
0
 10
306.62774505912517
 20
55.817712965964432
 30
0.0
  0
VERTEX
  5
FC4
  8
0
 10
306.72409849970791
 20
55.809293455658569
 30
0.0
  0
VERTEX
  5
FC5
  8
0
 10
306.8199316978189
 20
55.800538400399937
 30
0.0
  0
VERTEX
  5
FC6
  8
0
 10
306.91522438127248
 20
55.791449652199141
 30
0.0
  0
VERTEX
  5
FC7
  8
0
 10
306.96266172609262
 20
55.786780741311219
 30
0.0
  0
VERTEX
  5
FC8
  8
0
 10
307.00995639222208
 20
55.782029133654959
 30
0.0
  0
VERTEX
  5
FC9
  8
0
 10
307.10410769142288
 20
55.772278837547617
 30
0.0
  0
VERTEX
  5
FCA
  8
0
 10
307.19765836247211
 20
55.762200826417107
 30
0.0
  0
VERTEX
  5
FCB
  8
0
 10
307.29058861602118
 20
55.751797232127103
 30
0.0
  0
VERTEX
  5
FCC
  8
0
 10
307.38287879396267
 20
55.74107025541386
 30
0.0
  0
VERTEX
  5
FCD
  8
0
 10
307.47450937358798
 20
55.730022165420621
 30
0.0
  0
VERTEX
  5
FCE
  8
0
 10
307.52007125122577
 20
55.724378430638517
 30
0.0
  0
VERTEX
  5
FCF
  8
0
 10
307.56546097171753
 20
55.718655299217829
 30
0.0
  0
VERTEX
  5
FD0
  8
0
 10
307.65571434880042
 20
55.706972061308512
 30
0.0
  0
VERTEX
  5
FD1
  8
0
 10
307.74525041298563
 20
55.694974923119759
 30
0.0
  0
VERTEX
  5
FD2
  8
0
 10
307.83405022415877
 20
55.682666422480018
 30
0.0
  0
VERTEX
  5
FD3
  8
0
 10
307.92209499795052
 20
55.670049163082041
 30
0.0
  0
VERTEX
  5
FD4
  8
0
 10
308.00936610970831
 20
55.657125813932247
 30
0.0
  0
VERTEX
  5
FD5
  8
0
 10
308.05270576676389
 20
55.65055020748548
 30
0.0
  0
VERTEX
  5
FD6
  8
0
 10
308.09584509843791
 20
55.643899108786108
 30
0.0
  0
VERTEX
  5
FD7
  8
0
 10
308.18151367070698
 20
55.630371845569869
 30
0.0
  0
VERTEX
  5
FD8
  8
0
 10
308.26635370451618
 20
55.616546885788608
 30
0.0
  0
VERTEX
  5
FD9
  8
0
 10
308.3503472531317
 20
55.60242715392107
 30
0.0
  0
VERTEX
  5
FDA
  8
0
 10
308.43347654888203
 20
55.588015636800911
 30
0.0
  0
VERTEX
  5
FDB
  8
0
 10
308.51572400691617
 20
55.57331538298493
 30
0.0
  0
VERTEX
  5
FDC
  8
0
 10
308.55651160243019
 20
55.565857949208947
 30
0.0
  0
VERTEX
  5
FDD
  8
0
 10
308.59707222892422
 20
55.558329502108108
 30
0.0
  0
VERTEX
  5
FDE
  8
0
 10
308.67750400681649
 20
55.543061164225982
 30
0.0
  0
VERTEX
  5
FDF
  8
0
 10
308.75700232636461
 20
55.527513599143873
 30
0.0
  0
VERTEX
  5
FE0
  8
0
 10
308.83555037080077
 20
55.511690095733769
 30
0.0
  0
VERTEX
  5
FE1
  8
0
 10
308.91313152437431
 20
55.495594001238629
 30
0.0
  0
VERTEX
  5
FE2
  8
0
 10
308.98972937586689
 20
55.479228720564237
 30
0.0
  0
VERTEX
  5
FE3
  8
0
 10
309.02765449160921
 20
55.470946215033017
 30
0.0
  0
VERTEX
  5
FE4
  8
0
 10
309.06532772206418
 20
55.462597715558928
 30
0.0
  0
VERTEX
  5
FE5
  8
0
 10
309.1399105711838
 20
55.44570450428148
 30
0.0
  0
VERTEX
  5
FE6
  8
0
 10
309.21346214625692
 20
55.428552660256649
 30
0.0
  0
VERTEX
  5
FE7
  8
0
 10
309.24984633528391
 20
55.419880882671237
 30
0.0
  0
VERTEX
  5
FE8
  8
0
 10
309.28596688846687
 20
55.411145811719479
 30
0.0
  0
VERTEX
  5
FE9
  8
0
 10
309.35740946044012
 20
55.393487640847553
 30
0.0
  0
VERTEX
  5
FEA
  8
0
 10
309.42777474949008
 20
55.375581882982289
 30
0.0
  0
VERTEX
  5
FEB
  8
0
 10
309.46254875243011
 20
55.366537340564072
 30
0.0
  0
VERTEX
  5
FEC
  8
0
 10
309.49704787081498
 20
55.35743232583868
 30
0.0
  0
VERTEX
  5
FED
  8
0
 10
309.5652141706455
 20
55.339042808704129
 30
0.0
  0
VERTEX
  5
FEE
  8
0
 10
309.63225922934549
 20
55.320417221626229
 30
0.0
  0
VERTEX
  5
FEF
  8
0
 10
309.69816886446159
 20
55.301559504589818
 30
0.0
  0
VERTEX
  5
FF0
  8
0
 10
309.76292913372362
 20
55.282473646683712
 30
0.0
  0
VERTEX
  5
FF1
  8
0
 10
309.8265263379937
 20
55.263163685256728
 30
0.0
  0
VERTEX
  5
FF2
  8
0
 10
309.85788457697203
 20
55.253425940380573
 30
0.0
  0
VERTEX
  5
FF3
  8
0
 10
309.88894702416451
 20
55.243633705063729
 30
0.0
  0
VERTEX
  5
FF4
  8
0
 10
309.9501779880045
 20
55.22388783740135
 30
0.0
  0
VERTEX
  5
FF5
  8
0
 10
310.01020627695181
 20
55.203930259234433
 30
0.0
  0
VERTEX
  5
FF6
  8
0
 10
310.06901919285337
 20
55.183765192312052
 30
0.0
  0
VERTEX
  5
FF7
  8
0
 10
310.1266042946516
 20
55.163396902274862
 30
0.0
  0
VERTEX
  5
FF8
  8
0
 10
310.18294940101629
 20
55.14282969775229
 30
0.0
  0
VERTEX
  5
FF9
  8
0
 10
310.21065322089959
 20
55.132472860536467
 30
0.0
  0
VERTEX
  5
FFA
  8
0
 10
310.23804259292058
 20
55.12206792945161
 30
0.0
  0
VERTEX
  5
FFB
  8
0
 10
310.29187221616297
 20
55.101115989237229
 30
0.0
  0
VERTEX
  5
FFC
  8
0
 10
310.34442688383263
 20
55.079978309201863
 30
0.0
  0
VERTEX
  5
FFD
  8
0
 10
310.39569547871753
 20
55.058659360728853
 30
0.0
  0
VERTEX
  5
FFE
  8
0
 10
310.44566715565668
 20
55.037163653546337
 30
0.0
  0
VERTEX
  5
FFF
  8
0
 10
310.4943313438344
 20
55.015495734773481
 30
0.0
  0
VERTEX
  5
1000
  8
0
 10
310.51816990182522
 20
55.004598627002821
 30
0.0
  0
VERTEX
  5
1001
  8
0
 10
310.54167774901561
 20
54.99366018795822
 30
0.0
  0
VERTEX
  5
1002
  8
0
 10
310.58769635572418
 20
54.971661632107981
 30
0.0
  0
VERTEX
  5
1003
  8
0
 10
310.63237742936178
 20
54.94950472071249
 30
0.0
  0
VERTEX
  5
1004
  8
0
 10
310.67571151826598
 20
54.927194140759411
 30
0.0
  0
VERTEX
  5
1005
  8
0
 10
310.71768945571091
 20
54.904734611742811
 30
0.0
  0
VERTEX
  5
1006
  8
0
 10
310.75830236184521
 20
54.88213088466491
 30
0.0
  0
VERTEX
  5
1007
  8
0
 10
310.77809423212329
 20
54.870776439909463
 30
0.0
  0
VERTEX
  5
1008
  8
0
 10
310.7975416455713
 20
54.859387741030979
 30
0.0
  0
VERTEX
  5
1009
  8
0
 10
310.83539900636248
 20
54.836509991838
 30
0.0
  0
VERTEX
  5
100A
  8
0
 10
310.87186643601842
 20
54.81350247655687
 30
0.0
  0
VERTEX
  5
100B
  8
0
 10
310.9069362203598
 20
54.79037006210865
 30
0.0
  0
VERTEX
  5
100C
  8
0
 10
310.94060094085921
 20
54.767117641835192
 30
0.0
  0
VERTEX
  5
100D
  8
0
 10
310.97285347621192
 20
54.743750134463802
 30
0.0
  0
VERTEX
  5
100E
  8
0
 10
310.9884480306938
 20
54.732024766904118
 30
0.0
  0
VERTEX
  5
100F
  8
0
 10
311.00368700384053
 20
54.720272483066957
 30
0.0
  0
VERTEX
  5
1010
  8
0
 10
311.03309500133957
 20
54.696689654016581
 30
0.0
  0
VERTEX
  5
1011
  8
0
 10
311.06107124785473
 20
54.673006635933383
 30
0.0
  0
VERTEX
  5
1012
  8
0
 10
311.0745206032567
 20
54.661129120772529
 30
0.0
  0
VERTEX
  5
1013
  8
0
 10
311.08760982539832
 20
54.649228438631717
 30
0.0
  0
VERTEX
  5
1014
  8
0
 10
311.11270512010231
 20
54.62536009205985
 30
0.0
  0
VERTEX
  5
1015
  8
0
 10
311.13635182340448
 20
54.601406645235777
 30
0.0
  0
VERTEX
  5
1016
  8
0
 10
311.14763037811429
 20
54.589399591998991
 30
0.0
  0
VERTEX
  5
1017
  8
0
 10
311.15854493317261
 20
54.577373165179353
 30
0.0
  0
VERTEX
  5
1018
  8
0
 10
311.17927975476152
 20
54.553264735840308
 30
0.0
  0
VERTEX
  5
1019
  8
0
 10
311.19855190200718
 20
54.529086457022863
 30
0.0
  0
VERTEX
  5
101A
  8
0
 10
311.21635729815392
 20
54.504843443306889
 30
0.0
  0
VERTEX
  5
101B
  8
0
 10
311.23269217671651
 20
54.480540822966162
 30
0.0
  0
VERTEX
  5
101C
  8
0
 10
311.24755308227788
 20
54.456183736883219
 30
0.0
  0
VERTEX
  5
101D
  8
0
 10
311.25442980060421
 20
54.443986378894493
 30
0.0
  0
VERTEX
  5
101E
  8
0
 10
311.26093687121949
 20
54.43177733746225
 30
0.0
  0
VERTEX
  5
101F
  8
0
 10
311.27284071238608
 20
54.407326787538892
 30
0.0
  0
VERTEX
  5
1020
  8
0
 10
311.28326208768499
 20
54.38283725928823
 30
0.0
  0
VERTEX
  5
1021
  8
0
 10
311.29219879261871
 20
54.358313933130688
 30
0.0
  0
VERTEX
  5
1022
  8
0
 10
311.29964893675088
 20
54.333761996636177
 30
0.0
  0
VERTEX
  5
1023
  8
0
 10
311.305610944107
 20
54.309186643426692
 30
0.0
  0
VERTEX
  5
1024
  8
0
 10
311.3080334900709
 20
54.296891809945258
 30
0.0
  0
VERTEX
  5
1025
  8
0
 10
311.31008355350701
 20
54.28459307207774
 30
0.0
  0
VERTEX
  5
1026
  8
0
 10
311.31306581883211
 20
54.259986485018629
 30
0.0
  0
VERTEX
  5
1027
  8
0
 10
311.31455710922558
 20
54.235372087431948
 30
0.0
  0
VERTEX
  5
1028
  8
0
 10
311.31474352791872
 20
54.223063586792193
 30
0.0
  0
SEQEND
  5
1029
  8
0
  0
LINE
  5
817
  8
0
 10
315.76474352791882
 20
35.10778029442131
 30
0.0
 11
292.76474352791882
 21
35.10778029442131
 31
0.0
  0
LINE
  5
819
  8
0
 10
292.76474352791882
 20
35.10778029442131
 30
0.0
 11
292.76474352791882
 21
83.107780294421332
 31
0.0
  0
ARC
  5
830
  8
0
 10
312.26474352791871
 20
83.107780294421332
 30
0.0
 40
3.499999999999992
 50
0.0
 51
75.749967302199522
  0
LINE
  5
831
  8
0
 10
315.76474352791882
 20
35.10778029442131
 30
0.0
 11
315.76474352791882
 21
83.107780294421332
 31
0.0
  0
ARC
  5
833
  8
0
 10
296.26474352791882
 20
83.107780294421332
 30
0.0
 40
3.5000000000000129
 50
104.2500326978068
 51
180.0
  0
ARC
  5
835
  8
0
 10
304.26474352791882
 20
51.607780294421502
 30
0.0
 40
35.999999999999801
 50
75.749967302193198
 51
104.2500326978068
  0
LINE
  5
8A6
  8
1
 10
127.7152844575788
 20
121.88011596581001
 30
0.0
 11
127.7152844575789
 21
154.88011596580989
 31
0.0
  0
LINE
  5
8A7
  8
1
 10
193.7152844575788
 20
129.33704890521639
 30
0.0
 11
193.7152844575788
 21
147.42318302640339
 31
0.0
  0
LINE
  5
8A9
  8
1
 10
61.715284457578832
 20
129.33704890521639
 30
0.0
 11
61.715284457578832
 21
147.42318302640339
 31
0.0
  0
LINE
  5
8AA
  8
1
 10
36.228183573030996
 20
138.38011596580989
 30
0.0
 11
219.2023853421268
 21
138.38011596580989
 31
0.0
  0
POLYLINE
  5
8AB
  8
0
 66
     1
 10
0.0
 20
0.0
 30
0.0
  0
VERTEX
  5
102A
  8
0
 10
186.66528445757891
 20
138.38011596580989
 30
0.0
  0
VERTEX
  5
102B
  8
0
 10
186.66826695949931
 20
138.58516323294879
 30
0.0
  0
VERTEX
  5
102C
  8
0
 10
186.69211183603201
 20
138.9945639521809
 30
0.0
  0
VERTEX
  5
102D
  8
0
 10
186.7397209055832
 20
139.40188557392599
 30
0.0
  0
VERTEX
  5
102E
  8
0
 10
186.7723897988428
 20
139.6043356183618
 30
0.0
  0
VERTEX
  5
102F
  8
0
 10
186.8109330741317
 20
139.8057498507508
 30
0.0
  0
VERTEX
  5
1030
  8
0
 10
186.9055073822409
 20
140.2047902337826
 30
0.0
  0
VERTEX
  5
1031
  8
0
 10
187.02312382038889
 20
140.59765649667881
 30
0.0
  0
VERTEX
  5
1032
  8
0
 10
187.1633844117797
 20
140.98301930436429
 30
0.0
  0
VERTEX
  5
1033
  8
0
 10
187.32581455897051
 20
141.35957471108179
 30
0.0
  0
VERTEX
  5
1034
  8
0
 10
187.50986464975901
 20
141.72604857253069
 30
0.0
  0
VERTEX
  5
1035
  8
0
 10
187.6098053608986
 20
141.9051159658099
 30
0.0
  0
VERTEX
  5
1036
  8
0
 10
187.71491191689799
 20
142.0812008571686
 30
0.0
  0
VERTEX
  5
1037
  8
0
 10
187.9402625453414
 20
142.42382984208481
 30
0.0
  0
VERTEX
  5
1038
  8
0
 10
188.18515401989569
 20
142.7527761792511
 30
0.0
  0
VERTEX
  5
1039
  8
0
 10
188.4487577053298
 20
143.0669268183882
 30
0.0
  0
VERTEX
  5
103A
  8
0
 10
188.73018165021369
 20
143.365218773175
 30
0.0
  0
VERTEX
  5
103B
  8
0
 10
189.02847360500061
 20
143.6466427180589
 30
0.0
  0
VERTEX
  5
103C
  8
0
 10
189.1836318092887
 20
143.7807292897987
 30
0.0
  0
VERTEX
  5
103D
  8
0
 10
189.3426242441376
 20
143.91024640349289
 30
0.0
  0
VERTEX
  5
103E
  8
0
 10
189.671570581304
 20
144.1551378780473
 30
0.0
  0
VERTEX
  5
103F
  8
0
 10
190.01419956622021
 20
144.38048850649079
 30
0.0
  0
VERTEX
  5
1040
  8
0
 10
190.1902844575788
 20
144.48559506249021
 30
0.0
  0
VERTEX
  5
1041
  8
0
 10
190.3693518508579
 20
144.58553577362969
 30
0.0
  0
VERTEX
  5
1042
  8
0
 10
190.73582571230691
 20
144.7695858644183
 30
0.0
  0
VERTEX
  5
1043
  8
0
 10
191.11238111902429
 20
144.93201601160899
 30
0.0
  0
VERTEX
  5
1044
  8
0
 10
191.30404244713279
 20
145.0049489423505
 30
0.0
  0
VERTEX
  5
1045
  8
0
 10
191.49774392670989
 20
145.07227660299981
 30
0.0
  0
VERTEX
  5
1046
  8
0
 10
191.89061018960601
 20
145.1898930411478
 30
0.0
  0
VERTEX
  5
1047
  8
0
 10
192.2896505726379
 20
145.284467349257
 30
0.0
  0
VERTEX
  5
1048
  8
0
 10
192.6935148494627
 20
145.35567951780561
 30
0.0
  0
VERTEX
  5
1049
  8
0
 10
193.1008364712078
 20
145.40328858735671
 30
0.0
  0
VERTEX
  5
104A
  8
0
 10
193.5102371904398
 20
145.42713346388939
 30
0.0
  0
VERTEX
  5
104B
  8
0
 10
193.7152844575788
 20
145.4301159658099
 30
0.0
  0
VERTEX
  5
104C
  8
0
 10
193.92033172471781
 20
145.42713346388939
 30
0.0
  0
VERTEX
  5
104D
  8
0
 10
194.32973244394981
 20
145.40328858735671
 30
0.0
  0
VERTEX
  5
104E
  8
0
 10
194.73705406569491
 20
145.35567951780561
 30
0.0
  0
VERTEX
  5
104F
  8
0
 10
195.14091834251971
 20
145.284467349257
 30
0.0
  0
VERTEX
  5
1050
  8
0
 10
195.5399587255516
 20
145.1898930411478
 30
0.0
  0
VERTEX
  5
1051
  8
0
 10
195.93282498844769
 20
145.07227660299981
 30
0.0
  0
VERTEX
  5
1052
  8
0
 10
196.12652646802479
 20
145.0049489423505
 30
0.0
  0
VERTEX
  5
1053
  8
0
 10
196.31818779613329
 20
144.93201601160899
 30
0.0
  0
VERTEX
  5
1054
  8
0
 10
196.6947432028507
 20
144.7695858644183
 30
0.0
  0
VERTEX
  5
1055
  8
0
 10
197.06121706429971
 20
144.58553577362969
 30
0.0
  0
VERTEX
  5
1056
  8
0
 10
197.41636934893739
 20
144.38048850649079
 30
0.0
  0
VERTEX
  5
1057
  8
0
 10
197.7589983338537
 20
144.1551378780473
 30
0.0
  0
VERTEX
  5
1058
  8
0
 10
198.08794467102001
 20
143.91024640349289
 30
0.0
  0
VERTEX
  5
1059
  8
0
 10
198.24693710586891
 20
143.7807292897987
 30
0.0
  0
VERTEX
  5
105A
  8
0
 10
198.40209531015699
 20
143.6466427180589
 30
0.0
  0
VERTEX
  5
105B
  8
0
 10
198.70038726494391
 20
143.36521877317509
 30
0.0
  0
VERTEX
  5
105C
  8
0
 10
198.98181120982781
 20
143.0669268183882
 30
0.0
  0
VERTEX
  5
105D
  8
0
 10
199.24541489526189
 20
142.7527761792511
 30
0.0
  0
VERTEX
  5
105E
  8
0
 10
199.49030636981621
 20
142.42382984208481
 30
0.0
  0
VERTEX
  5
105F
  8
0
 10
199.71565699825959
 20
142.0812008571686
 30
0.0
  0
VERTEX
  5
1060
  8
0
 10
199.82076355425909
 20
141.9051159658099
 30
0.0
  0
VERTEX
  5
1061
  8
0
 10
199.9207042653986
 20
141.72604857253069
 30
0.0
  0
VERTEX
  5
1062
  8
0
 10
200.10475435618719
 20
141.35957471108179
 30
0.0
  0
VERTEX
  5
1063
  8
0
 10
200.26718450337799
 20
140.98301930436429
 30
0.0
  0
VERTEX
  5
1064
  8
0
 10
200.40744509476869
 20
140.59765649667881
 30
0.0
  0
VERTEX
  5
1065
  8
0
 10
200.52506153291679
 20
140.2047902337826
 30
0.0
  0
VERTEX
  5
1066
  8
0
 10
200.61963584102591
 20
139.8057498507508
 30
0.0
  0
VERTEX
  5
1067
  8
0
 10
200.65817911631481
 20
139.6043356183618
 30
0.0
  0
VERTEX
  5
1068
  8
0
 10
200.69084800957449
 20
139.40188557392599
 30
0.0
  0
VERTEX
  5
1069
  8
0
 10
200.7384570791256
 20
138.9945639521809
 30
0.0
  0
VERTEX
  5
106A
  8
0
 10
200.76230195565839
 20
138.58516323294879
 30
0.0
  0
VERTEX
  5
106B
  8
0
 10
200.76528445757879
 20
138.38011596580989
 30
0.0
  0
VERTEX
  5
106C
  8
0
 10
200.76230195565839
 20
138.175068698671
 30
0.0
  0
VERTEX
  5
106D
  8
0
 10
200.7384570791256
 20
137.76566797943889
 30
0.0
  0
VERTEX
  5
106E
  8
0
 10
200.69084800957449
 20
137.35834635769379
 30
0.0
  0
VERTEX
  5
106F
  8
0
 10
200.65817911631481
 20
137.15589631325801
 30
0.0
  0
VERTEX
  5
1070
  8
0
 10
200.61963584102591
 20
136.95448208086901
 30
0.0
  0
VERTEX
  5
1071
  8
0
 10
200.52506153291679
 20
136.5554416978371
 30
0.0
  0
VERTEX
  5
1072
  8
0
 10
200.40744509476869
 20
136.162575434941
 30
0.0
  0
VERTEX
  5
1073
  8
0
 10
200.26718450337799
 20
135.77721262725549
 30
0.0
  0
VERTEX
  5
1074
  8
0
 10
200.10475435618719
 20
135.40065722053799
 30
0.0
  0
VERTEX
  5
1075
  8
0
 10
199.9207042653986
 20
135.03418335908901
 30
0.0
  0
VERTEX
  5
1076
  8
0
 10
199.82076355425909
 20
134.85511596580989
 30
0.0
  0
VERTEX
  5
1077
  8
0
 10
199.71565699825959
 20
134.67903107445119
 30
0.0
  0
VERTEX
  5
1078
  8
0
 10
199.49030636981621
 20
134.336402089535
 30
0.0
  0
VERTEX
  5
1079
  8
0
 10
199.24541489526189
 20
134.00745575236871
 30
0.0
  0
VERTEX
  5
107A
  8
0
 10
198.98181120982781
 20
133.69330511323159
 30
0.0
  0
VERTEX
  5
107B
  8
0
 10
198.70038726494391
 20
133.3950131584447
 30
0.0
  0
VERTEX
  5
107C
  8
0
 10
198.40209531015699
 20
133.11358921356091
 30
0.0
  0
VERTEX
  5
107D
  8
0
 10
198.24693710586891
 20
132.97950264182111
 30
0.0
  0
VERTEX
  5
107E
  8
0
 10
198.08794467102001
 20
132.84998552812689
 30
0.0
  0
VERTEX
  5
107F
  8
0
 10
197.7589983338537
 20
132.60509405357249
 30
0.0
  0
VERTEX
  5
1080
  8
0
 10
197.41636934893739
 20
132.37974342512899
 30
0.0
  0
VERTEX
  5
1081
  8
0
 10
197.06121706429971
 20
132.1746961579901
 30
0.0
  0
VERTEX
  5
1082
  8
0
 10
196.6947432028507
 20
131.99064606720151
 30
0.0
  0
VERTEX
  5
1083
  8
0
 10
196.31818779613329
 20
131.82821592001079
 30
0.0
  0
VERTEX
  5
1084
  8
0
 10
196.12652646802479
 20
131.75528298926929
 30
0.0
  0
VERTEX
  5
1085
  8
0
 10
195.93282498844769
 20
131.68795532862001
 30
0.0
  0
VERTEX
  5
1086
  8
0
 10
195.5399587255516
 20
131.57033889047199
 30
0.0
  0
VERTEX
  5
1087
  8
0
 10
195.14091834251971
 20
131.47576458236281
 30
0.0
  0
VERTEX
  5
1088
  8
0
 10
194.73705406569491
 20
131.4045524138142
 30
0.0
  0
VERTEX
  5
1089
  8
0
 10
194.32973244394981
 20
131.3569433442631
 30
0.0
  0
VERTEX
  5
108A
  8
0
 10
193.92033172471781
 20
131.33309846773039
 30
0.0
  0
VERTEX
  5
108B
  8
0
 10
193.7152844575788
 20
131.33011596580991
 30
0.0
  0
VERTEX
  5
108C
  8
0
 10
193.5102371904398
 20
131.33309846773039
 30
0.0
  0
VERTEX
  5
108D
  8
0
 10
193.1008364712078
 20
131.3569433442631
 30
0.0
  0
VERTEX
  5
108E
  8
0
 10
192.6935148494627
 20
131.4045524138142
 30
0.0
  0
VERTEX
  5
108F
  8
0
 10
192.2896505726379
 20
131.47576458236281
 30
0.0
  0
VERTEX
  5
1090
  8
0
 10
191.89061018960601
 20
131.57033889047199
 30
0.0
  0
VERTEX
  5
1091
  8
0
 10
191.49774392670989
 20
131.68795532862001
 30
0.0
  0
VERTEX
  5
1092
  8
0
 10
191.30404244713279
 20
131.75528298926929
 30
0.0
  0
VERTEX
  5
1093
  8
0
 10
191.11238111902441
 20
131.82821592001079
 30
0.0
  0
VERTEX
  5
1094
  8
0
 10
190.73582571230691
 20
131.99064606720151
 30
0.0
  0
VERTEX
  5
1095
  8
0
 10
190.3693518508579
 20
132.1746961579901
 30
0.0
  0
VERTEX
  5
1096
  8
0
 10
190.1902844575788
 20
132.27463686912961
 30
0.0
  0
VERTEX
  5
1097
  8
0
 10
190.01419956622021
 20
132.37974342512899
 30
0.0
  0
VERTEX
  5
1098
  8
0
 10
189.671570581304
 20
132.60509405357249
 30
0.0
  0
VERTEX
  5
1099
  8
0
 10
189.3426242441376
 20
132.84998552812689
 30
0.0
  0
VERTEX
  5
109A
  8
0
 10
189.1836318092887
 20
132.97950264182111
 30
0.0
  0
VERTEX
  5
109B
  8
0
 10
189.02847360500061
 20
133.11358921356091
 30
0.0
  0
VERTEX
  5
109C
  8
0
 10
188.73018165021369
 20
133.3950131584447
 30
0.0
  0
VERTEX
  5
109D
  8
0
 10
188.4487577053298
 20
133.69330511323159
 30
0.0
  0
VERTEX
  5
109E
  8
0
 10
188.18515401989569
 20
134.00745575236871
 30
0.0
  0
VERTEX
  5
109F
  8
0
 10
187.9402625453414
 20
134.336402089535
 30
0.0
  0
VERTEX
  5
10A0
  8
0
 10
187.71491191689799
 20
134.67903107445119
 30
0.0
  0
VERTEX
  5
10A1
  8
0
 10
187.6098053608986
 20
134.85511596580989
 30
0.0
  0
VERTEX
  5
10A2
  8
0
 10
187.50986464975901
 20
135.03418335908901
 30
0.0
  0
VERTEX
  5
10A3
  8
0
 10
187.32581455897051
 20
135.40065722053799
 30
0.0
  0
VERTEX
  5
10A4
  8
0
 10
187.1633844117797
 20
135.77721262725549
 30
0.0
  0
VERTEX
  5
10A5
  8
0
 10
187.02312382038889
 20
136.162575434941
 30
0.0
  0
VERTEX
  5
10A6
  8
0
 10
186.9055073822409
 20
136.5554416978371
 30
0.0
  0
VERTEX
  5
10A7
  8
0
 10
186.8109330741317
 20
136.95448208086901
 30
0.0
  0
VERTEX
  5
10A8
  8
0
 10
186.7723897988428
 20
137.15589631325801
 30
0.0
  0
VERTEX
  5
10A9
  8
0
 10
186.7397209055832
 20
137.35834635769379
 30
0.0
  0
VERTEX
  5
10AA
  8
0
 10
186.69211183603201
 20
137.76566797943889
 30
0.0
  0
VERTEX
  5
10AB
  8
0
 10
186.66826695949931
 20
138.175068698671
 30
0.0
  0
VERTEX
  5
10AC
  8
0
 10
186.66528445757891
 20
138.38011596580989
 30
0.0
  0
SEQEND
  5
10AD
  8
0
  0
POLYLINE
  5
8AC
  8
0
 66
     1
 10
0.0
 20
0.0
 30
0.0
  0
VERTEX
  5
10AE
  8
0
 10
54.665284457578821
 20
138.38011596580989
 30
0.0
  0
VERTEX
  5
10AF
  8
0
 10
54.668266959499299
 20
138.58516323294879
 30
0.0
  0
VERTEX
  5
10B0
  8
0
 10
54.692111836032041
 20
138.9945639521809
 30
0.0
  0
VERTEX
  5
10B1
  8
0
 10
54.739720905583169
 20
139.40188557392599
 30
0.0
  0
VERTEX
  5
10B2
  8
0
 10
54.772389798842759
 20
139.6043356183618
 30
0.0
  0
VERTEX
  5
10B3
  8
0
 10
54.810933074131697
 20
139.8057498507508
 30
0.0
  0
VERTEX
  5
10B4
  8
0
 10
54.905507382240899
 20
140.2047902337826
 30
0.0
  0
VERTEX
  5
10B5
  8
0
 10
55.023123820388939
 20
140.59765649667881
 30
0.0
  0
VERTEX
  5
10B6
  8
0
 10
55.163384411779703
 20
140.98301930436429
 30
0.0
  0
VERTEX
  5
10B7
  8
0
 10
55.325814558970478
 20
141.35957471108179
 30
0.0
  0
VERTEX
  5
10B8
  8
0
 10
55.509864649759031
 20
141.72604857253069
 30
0.0
  0
VERTEX
  5
10B9
  8
0
 10
55.609805360898569
 20
141.9051159658099
 30
0.0
  0
VERTEX
  5
10BA
  8
0
 10
55.714911916898011
 20
142.0812008571686
 30
0.0
  0
VERTEX
  5
10BB
  8
0
 10
55.940262545341461
 20
142.42382984208481
 30
0.0
  0
VERTEX
  5
10BC
  8
0
 10
56.185154019895833
 20
142.7527761792511
 30
0.0
  0
VERTEX
  5
10BD
  8
0
 10
56.448757705329797
 20
143.0669268183882
 30
0.0
  0
VERTEX
  5
10BE
  8
0
 10
56.730181650213687
 20
143.365218773175
 30
0.0
  0
VERTEX
  5
10BF
  8
0
 10
57.028473605000549
 20
143.6466427180589
 30
0.0
  0
VERTEX
  5
10C0
  8
0
 10
57.18363180928872
 20
143.7807292897987
 30
0.0
  0
VERTEX
  5
10C1
  8
0
 10
57.342624244137603
 20
143.91024640349289
 30
0.0
  0
VERTEX
  5
10C2
  8
0
 10
57.671570581303968
 20
144.1551378780473
 30
0.0
  0
VERTEX
  5
10C3
  8
0
 10
58.014199566220213
 20
144.38048850649079
 30
0.0
  0
VERTEX
  5
10C4
  8
0
 10
58.190284457578862
 20
144.48559506249021
 30
0.0
  0
VERTEX
  5
10C5
  8
0
 10
58.369351850857981
 20
144.58553577362969
 30
0.0
  0
VERTEX
  5
10C6
  8
0
 10
58.735825712306912
 20
144.7695858644183
 30
0.0
  0
VERTEX
  5
10C7
  8
0
 10
59.112381119024413
 20
144.93201601160899
 30
0.0
  0
VERTEX
  5
10C8
  8
0
 10
59.304042447132872
 20
145.0049489423505
 30
0.0
  0
VERTEX
  5
10C9
  8
0
 10
59.497743926709973
 20
145.07227660299981
 30
0.0
  0
VERTEX
  5
10CA
  8
0
 10
59.890610189606043
 20
145.1898930411478
 30
0.0
  0
VERTEX
  5
10CB
  8
0
 10
60.289650572637981
 20
145.284467349257
 30
0.0
  0
VERTEX
  5
10CC
  8
0
 10
60.693514849462758
 20
145.35567951780561
 30
0.0
  0
VERTEX
  5
10CD
  8
0
 10
61.100836471207849
 20
145.40328858735671
 30
0.0
  0
VERTEX
  5
10CE
  8
0
 10
61.510237190439902
 20
145.42713346388939
 30
0.0
  0
VERTEX
  5
10CF
  8
0
 10
61.715284457578832
 20
145.4301159658099
 30
0.0
  0
VERTEX
  5
10D0
  8
0
 10
61.920331724717748
 20
145.42713346388939
 30
0.0
  0
VERTEX
  5
10D1
  8
0
 10
62.329732443949808
 20
145.40328858735671
 30
0.0
  0
VERTEX
  5
10D2
  8
0
 10
62.737054065694899
 20
145.35567951780561
 30
0.0
  0
VERTEX
  5
10D3
  8
0
 10
63.140918342519683
 20
145.284467349257
 30
0.0
  0
VERTEX
  5
10D4
  8
0
 10
63.539958725551628
 20
145.1898930411478
 30
0.0
  0
VERTEX
  5
10D5
  8
0
 10
63.932824988447692
 20
145.07227660299981
 30
0.0
  0
VERTEX
  5
10D6
  8
0
 10
64.126526468024792
 20
145.0049489423505
 30
0.0
  0
VERTEX
  5
10D7
  8
0
 10
64.318187796133259
 20
144.93201601160899
 30
0.0
  0
VERTEX
  5
10D8
  8
0
 10
64.694743202850759
 20
144.7695858644183
 30
0.0
  0
VERTEX
  5
10D9
  8
0
 10
65.061217064299683
 20
144.58553577362969
 30
0.0
  0
VERTEX
  5
10DA
  8
0
 10
65.416369348937451
 20
144.38048850649079
 30
0.0
  0
VERTEX
  5
10DB
  8
0
 10
65.758998333853697
 20
144.1551378780473
 30
0.0
  0
VERTEX
  5
10DC
  8
0
 10
66.087944671020068
 20
143.91024640349289
 30
0.0
  0
VERTEX
  5
10DD
  8
0
 10
66.246937105868923
 20
143.7807292897987
 30
0.0
  0
VERTEX
  5
10DE
  8
0
 10
66.402095310157094
 20
143.6466427180589
 30
0.0
  0
VERTEX
  5
10DF
  8
0
 10
66.700387264943956
 20
143.36521877317509
 30
0.0
  0
VERTEX
  5
10E0
  8
0
 10
66.981811209827868
 20
143.0669268183882
 30
0.0
  0
VERTEX
  5
10E1
  8
0
 10
67.245414895261831
 20
142.7527761792511
 30
0.0
  0
VERTEX
  5
10E2
  8
0
 10
67.49030636981621
 20
142.42382984208481
 30
0.0
  0
VERTEX
  5
10E3
  8
0
 10
67.715656998259647
 20
142.0812008571686
 30
0.0
  0
VERTEX
  5
10E4
  8
0
 10
67.820763554259088
 20
141.9051159658099
 30
0.0
  0
VERTEX
  5
10E5
  8
0
 10
67.920704265398626
 20
141.72604857253069
 30
0.0
  0
VERTEX
  5
10E6
  8
0
 10
68.104754356187186
 20
141.35957471108179
 30
0.0
  0
VERTEX
  5
10E7
  8
0
 10
68.267184503377962
 20
140.98301930436429
 30
0.0
  0
VERTEX
  5
10E8
  8
0
 10
68.407445094768718
 20
140.59765649667881
 30
0.0
  0
VERTEX
  5
10E9
  8
0
 10
68.525061532916766
 20
140.2047902337826
 30
0.0
  0
VERTEX
  5
10EA
  8
0
 10
68.619635841025953
 20
139.8057498507508
 30
0.0
  0
VERTEX
  5
10EB
  8
0
 10
68.658179116314898
 20
139.6043356183618
 30
0.0
  0
VERTEX
  5
10EC
  8
0
 10
68.690848009574495
 20
139.40188557392599
 30
0.0
  0
VERTEX
  5
10ED
  8
0
 10
68.738457079125624
 20
138.9945639521809
 30
0.0
  0
VERTEX
  5
10EE
  8
0
 10
68.762301955658359
 20
138.58516323294879
 30
0.0
  0
VERTEX
  5
10EF
  8
0
 10
68.765284457578844
 20
138.38011596580989
 30
0.0
  0
VERTEX
  5
10F0
  8
0
 10
68.762301955658359
 20
138.175068698671
 30
0.0
  0
VERTEX
  5
10F1
  8
0
 10
68.738457079125624
 20
137.76566797943889
 30
0.0
  0
VERTEX
  5
10F2
  8
0
 10
68.690848009574495
 20
137.35834635769379
 30
0.0
  0
VERTEX
  5
10F3
  8
0
 10
68.658179116314898
 20
137.15589631325801
 30
0.0
  0
VERTEX
  5
10F4
  8
0
 10
68.619635841025953
 20
136.95448208086901
 30
0.0
  0
VERTEX
  5
10F5
  8
0
 10
68.525061532916766
 20
136.5554416978371
 30
0.0
  0
VERTEX
  5
10F6
  8
0
 10
68.407445094768718
 20
136.162575434941
 30
0.0
  0
VERTEX
  5
10F7
  8
0
 10
68.267184503377962
 20
135.77721262725549
 30
0.0
  0
VERTEX
  5
10F8
  8
0
 10
68.104754356187186
 20
135.40065722053799
 30
0.0
  0
VERTEX
  5
10F9
  8
0
 10
67.920704265398626
 20
135.03418335908901
 30
0.0
  0
VERTEX
  5
10FA
  8
0
 10
67.820763554259088
 20
134.85511596580989
 30
0.0
  0
VERTEX
  5
10FB
  8
0
 10
67.715656998259647
 20
134.67903107445119
 30
0.0
  0
VERTEX
  5
10FC
  8
0
 10
67.49030636981621
 20
134.336402089535
 30
0.0
  0
VERTEX
  5
10FD
  8
0
 10
67.245414895261831
 20
134.00745575236871
 30
0.0
  0
VERTEX
  5
10FE
  8
0
 10
66.981811209827868
 20
133.69330511323159
 30
0.0
  0
VERTEX
  5
10FF
  8
0
 10
66.700387264943956
 20
133.3950131584447
 30
0.0
  0
VERTEX
  5
1100
  8
0
 10
66.402095310157094
 20
133.11358921356091
 30
0.0
  0
VERTEX
  5
1101
  8
0
 10
66.246937105868923
 20
132.97950264182111
 30
0.0
  0
VERTEX
  5
1102
  8
0
 10
66.087944671020068
 20
132.84998552812689
 30
0.0
  0
VERTEX
  5
1103
  8
0
 10
65.758998333853697
 20
132.60509405357249
 30
0.0
  0
VERTEX
  5
1104
  8
0
 10
65.416369348937451
 20
132.37974342512899
 30
0.0
  0
VERTEX
  5
1105
  8
0
 10
65.061217064299683
 20
132.1746961579901
 30
0.0
  0
VERTEX
  5
1106
  8
0
 10
64.694743202850759
 20
131.99064606720151
 30
0.0
  0
VERTEX
  5
1107
  8
0
 10
64.318187796133259
 20
131.82821592001079
 30
0.0
  0
VERTEX
  5
1108
  8
0
 10
64.126526468024792
 20
131.75528298926929
 30
0.0
  0
VERTEX
  5
1109
  8
0
 10
63.932824988447692
 20
131.68795532862001
 30
0.0
  0
VERTEX
  5
110A
  8
0
 10
63.539958725551628
 20
131.57033889047199
 30
0.0
  0
VERTEX
  5
110B
  8
0
 10
63.140918342519683
 20
131.47576458236281
 30
0.0
  0
VERTEX
  5
110C
  8
0
 10
62.737054065694899
 20
131.4045524138142
 30
0.0
  0
VERTEX
  5
110D
  8
0
 10
62.329732443949808
 20
131.3569433442631
 30
0.0
  0
VERTEX
  5
110E
  8
0
 10
61.920331724717748
 20
131.33309846773039
 30
0.0
  0
VERTEX
  5
110F
  8
0
 10
61.715284457578832
 20
131.33011596580991
 30
0.0
  0
VERTEX
  5
1110
  8
0
 10
61.510237190439902
 20
131.33309846773039
 30
0.0
  0
VERTEX
  5
1111
  8
0
 10
61.100836471207849
 20
131.3569433442631
 30
0.0
  0
VERTEX
  5
1112
  8
0
 10
60.693514849462758
 20
131.4045524138142
 30
0.0
  0
VERTEX
  5
1113
  8
0
 10
60.289650572637981
 20
131.47576458236281
 30
0.0
  0
VERTEX
  5
1114
  8
0
 10
59.890610189606043
 20
131.57033889047199
 30
0.0
  0
VERTEX
  5
1115
  8
0
 10
59.497743926709973
 20
131.68795532862001
 30
0.0
  0
VERTEX
  5
1116
  8
0
 10
59.304042447132872
 20
131.75528298926929
 30
0.0
  0
VERTEX
  5
1117
  8
0
 10
59.112381119024413
 20
131.82821592001079
 30
0.0
  0
VERTEX
  5
1118
  8
0
 10
58.735825712306912
 20
131.99064606720151
 30
0.0
  0
VERTEX
  5
1119
  8
0
 10
58.369351850857981
 20
132.1746961579901
 30
0.0
  0
VERTEX
  5
111A
  8
0
 10
58.190284457578862
 20
132.27463686912961
 30
0.0
  0
VERTEX
  5
111B
  8
0
 10
58.014199566220213
 20
132.37974342512899
 30
0.0
  0
VERTEX
  5
111C
  8
0
 10
57.671570581303968
 20
132.60509405357249
 30
0.0
  0
VERTEX
  5
111D
  8
0
 10
57.342624244137603
 20
132.84998552812689
 30
0.0
  0
VERTEX
  5
111E
  8
0
 10
57.18363180928872
 20
132.97950264182111
 30
0.0
  0
VERTEX
  5
111F
  8
0
 10
57.028473605000549
 20
133.11358921356091
 30
0.0
  0
VERTEX
  5
1120
  8
0
 10
56.730181650213687
 20
133.3950131584447
 30
0.0
  0
VERTEX
  5
1121
  8
0
 10
56.448757705329797
 20
133.69330511323159
 30
0.0
  0
VERTEX
  5
1122
  8
0
 10
56.185154019895833
 20
134.00745575236871
 30
0.0
  0
VERTEX
  5
1123
  8
0
 10
55.940262545341461
 20
134.336402089535
 30
0.0
  0
VERTEX
  5
1124
  8
0
 10
55.714911916898011
 20
134.67903107445119
 30
0.0
  0
VERTEX
  5
1125
  8
0
 10
55.609805360898569
 20
134.85511596580989
 30
0.0
  0
VERTEX
  5
1126
  8
0
 10
55.509864649759031
 20
135.03418335908901
 30
0.0
  0
VERTEX
  5
1127
  8
0
 10
55.325814558970478
 20
135.40065722053799
 30
0.0
  0
VERTEX
  5
1128
  8
0
 10
55.163384411779703
 20
135.77721262725549
 30
0.0
  0
VERTEX
  5
1129
  8
0
 10
55.023123820388939
 20
136.162575434941
 30
0.0
  0
VERTEX
  5
112A
  8
0
 10
54.905507382240899
 20
136.5554416978371
 30
0.0
  0
VERTEX
  5
112B
  8
0
 10
54.810933074131697
 20
136.95448208086901
 30
0.0
  0
VERTEX
  5
112C
  8
0
 10
54.772389798842759
 20
137.15589631325801
 30
0.0
  0
VERTEX
  5
112D
  8
0
 10
54.739720905583169
 20
137.35834635769379
 30
0.0
  0
VERTEX
  5
112E
  8
0
 10
54.692111836032041
 20
137.76566797943889
 30
0.0
  0
VERTEX
  5
112F
  8
0
 10
54.668266959499299
 20
138.175068698671
 30
0.0
  0
VERTEX
  5
1130
  8
0
 10
54.665284457578821
 20
138.38011596580989
 30
0.0
  0
SEQEND
  5
1131
  8
0
  0
POLYLINE
  5
8B2
  8
0
 66
     1
 10
0.0
 20
0.0
 30
0.0
  0
VERTEX
  5
1132
  8
0
 10
77.370737874414374
 20
149.88011596580989
 30
0.0
  0
VERTEX
  5
1133
  8
0
 10
77.212861922485956
 20
149.87858531015399
 30
0.0
  0
VERTEX
  5
1134
  8
0
 10
76.8871796113811
 20
149.86565881133791
 30
0.0
  0
VERTEX
  5
1135
  8
0
 10
76.552798917492623
 20
149.8383810434859
 30
0.0
  0
VERTEX
  5
1136
  8
0
 10
76.384048588497592
 20
149.8190618144327
 30
0.0
  0
VERTEX
  5
1137
  8
0
 10
76.215153688503449
 20
149.79588036135729
 30
0.0
  0
VERTEX
  5
1138
  8
0
 10
75.87954330114718
 20
149.7379636597756
 30
0.0
  0
VERTEX
  5
1139
  8
0
 10
75.551154697057882
 20
149.66516528488631
 30
0.0
  0
VERTEX
  5
113A
  8
0
 10
75.23512122413581
 20
149.57882773092601
 30
0.0
  0
VERTEX
  5
113B
  8
0
 10
74.933838492108748
 20
149.4802449651269
 30
0.0
  0
VERTEX
  5
113C
  8
0
 10
74.627658178921422
 20
149.36196061250001
 30
0.0
  0
VERTEX
  5
113D
  8
0
 10
74.473068021917641
 20
149.29456359138209
 30
0.0
  0
VERTEX
  5
113E
  8
0
 10
74.319042748254731
 20
149.22178568739031
 30
0.0
  0
VERTEX
  5
113F
  8
0
 10
74.01711219026771
 20
149.06094480566151
 30
0.0
  0
VERTEX
  5
1140
  8
0
 10
73.847417821071588
 20
148.95855399227139
 30
0.0
  0
VERTEX
  5
1141
  8
0
 10
73.800094556311421
 20
148.92827153859059
 30
0.0
  0
VERTEX
  5
1142
  8
0
 10
73.753351912939479
 20
148.8975704881876
 30
0.0
  0
VERTEX
  5
1143
  8
0
 10
73.730208988559525
 20
148.88207019321271
 30
0.0
  0
VERTEX
  5
1144
  8
0
 10
73.707223904253169
 20
148.86647407382469
 30
0.0
  0
VERTEX
  5
1145
  8
0
 10
73.661743614805843
 20
148.83500696194051
 30
0.0
  0
VERTEX
  5
1146
  8
0
 10
73.616943101516597
 20
148.80319522874359
 30
0.0
  0
VERTEX
  5
1147
  8
0
 10
73.572853292478499
 20
148.77106632689481
 30
0.0
  0
VERTEX
  5
1148
  8
0
 10
73.529503882859274
 20
148.73864904117411
 30
0.0
  0
VERTEX
  5
1149
  8
0
 10
73.486923227261286
 20
148.70597343128941
 30
0.0
  0
VERTEX
  5
114A
  8
0
 10
73.465929649044085
 20
148.6895484796417
 30
0.0
  0
VERTEX
  5
114B
  8
0
 10
73.445138227867801
 20
148.67307075970371
 30
0.0
  0
VERTEX
  5
114C
  8
0
 10
73.404140743699031
 20
148.63994600565729
 30
0.0
  0
VERTEX
  5
114D
  8
0
 10
73.363263582349759
 20
148.60605013849491
 30
0.0
  0
VERTEX
  5
114E
  8
0
 10
73.322298267743008
 20
148.57117032434911
 30
0.0
  0
VERTEX
  5
114F
  8
0
 10
73.281323923879881
 20
148.53532587447941
 30
0.0
  0
VERTEX
  5
1150
  8
0
 10
73.240418693473543
 20
148.49853825932959
 30
0.0
  0
VERTEX
  5
1151
  8
0
 10
73.220016093871834
 20
148.47979807427319
 30
0.0
  0
VERTEX
  5
1152
  8
0
 10
73.199659521464454
 20
148.46083114634521
 30
0.0
  0
VERTEX
  5
1153
  8
0
 10
73.159121935448411
 20
148.42223042349281
 30
0.0
  0
VERTEX
  5
1154
  8
0
 10
73.118879820985683
 20
148.38276420451979
 30
0.0
  0
VERTEX
  5
1155
  8
0
 10
73.079005190184944
 20
148.3424628115682
 30
0.0
  0
VERTEX
  5
1156
  8
0
 10
73.039567942363021
 20
148.3013587302286
 30
0.0
  0
VERTEX
  5
1157
  8
0
 10
73.000635615996316
 20
148.25948653150019
 30
0.0
  0
VERTEX
  5
1158
  8
0
 10
72.981379195506634
 20
148.2382737338159
 30
0.0
  0
VERTEX
  5
1159
  8
0
 10
72.962273131631946
 20
148.21688275442801
 30
0.0
  0
VERTEX
  5
115A
  8
0
 10
72.924542525929155
 20
148.173585742417
 30
0.0
  0
VERTEX
  5
115B
  8
0
 10
72.887502676334293
 20
148.1296354239042
 30
0.0
  0
VERTEX
  5
115C
  8
0
 10
72.869259238297786
 20
148.1074281019313
 30
0.0
  0
VERTEX
  5
115D
  8
0
 10
72.85120904299356
 20
148.08507305980959
 30
0.0
  0
VERTEX
  5
115E
  8
0
 10
72.815714452918996
 20
148.03994227949261
 30
0.0
  0
VERTEX
  5
115F
  8
0
 10
72.781069833169852
 20
147.99429027389931
 30
0.0
  0
VERTEX
  5
1160
  8
0
 10
72.764081575777482
 20
147.9712845258353
 30
0.0
  0
VERTEX
  5
1161
  8
0
 10
72.74732387227624
 20
147.9481677558324
 30
0.0
  0
VERTEX
  5
1162
  8
0
 10
72.714522623819093
 20
147.90162880767511
 30
0.0
  0
VERTEX
  5
1163
  8
0
 10
72.682709133308833
 20
147.85473070805199
 30
0.0
  0
VERTEX
  5
1164
  8
0
 10
72.651923087360956
 20
147.80753373182651
 30
0.0
  0
VERTEX
  5
1165
  8
0
 10
72.622200484761663
 20
147.7601009171949
 30
0.0
  0
VERTEX
  5
1166
  8
0
 10
72.593573329602407
 20
147.71249779285961
 30
0.0
  0
VERTEX
  5
1167
  8
0
 10
72.579679383402777
 20
147.68865344547299
 30
0.0
  0
VERTEX
  5
1168
  8
0
 10
72.5660693472351
 20
147.66479205733319
 30
0.0
  0
VERTEX
  5
1169
  8
0
 10
72.539711724367976
 20
147.61705320131509
 30
0.0
  0
VERTEX
  5
116A
  8
0
 10
72.514518875168449
 20
147.5693520627606
 30
0.0
  0
VERTEX
  5
116B
  8
0
 10
72.490484368592547
 20
147.5217200005479
 30
0.0
  0
VERTEX
  5
116C
  8
0
 10
72.467157601304663
 20
147.47324621439299
 30
0.0
  0
VERTEX
  5
116D
  8
0
 10
72.444426623416348
 20
147.42358683523241
 30
0.0
  0
VERTEX
  5
116E
  8
0
 10
72.43331630269347
 20
147.3983380621587
 30
0.0
  0
VERTEX
  5
116F
  8
0
 10
72.422392319104347
 20
147.3728239198411
 30
0.0
  0
VERTEX
  5
1170
  8
0
 10
72.401149730262716
 20
147.32104269470929
 30
0.0
  0
VERTEX
  5
1171
  8
0
 10
72.380787449890988
 20
147.26833107489571
 30
0.0
  0
VERTEX
  5
1172
  8
0
 10
72.370962208915444
 20
147.24165442734841
 30
0.0
  0
SEQEND
  5
1173
  8
0
  0
POLYLINE
  5
8B4
  8
0
 66
     1
 10
0.0
 20
0.0
 30
0.0
  0
VERTEX
  5
1174
  8
0
 10
183.05960670624219
 20
147.24165442734841
 30
0.0
  0
VERTEX
  5
1175
  8
0
 10
183.0497814652667
 20
147.26833107489571
 30
0.0
  0
VERTEX
  5
1176
  8
0
 10
183.02941918489489
 20
147.32104269470929
 30
0.0
  0
VERTEX
  5
1177
  8
0
 10
183.00817659605329
 20
147.3728239198411
 30
0.0
  0
VERTEX
  5
1178
  8
0
 10
182.99725261246419
 20
147.3983380621587
 30
0.0
  0
VERTEX
  5
1179
  8
0
 10
182.98614229174129
 20
147.42358683523241
 30
0.0
  0
VERTEX
  5
117A
  8
0
 10
182.9634113138529
 20
147.47324621439299
 30
0.0
  0
VERTEX
  5
117B
  8
0
 10
182.94008454656509
 20
147.5217200005479
 30
0.0
  0
VERTEX
  5
117C
  8
0
 10
182.91605003998919
 20
147.5693520627606
 30
0.0
  0
VERTEX
  5
117D
  8
0
 10
182.89085719078969
 20
147.61705320131509
 30
0.0
  0
VERTEX
  5
117E
  8
0
 10
182.86449956792259
 20
147.66479205733319
 30
0.0
  0
VERTEX
  5
117F
  8
0
 10
182.85088953175489
 20
147.68865344547291
 30
0.0
  0
VERTEX
  5
1180
  8
0
 10
182.83699558555529
 20
147.71249779285961
 30
0.0
  0
VERTEX
  5
1181
  8
0
 10
182.80836843039589
 20
147.7601009171949
 30
0.0
  0
VERTEX
  5
1182
  8
0
 10
182.77864582779671
 20
147.80753373182651
 30
0.0
  0
VERTEX
  5
1183
  8
0
 10
182.74785978184889
 20
147.85473070805199
 30
0.0
  0
VERTEX
  5
1184
  8
0
 10
182.7160462913385
 20
147.90162880767511
 30
0.0
  0
VERTEX
  5
1185
  8
0
 10
182.68324504288151
 20
147.9481677558324
 30
0.0
  0
VERTEX
  5
1186
  8
0
 10
182.6664873393801
 20
147.9712845258353
 30
0.0
  0
VERTEX
  5
1187
  8
0
 10
182.6494990819877
 20
147.99429027389931
 30
0.0
  0
VERTEX
  5
1188
  8
0
 10
182.61485446223861
 20
148.03994227949261
 30
0.0
  0
VERTEX
  5
1189
  8
0
 10
182.5793598721641
 20
148.08507305980959
 30
0.0
  0
VERTEX
  5
118A
  8
0
 10
182.56130967685991
 20
148.1074281019313
 30
0.0
  0
VERTEX
  5
118B
  8
0
 10
182.54306623882329
 20
148.1296354239042
 30
0.0
  0
VERTEX
  5
118C
  8
0
 10
182.50602638922851
 20
148.173585742417
 30
0.0
  0
VERTEX
  5
118D
  8
0
 10
182.46829578352569
 20
148.21688275442801
 30
0.0
  0
VERTEX
  5
118E
  8
0
 10
182.449189719651
 20
148.2382737338159
 30
0.0
  0
VERTEX
  5
118F
  8
0
 10
182.42993329916129
 20
148.25948653150019
 30
0.0
  0
VERTEX
  5
1190
  8
0
 10
182.3910009727947
 20
148.3013587302286
 30
0.0
  0
VERTEX
  5
1191
  8
0
 10
182.35156372497269
 20
148.3424628115682
 30
0.0
  0
VERTEX
  5
1192
  8
0
 10
182.31168909417201
 20
148.38276420451979
 30
0.0
  0
VERTEX
  5
1193
  8
0
 10
182.2714469797092
 20
148.42223042349281
 30
0.0
  0
VERTEX
  5
1194
  8
0
 10
182.2309093936932
 20
148.46083114634521
 30
0.0
  0
VERTEX
  5
1195
  8
0
 10
182.21055282128569
 20
148.47979807427319
 30
0.0
  0
VERTEX
  5
1196
  8
0
 10
182.19015022168409
 20
148.49853825932959
 30
0.0
  0
VERTEX
  5
1197
  8
0
 10
182.14924499127781
 20
148.53532587447941
 30
0.0
  0
VERTEX
  5
1198
  8
0
 10
182.1082706474146
 20
148.57117032434911
 30
0.0
  0
VERTEX
  5
1199
  8
0
 10
182.0673053328079
 20
148.60605013849491
 30
0.0
  0
VERTEX
  5
119A
  8
0
 10
182.0264281714586
 20
148.63994600565729
 30
0.0
  0
VERTEX
  5
119B
  8
0
 10
181.98543068728981
 20
148.67307075970371
 30
0.0
  0
VERTEX
  5
119C
  8
0
 10
181.96463926611361
 20
148.6895484796417
 30
0.0
  0
VERTEX
  5
119D
  8
0
 10
181.94364568789641
 20
148.70597343128941
 30
0.0
  0
VERTEX
  5
119E
  8
0
 10
181.90106503229831
 20
148.73864904117411
 30
0.0
  0
VERTEX
  5
119F
  8
0
 10
181.85771562267911
 20
148.77106632689481
 30
0.0
  0
VERTEX
  5
11A0
  8
0
 10
181.81362581364101
 20
148.80319522874359
 30
0.0
  0
VERTEX
  5
11A1
  8
0
 10
181.76882530035169
 20
148.83500696194051
 30
0.0
  0
VERTEX
  5
11A2
  8
0
 10
181.7233450109045
 20
148.86647407382469
 30
0.0
  0
VERTEX
  5
11A3
  8
0
 10
181.70035992659811
 20
148.88207019321271
 30
0.0
  0
VERTEX
  5
11A4
  8
0
 10
181.67721700221821
 20
148.89757048818751
 30
0.0
  0
VERTEX
  5
11A5
  8
0
 10
181.6304743588463
 20
148.92827153859059
 30
0.0
  0
VERTEX
  5
11A6
  8
0
 10
181.58315109408611
 20
148.95855399227139
 30
0.0
  0
VERTEX
  5
11A7
  8
0
 10
181.41345672489001
 20
149.06094480566151
 30
0.0
  0
VERTEX
  5
11A8
  8
0
 10
181.11152616690279
 20
149.22178568739031
 30
0.0
  0
VERTEX
  5
11A9
  8
0
 10
180.95750089324011
 20
149.29456359138209
 30
0.0
  0
VERTEX
  5
11AA
  8
0
 10
180.8029107362363
 20
149.36196061250001
 30
0.0
  0
VERTEX
  5
11AB
  8
0
 10
180.49673042304889
 20
149.4802449651269
 30
0.0
  0
VERTEX
  5
11AC
  8
0
 10
180.1954476910218
 20
149.57882773092601
 30
0.0
  0
VERTEX
  5
11AD
  8
0
 10
179.87941421809981
 20
149.66516528488631
 30
0.0
  0
VERTEX
  5
11AE
  8
0
 10
179.55102561401051
 20
149.7379636597756
 30
0.0
  0
VERTEX
  5
11AF
  8
0
 10
179.21541522665419
 20
149.79588036135729
 30
0.0
  0
VERTEX
  5
11B0
  8
0
 10
179.0465203266601
 20
149.8190618144327
 30
0.0
  0
VERTEX
  5
11B1
  8
0
 10
178.87776999766501
 20
149.8383810434859
 30
0.0
  0
VERTEX
  5
11B2
  8
0
 10
178.54338930377659
 20
149.86565881133791
 30
0.0
  0
VERTEX
  5
11B3
  8
0
 10
178.21770699267159
 20
149.87858531015399
 30
0.0
  0
VERTEX
  5
11B4
  8
0
 10
178.05983104074329
 20
149.88011596580989
 30
0.0
  0
SEQEND
  5
11B5
  8
0
  0
LINE
  5
8B7
  8
0
 10
202.7152844575788
 20
149.88011596580989
 30
0.0
 11
52.715284457578832
 21
149.88011596580989
 31
0.0
  0
POLYLINE
  5
8B8
  8
0
 66
     1
 10
0.0
 20
0.0
 30
0.0
  0
VERTEX
  5
11B6
  8
0
 10
214.20238534212669
 20
138.92464628472581
 30
0.0
  0
VERTEX
  5
11B7
  8
0
 10
214.1758874995665
 20
139.33120897597399
 30
0.0
  0
VERTEX
  5
11B8
  8
0
 10
214.07793593635509
 20
140.15216319200459
 30
0.0
  0
VERTEX
  5
11B9
  8
0
 10
213.91789051924681
 20
140.97850343250539
 30
0.0
  0
VERTEX
  5
11BA
  8
0
 10
213.81392441414951
 20
141.39179176416761
 30
0.0
  0
VERTEX
  5
11BB
  8
0
 10
213.693716993876
 20
141.8041514571523
 30
0.0
  0
VERTEX
  5
11BC
  8
0
 10
213.40394728620529
 20
142.62304973101749
 30
0.0
  0
VERTEX
  5
11BD
  8
0
 10
213.0476506111587
 20
143.42909701829541
 30
0.0
  0
VERTEX
  5
11BE
  8
0
 10
212.6243794208352
 20
144.2161965863263
 30
0.0
  0
VERTEX
  5
11BF
  8
0
 10
212.13400111903729
 20
144.9784321488346
 30
0.0
  0
VERTEX
  5
11C0
  8
0
 10
211.57672278097451
 20
145.70984384893461
 30
0.0
  0
VERTEX
  5
11C1
  8
0
 10
211.273156154915
 20
146.0620969610957
 30
0.0
  0
VERTEX
  5
11C2
  8
0
 10
210.9530877206208
 20
146.4043665476035
 30
0.0
  0
VERTEX
  5
11C3
  8
0
 10
210.2638597606867
 20
147.05588745273309
 30
0.0
  0
VERTEX
  5
11C4
  8
0
 10
209.83187590572089
 20
147.41361618223931
 30
0.0
  0
VERTEX
  5
11C5
  8
0
 10
209.70443564710669
 20
147.51257268073169
 30
0.0
  0
VERTEX
  5
11C6
  8
0
 10
209.57521854822929
 20
147.6100295229312
 30
0.0
  0
VERTEX
  5
11C7
  8
0
 10
209.50994506531879
 20
147.65818619757829
 30
0.0
  0
VERTEX
  5
11C8
  8
0
 10
209.44422902445751
 20
147.7059566794332
 30
0.0
  0
VERTEX
  5
11C9
  8
0
 10
209.3114714402779
 20
147.80032388757419
 30
0.0
  0
VERTEX
  5
11CA
  8
0
 10
209.17695009562769
 20
147.89310062794721
 30
0.0
  0
VERTEX
  5
11CB
  8
0
 10
209.0406692129819
 20
147.9842560989043
 30
0.0
  0
VERTEX
  5
11CC
  8
0
 10
208.9026329253829
 20
148.0737591889723
 30
0.0
  0
VERTEX
  5
11CD
  8
0
 10
208.7628452656146
 20
148.16157844711151
 30
0.0
  0
VERTEX
  5
11CE
  8
0
 10
208.6922959016382
 20
148.20484671008899
 30
0.0
  0
VERTEX
  5
11CF
  8
0
 10
208.62131015674549
 20
148.24768205075631
 30
0.0
  0
VERTEX
  5
11D0
  8
0
 10
208.478031404283
 20
148.33203777158451
 30
0.0
  0
VERTEX
  5
11D1
  8
0
 10
208.3330126902006
 20
148.4146129389722
 30
0.0
  0
VERTEX
  5
11D2
  8
0
 10
208.1862575691174
 20
148.49537440110561
 30
0.0
  0
VERTEX
  5
11D3
  8
0
 10
208.03776946693429
 20
148.5742884837334
 30
0.0
  0
VERTEX
  5
11D4
  8
0
 10
207.88720804399699
 20
148.65149398515331
 30
0.0
  0
VERTEX
  5
11D5
  8
0
 10
207.81066403694351
 20
148.68967982381059
 30
0.0
  0
VERTEX
  5
11D6
  8
0
 10
207.7332420215258
 20
148.7275843463573
 30
0.0
  0
VERTEX
  5
11D7
  8
0
 10
207.57580046316599
 20
148.80246618826121
 30
0.0
  0
VERTEX
  5
11D8
  8
0
 10
207.41495964803491
 20
148.875974820816
 30
0.0
  0
VERTEX
  5
11D9
  8
0
 10
207.2508010436672
 20
148.9479487283642
 30
0.0
  0
VERTEX
  5
11DA
  8
0
 10
207.0834111687827
 20
149.01822994502939
 30
0.0
  0
VERTEX
  5
11DB
  8
0
 10
206.9128813917647
 20
149.08666442822829
 30
0.0
  0
VERTEX
  5
11DC
  8
0
 10
206.8264688526146
 20
149.12014217015471
 30
0.0
  0
VERTEX
  5
11DD
  8
0
 10
206.73930765552771
 20
149.1531024274355
 30
0.0
  0
VERTEX
  5
11DE
  8
0
 10
206.56279011818901
 20
149.21739884444571
 30
0.0
  0
VERTEX
  5
11DF
  8
0
 10
206.3834329933255
 20
149.27941348077391
 30
0.0
  0
VERTEX
  5
11E0
  8
0
 10
206.2927236301872
 20
149.30952258128019
 30
0.0
  0
VERTEX
  5
11E1
  8
0
 10
206.2013460360206
 20
149.3390107399791
 30
0.0
  0
VERTEX
  5
11E2
  8
0
 10
206.0166454385905
 20
149.39605966905441
 30
0.0
  0
VERTEX
  5
11E3
  8
0
 10
205.82945354678029
 20
149.4504344293349
 30
0.0
  0
VERTEX
  5
11E4
  8
0
 10
205.73496318256539
 20
149.47658118667471
 30
0.0
  0
VERTEX
  5
11E5
  8
0
 10
205.6398984526912
 20
149.502014768604
 30
0.0
  0
VERTEX
  5
11E6
  8
0
 10
205.44811350540391
 20
149.55068647028111
 30
0.0
  0
VERTEX
  5
11E7
  8
0
 10
205.25423672765541
 20
149.59634177355261
 30
0.0
  0
VERTEX
  5
11E8
  8
0
 10
205.05841011402251
 20
149.63887975932269
 30
0.0
  0
VERTEX
  5
11E9
  8
0
 10
204.86075507925781
 20
149.67821119516219
 30
0.0
  0
VERTEX
  5
11EA
  8
0
 10
204.66140093250999
 20
149.714251604049
 30
0.0
  0
VERTEX
  5
11EB
  8
0
 10
204.5611359738192
 20
149.7310116212193
 30
0.0
  0
VERTEX
  5
11EC
  8
0
 10
204.46050622716081
 20
149.7469185494293
 30
0.0
  0
VERTEX
  5
11ED
  8
0
 10
204.2582361124623
 20
149.77613720967801
 30
0.0
  0
VERTEX
  5
11EE
  8
0
 10
204.0547615628401
 20
149.801840926799
 30
0.0
  0
VERTEX
  5
11EF
  8
0
 10
203.8502585143728
 20
149.8239716923735
 30
0.0
  0
VERTEX
  5
11F0
  8
0
 10
203.64490689796011
 20
149.84248056122999
 30
0.0
  0
VERTEX
  5
11F1
  8
0
 10
203.43888955871361
 20
149.8573279816965
 30
0.0
  0
VERTEX
  5
11F2
  8
0
 10
203.335688792784
 20
149.86336892221809
 30
0.0
  0
VERTEX
  5
11F3
  8
0
 10
203.23239040587691
 20
149.86848405872169
 30
0.0
  0
VERTEX
  5
11F4
  8
0
 10
203.02559695458399
 20
149.87592851448181
 30
0.0
  0
VERTEX
  5
11F5
  8
0
 10
202.81870507034799
 20
149.87965092061799
 30
0.0
  0
VERTEX
  5
11F6
  8
0
 10
202.7152844575788
 20
149.88011596580989
 30
0.0
  0
SEQEND
  5
11F7
  8
0
  0
POLYLINE
  5
8BA
  8
0
 66
     1
 10
0.0
 20
0.0
 30
0.0
  0
VERTEX
  5
11F8
  8
0
 10
202.7152844575788
 20
126.88011596580991
 30
0.0
  0
VERTEX
  5
11F9
  8
0
 10
202.81870507034719
 20
126.88058101100169
 30
0.0
  0
VERTEX
  5
11FA
  8
0
 10
203.02559695457811
 20
126.8843034171378
 30
0.0
  0
VERTEX
  5
11FB
  8
0
 10
203.23239040586549
 20
126.8917478728975
 30
0.0
  0
VERTEX
  5
11FC
  8
0
 10
203.33568879277121
 20
126.896863009401
 30
0.0
  0
VERTEX
  5
11FD
  8
0
 10
203.43888955870071
 20
126.9029039499224
 30
0.0
  0
VERTEX
  5
11FE
  8
0
 10
203.64490689794741
 20
126.9177513703888
 30
0.0
  0
VERTEX
  5
11FF
  8
0
 10
203.85025851436041
 20
126.936260239245
 30
0.0
  0
VERTEX
  5
1200
  8
0
 10
204.05476156282771
 20
126.9583910048193
 30
0.0
  0
VERTEX
  5
1201
  8
0
 10
204.25823611245019
 20
126.9840947219402
 30
0.0
  0
VERTEX
  5
1202
  8
0
 10
204.46050622714881
 20
127.0133133821886
 30
0.0
  0
VERTEX
  5
1203
  8
0
 10
204.5611359738073
 20
127.0292203103985
 30
0.0
  0
VERTEX
  5
1204
  8
0
 10
204.6614009324982
 20
127.0459803275687
 30
0.0
  0
VERTEX
  5
1205
  8
0
 10
204.86075507924619
 20
127.08202073645541
 30
0.0
  0
VERTEX
  5
1206
  8
0
 10
205.0584101140112
 20
127.12135217229471
 30
0.0
  0
VERTEX
  5
1207
  8
0
 10
205.2542367276443
 20
127.1638901580647
 30
0.0
  0
VERTEX
  5
1208
  8
0
 10
205.44811350539311
 20
127.20954546133601
 30
0.0
  0
VERTEX
  5
1209
  8
0
 10
205.6398984526806
 20
127.258217163013
 30
0.0
  0
VERTEX
  5
120A
  8
0
 10
205.73496318255479
 20
127.28365074494219
 30
0.0
  0
VERTEX
  5
120B
  8
0
 10
205.82945354677
 20
127.3097975022819
 30
0.0
  0
VERTEX
  5
120C
  8
0
 10
206.0166454385803
 20
127.36417226256231
 30
0.0
  0
VERTEX
  5
120D
  8
0
 10
206.2013460360107
 20
127.4212211916376
 30
0.0
  0
VERTEX
  5
120E
  8
0
 10
206.29272363017739
 20
127.4507093503363
 30
0.0
  0
VERTEX
  5
120F
  8
0
 10
206.38343299331581
 20
127.4808184508427
 30
0.0
  0
VERTEX
  5
1210
  8
0
 10
206.56279011817961
 20
127.54283308717071
 30
0.0
  0
VERTEX
  5
1211
  8
0
 10
206.73930765551859
 20
127.6071295041808
 30
0.0
  0
VERTEX
  5
1212
  8
0
 10
206.8264688526057
 20
127.6400897614616
 30
0.0
  0
VERTEX
  5
1213
  8
0
 10
206.9128813917558
 20
127.673567503388
 30
0.0
  0
VERTEX
  5
1214
  8
0
 10
207.08341116877409
 20
127.7420019865868
 30
0.0
  0
VERTEX
  5
1215
  8
0
 10
207.25080104365881
 20
127.81228320325189
 30
0.0
  0
VERTEX
  5
1216
  8
0
 10
207.41495964802681
 20
127.88425711080011
 30
0.0
  0
VERTEX
  5
1217
  8
0
 10
207.5758004631582
 20
127.957765743355
 30
0.0
  0
VERTEX
  5
1218
  8
0
 10
207.73324202151821
 20
128.0326475852589
 30
0.0
  0
VERTEX
  5
1219
  8
0
 10
207.810664036936
 20
128.0705521078055
 30
0.0
  0
VERTEX
  5
121A
  8
0
 10
207.88720804398969
 20
128.10873794646281
 30
0.0
  0
VERTEX
  5
121B
  8
0
 10
208.0377694669271
 20
128.18594344788261
 30
0.0
  0
VERTEX
  5
121C
  8
0
 10
208.1862575691105
 20
128.2648575305104
 30
0.0
  0
VERTEX
  5
121D
  8
0
 10
208.3330126901937
 20
128.34561899264369
 30
0.0
  0
VERTEX
  5
121E
  8
0
 10
208.47803140427641
 20
128.4281941600315
 30
0.0
  0
VERTEX
  5
121F
  8
0
 10
208.62131015673901
 20
128.51254988085969
 30
0.0
  0
VERTEX
  5
1220
  8
0
 10
208.69229590163201
 20
128.5553852215269
 30
0.0
  0
VERTEX
  5
1221
  8
0
 10
208.76284526560829
 20
128.59865348450441
 30
0.0
  0
VERTEX
  5
1222
  8
0
 10
208.90263292537679
 20
128.68647274264359
 30
0.0
  0
VERTEX
  5
1223
  8
0
 10
209.0406692129759
 20
128.77597583271159
 30
0.0
  0
VERTEX
  5
1224
  8
0
 10
209.17695009562189
 20
128.8671313036686
 30
0.0
  0
VERTEX
  5
1225
  8
0
 10
209.3114714402723
 20
128.95990804404161
 30
0.0
  0
VERTEX
  5
1226
  8
0
 10
209.44422902445189
 20
129.05427525218261
 30
0.0
  0
VERTEX
  5
1227
  8
0
 10
209.5099450653133
 20
129.1020457340376
 30
0.0
  0
VERTEX
  5
1228
  8
0
 10
209.575218548224
 20
129.15020240868461
 30
0.0
  0
VERTEX
  5
1229
  8
0
 10
209.7044356471016
 20
129.24765925088411
 30
0.0
  0
VERTEX
  5
122A
  8
0
 10
209.831875905716
 20
129.3466157493765
 30
0.0
  0
VERTEX
  5
122B
  8
0
 10
210.26385976068221
 20
129.70434447888269
 30
0.0
  0
VERTEX
  5
122C
  8
0
 10
210.95308772061711
 20
130.35586538401239
 30
0.0
  0
VERTEX
  5
122D
  8
0
 10
211.2731561549117
 20
130.6981349705203
 30
0.0
  0
VERTEX
  5
122E
  8
0
 10
211.57672278097141
 20
131.05038808268159
 30
0.0
  0
VERTEX
  5
122F
  8
0
 10
212.13400111903491
 20
131.7817997827818
 30
0.0
  0
VERTEX
  5
1230
  8
0
 10
212.62437942083349
 20
132.5440353452905
 30
0.0
  0
VERTEX
  5
1231
  8
0
 10
213.04765061115731
 20
133.3311349133217
 30
0.0
  0
VERTEX
  5
1232
  8
0
 10
213.4039472862045
 20
134.13718220060011
 30
0.0
  0
VERTEX
  5
1233
  8
0
 10
213.69371699387551
 20
134.95608047446569
 30
0.0
  0
VERTEX
  5
1234
  8
0
 10
213.81392441414911
 20
135.36844016745081
 30
0.0
  0
VERTEX
  5
1235
  8
0
 10
213.9178905192465
 20
135.78172849911309
 30
0.0
  0
VERTEX
  5
1236
  8
0
 10
214.07793593635489
 20
136.60806873961431
 30
0.0
  0
VERTEX
  5
1237
  8
0
 10
214.1758874995665
 20
137.42902295564551
 30
0.0
  0
VERTEX
  5
1238
  8
0
 10
214.20238534212669
 20
137.835585646894
 30
0.0
  0
SEQEND
  5
1239
  8
0
  0
LINE
  5
8BE
  8
0
 10
214.20238534212669
 20
137.835585646894
 30
0.0
 11
214.20238534212669
 21
138.92464628472581
 31
0.0
  0
LINE
  5
8C0
  8
0
 10
202.7152844575788
 20
126.88011596580991
 30
0.0
 11
52.715284457578832
 21
126.88011596580991
 31
0.0
  0
POLYLINE
  5
8C1
  8
0
 66
     1
 10
0.0
 20
0.0
 30
0.0
  0
VERTEX
  5
123A
  8
0
 10
183.05960670624219
 20
129.51857750427149
 30
0.0
  0
VERTEX
  5
123B
  8
0
 10
183.2176875458365
 20
129.96737689363249
 30
0.0
  0
VERTEX
  5
123C
  8
0
 10
183.51512945163961
 20
130.89147528285309
 30
0.0
  0
VERTEX
  5
123D
  8
0
 10
183.786112397138
 20
131.8555213510561
 30
0.0
  0
VERTEX
  5
123E
  8
0
 10
183.9097253885775
 20
132.34944001098381
 30
0.0
  0
VERTEX
  5
123F
  8
0
 10
184.0245547722422
 20
132.8495988613472
 30
0.0
  0
VERTEX
  5
1240
  8
0
 10
184.22582097250779
 20
133.86339298665251
 30
0.0
  0
VERTEX
  5
1241
  8
0
 10
184.38681475229259
 20
134.8863337193346
 30
0.0
  0
VERTEX
  5
1242
  8
0
 10
184.50601027597779
 20
135.90767238950369
 30
0.0
  0
VERTEX
  5
1243
  8
0
 10
184.5834274266586
 20
136.91619941825789
 30
0.0
  0
VERTEX
  5
1244
  8
0
 10
184.6206676670659
 20
137.9005722898454
 30
0.0
  0
VERTEX
  5
1245
  8
0
 10
184.6251412020456
 20
138.38011596580989
 30
0.0
  0
VERTEX
  5
1246
  8
0
 10
184.6206676670661
 20
138.85965964177441
 30
0.0
  0
VERTEX
  5
1247
  8
0
 10
184.5834274266586
 20
139.84403251336181
 30
0.0
  0
VERTEX
  5
1248
  8
0
 10
184.50601027597779
 20
140.8525595421161
 30
0.0
  0
VERTEX
  5
1249
  8
0
 10
184.38681475229259
 20
141.87389821228521
 30
0.0
  0
VERTEX
  5
124A
  8
0
 10
184.22582097250779
 20
142.8968389449673
 30
0.0
  0
VERTEX
  5
124B
  8
0
 10
184.0245547722422
 20
143.91063307027261
 30
0.0
  0
VERTEX
  5
124C
  8
0
 10
183.9097253885775
 20
144.410791920636
 30
0.0
  0
VERTEX
  5
124D
  8
0
 10
183.786112397138
 20
144.90471058056369
 30
0.0
  0
VERTEX
  5
124E
  8
0
 10
183.51512945163961
 20
145.86875664876669
 30
0.0
  0
VERTEX
  5
124F
  8
0
 10
183.2176875458365
 20
146.79285503798729
 30
0.0
  0
VERTEX
  5
1250
  8
0
 10
183.05960670624219
 20
147.24165442734841
 30
0.0
  0
SEQEND
  5
1251
  8
0
  0
POLYLINE
  5
8C2
  8
0
 66
     1
 10
0.0
 20
0.0
 30
0.0
  0
VERTEX
  5
1252
  8
0
 10
178.05983104074329
 20
126.88011596580991
 30
0.0
  0
VERTEX
  5
1253
  8
0
 10
178.21770699267159
 20
126.8816466214658
 30
0.0
  0
VERTEX
  5
1254
  8
0
 10
178.54338930377659
 20
126.8945731202819
 30
0.0
  0
VERTEX
  5
1255
  8
0
 10
178.87776999766501
 20
126.9218508881339
 30
0.0
  0
VERTEX
  5
1256
  8
0
 10
179.04652032665999
 20
126.9411701171871
 30
0.0
  0
VERTEX
  5
1257
  8
0
 10
179.21541522665419
 20
126.96435157026249
 30
0.0
  0
VERTEX
  5
1258
  8
0
 10
179.55102561401051
 20
127.0222682718442
 30
0.0
  0
VERTEX
  5
1259
  8
0
 10
179.87941421809981
 20
127.0950666467335
 30
0.0
  0
VERTEX
  5
125A
  8
0
 10
180.1954476910218
 20
127.18140420069381
 30
0.0
  0
VERTEX
  5
125B
  8
0
 10
180.49673042304889
 20
127.2799869664929
 30
0.0
  0
VERTEX
  5
125C
  8
0
 10
180.8029107362363
 20
127.3982713191198
 30
0.0
  0
VERTEX
  5
125D
  8
0
 10
180.95750089324011
 20
127.4656683402377
 30
0.0
  0
VERTEX
  5
125E
  8
0
 10
181.11152616690279
 20
127.5384462442295
 30
0.0
  0
VERTEX
  5
125F
  8
0
 10
181.41345672489001
 20
127.69928712595831
 30
0.0
  0
VERTEX
  5
1260
  8
0
 10
181.58315109408611
 20
127.80167793934839
 30
0.0
  0
VERTEX
  5
1261
  8
0
 10
181.6304743588463
 20
127.83196039302921
 30
0.0
  0
VERTEX
  5
1262
  8
0
 10
181.67721700221821
 20
127.8626614434323
 30
0.0
  0
VERTEX
  5
1263
  8
0
 10
181.70035992659811
 20
127.8781617384071
 30
0.0
  0
VERTEX
  5
1264
  8
0
 10
181.7233450109045
 20
127.89375785779509
 30
0.0
  0
VERTEX
  5
1265
  8
0
 10
181.76882530035169
 20
127.92522496967931
 30
0.0
  0
VERTEX
  5
1266
  8
0
 10
181.81362581364101
 20
127.9570367028761
 30
0.0
  0
VERTEX
  5
1267
  8
0
 10
181.85771562267911
 20
127.9891656047249
 30
0.0
  0
VERTEX
  5
1268
  8
0
 10
181.90106503229831
 20
128.0215828904457
 30
0.0
  0
VERTEX
  5
1269
  8
0
 10
181.94364568789641
 20
128.05425850033041
 30
0.0
  0
VERTEX
  5
126A
  8
0
 10
181.96463926611349
 20
128.0706834519782
 30
0.0
  0
VERTEX
  5
126B
  8
0
 10
181.98543068728981
 20
128.08716117191599
 30
0.0
  0
VERTEX
  5
126C
  8
0
 10
182.0264281714586
 20
128.12028592596249
 30
0.0
  0
VERTEX
  5
126D
  8
0
 10
182.0673053328079
 20
128.15418179312491
 30
0.0
  0
VERTEX
  5
126E
  8
0
 10
182.1082706474146
 20
128.1890616072707
 30
0.0
  0
VERTEX
  5
126F
  8
0
 10
182.14924499127781
 20
128.2249060571404
 30
0.0
  0
VERTEX
  5
1270
  8
0
 10
182.19015022168409
 20
128.26169367229019
 30
0.0
  0
VERTEX
  5
1271
  8
0
 10
182.21055282128589
 20
128.28043385734659
 30
0.0
  0
VERTEX
  5
1272
  8
0
 10
182.2309093936932
 20
128.2994007852746
 30
0.0
  0
VERTEX
  5
1273
  8
0
 10
182.2714469797092
 20
128.33800150812701
 30
0.0
  0
VERTEX
  5
1274
  8
0
 10
182.31168909417201
 20
128.37746772710011
 30
0.0
  0
VERTEX
  5
1275
  8
0
 10
182.35156372497269
 20
128.41776912005159
 30
0.0
  0
VERTEX
  5
1276
  8
0
 10
182.3910009727947
 20
128.45887320139121
 30
0.0
  0
VERTEX
  5
1277
  8
0
 10
182.42993329916129
 20
128.5007454001196
 30
0.0
  0
VERTEX
  5
1278
  8
0
 10
182.449189719651
 20
128.5219581978038
 30
0.0
  0
VERTEX
  5
1279
  8
0
 10
182.46829578352569
 20
128.54334917719191
 30
0.0
  0
VERTEX
  5
127A
  8
0
 10
182.50602638922851
 20
128.58664618920281
 30
0.0
  0
VERTEX
  5
127B
  8
0
 10
182.54306623882329
 20
128.63059650771561
 30
0.0
  0
VERTEX
  5
127C
  8
0
 10
182.56130967685991
 20
128.65280382968851
 30
0.0
  0
VERTEX
  5
127D
  8
0
 10
182.5793598721641
 20
128.6751588718102
 30
0.0
  0
VERTEX
  5
127E
  8
0
 10
182.61485446223861
 20
128.72028965212721
 30
0.0
  0
VERTEX
  5
127F
  8
0
 10
182.6494990819877
 20
128.7659416577205
 30
0.0
  0
VERTEX
  5
1280
  8
0
 10
182.6664873393801
 20
128.78894740578451
 30
0.0
  0
VERTEX
  5
1281
  8
0
 10
182.68324504288131
 20
128.81206417578741
 30
0.0
  0
VERTEX
  5
1282
  8
0
 10
182.7160462913385
 20
128.8586031239447
 30
0.0
  0
VERTEX
  5
1283
  8
0
 10
182.74785978184889
 20
128.9055012235678
 30
0.0
  0
VERTEX
  5
1284
  8
0
 10
182.77864582779671
 20
128.9526981997933
 30
0.0
  0
VERTEX
  5
1285
  8
0
 10
182.80836843039589
 20
129.00013101442491
 30
0.0
  0
VERTEX
  5
1286
  8
0
 10
182.83699558555529
 20
129.04773413876021
 30
0.0
  0
VERTEX
  5
1287
  8
0
 10
182.85088953175489
 20
129.0715784861469
 30
0.0
  0
VERTEX
  5
1288
  8
0
 10
182.86449956792259
 20
129.0954398742866
 30
0.0
  0
VERTEX
  5
1289
  8
0
 10
182.89085719078969
 20
129.1431787303047
 30
0.0
  0
VERTEX
  5
128A
  8
0
 10
182.91605003998919
 20
129.19087986885921
 30
0.0
  0
VERTEX
  5
128B
  8
0
 10
182.94008454656509
 20
129.23851193107191
 30
0.0
  0
VERTEX
  5
128C
  8
0
 10
182.9634113138529
 20
129.2869857172268
 30
0.0
  0
VERTEX
  5
128D
  8
0
 10
182.98614229174129
 20
129.3366450963874
 30
0.0
  0
VERTEX
  5
128E
  8
0
 10
182.99725261246419
 20
129.36189386946111
 30
0.0
  0
VERTEX
  5
128F
  8
0
 10
183.00817659605329
 20
129.38740801177869
 30
0.0
  0
VERTEX
  5
1290
  8
0
 10
183.029419184895
 20
129.43918923691061
 30
0.0
  0
VERTEX
  5
1291
  8
0
 10
183.0497814652667
 20
129.4919008567241
 30
0.0
  0
VERTEX
  5
1292
  8
0
 10
183.05960670624219
 20
129.51857750427141
 30
0.0
  0
SEQEND
  5
1293
  8
0
  0
POLYLINE
  5
8C6
  8
0
 66
     1
 10
0.0
 20
0.0
 30
0.0
  0
VERTEX
  5
1294
  8
0
 10
72.370962208915444
 20
129.51857750427141
 30
0.0
  0
VERTEX
  5
1295
  8
0
 10
72.380787449890988
 20
129.4919008567241
 30
0.0
  0
VERTEX
  5
1296
  8
0
 10
72.401149730262716
 20
129.43918923691049
 30
0.0
  0
VERTEX
  5
1297
  8
0
 10
72.422392319104347
 20
129.38740801177869
 30
0.0
  0
VERTEX
  5
1298
  8
0
 10
72.43331630269347
 20
129.36189386946111
 30
0.0
  0
VERTEX
  5
1299
  8
0
 10
72.444426623416348
 20
129.3366450963874
 30
0.0
  0
VERTEX
  5
129A
  8
0
 10
72.467157601304734
 20
129.2869857172268
 30
0.0
  0
VERTEX
  5
129B
  8
0
 10
72.490484368592547
 20
129.23851193107191
 30
0.0
  0
VERTEX
  5
129C
  8
0
 10
72.514518875168449
 20
129.19087986885921
 30
0.0
  0
VERTEX
  5
129D
  8
0
 10
72.539711724367976
 20
129.1431787303047
 30
0.0
  0
VERTEX
  5
129E
  8
0
 10
72.5660693472351
 20
129.09543987428671
 30
0.0
  0
VERTEX
  5
129F
  8
0
 10
72.579679383402777
 20
129.0715784861469
 30
0.0
  0
VERTEX
  5
12A0
  8
0
 10
72.593573329602407
 20
129.04773413876021
 30
0.0
  0
VERTEX
  5
12A1
  8
0
 10
72.622200484761663
 20
129.00013101442491
 30
0.0
  0
VERTEX
  5
12A2
  8
0
 10
72.651923087360956
 20
128.9526981997933
 30
0.0
  0
VERTEX
  5
12A3
  8
0
 10
72.682709133308833
 20
128.9055012235678
 30
0.0
  0
VERTEX
  5
12A4
  8
0
 10
72.714522623819093
 20
128.8586031239447
 30
0.0
  0
VERTEX
  5
12A5
  8
0
 10
72.74732387227624
 20
128.81206417578741
 30
0.0
  0
VERTEX
  5
12A6
  8
0
 10
72.764081575777482
 20
128.78894740578451
 30
0.0
  0
VERTEX
  5
12A7
  8
0
 10
72.781069833169852
 20
128.7659416577205
 30
0.0
  0
VERTEX
  5
12A8
  8
0
 10
72.815714452918996
 20
128.72028965212721
 30
0.0
  0
VERTEX
  5
12A9
  8
0
 10
72.85120904299356
 20
128.6751588718102
 30
0.0
  0
VERTEX
  5
12AA
  8
0
 10
72.869259238297786
 20
128.65280382968851
 30
0.0
  0
VERTEX
  5
12AB
  8
0
 10
72.887502676334293
 20
128.63059650771561
 30
0.0
  0
VERTEX
  5
12AC
  8
0
 10
72.924542525929155
 20
128.58664618920281
 30
0.0
  0
VERTEX
  5
12AD
  8
0
 10
72.962273131631946
 20
128.54334917719191
 30
0.0
  0
VERTEX
  5
12AE
  8
0
 10
72.981379195506634
 20
128.5219581978038
 30
0.0
  0
VERTEX
  5
12AF
  8
0
 10
73.000635615996316
 20
128.5007454001196
 30
0.0
  0
VERTEX
  5
12B0
  8
0
 10
73.039567942362964
 20
128.45887320139121
 30
0.0
  0
VERTEX
  5
12B1
  8
0
 10
73.079005190184944
 20
128.41776912005159
 30
0.0
  0
VERTEX
  5
12B2
  8
0
 10
73.118879820985683
 20
128.3774677271
 30
0.0
  0
VERTEX
  5
12B3
  8
0
 10
73.159121935448411
 20
128.33800150812701
 30
0.0
  0
VERTEX
  5
12B4
  8
0
 10
73.199659521464454
 20
128.2994007852746
 30
0.0
  0
VERTEX
  5
12B5
  8
0
 10
73.220016093871834
 20
128.28043385734651
 30
0.0
  0
VERTEX
  5
12B6
  8
0
 10
73.240418693473543
 20
128.26169367229019
 30
0.0
  0
VERTEX
  5
12B7
  8
0
 10
73.281323923879881
 20
128.2249060571404
 30
0.0
  0
VERTEX
  5
12B8
  8
0
 10
73.322298267743008
 20
128.1890616072707
 30
0.0
  0
VERTEX
  5
12B9
  8
0
 10
73.363263582349759
 20
128.15418179312491
 30
0.0
  0
VERTEX
  5
12BA
  8
0
 10
73.404140743699031
 20
128.12028592596249
 30
0.0
  0
VERTEX
  5
12BB
  8
0
 10
73.445138227867801
 20
128.08716117191611
 30
0.0
  0
VERTEX
  5
12BC
  8
0
 10
73.465929649044085
 20
128.07068345197811
 30
0.0
  0
VERTEX
  5
12BD
  8
0
 10
73.486923227261286
 20
128.05425850033041
 30
0.0
  0
VERTEX
  5
12BE
  8
0
 10
73.529503882859274
 20
128.0215828904457
 30
0.0
  0
VERTEX
  5
12BF
  8
0
 10
73.572853292478499
 20
127.9891656047249
 30
0.0
  0
VERTEX
  5
12C0
  8
0
 10
73.616943101516597
 20
127.9570367028761
 30
0.0
  0
VERTEX
  5
12C1
  8
0
 10
73.661743614805843
 20
127.92522496967931
 30
0.0
  0
VERTEX
  5
12C2
  8
0
 10
73.707223904253169
 20
127.89375785779509
 30
0.0
  0
VERTEX
  5
12C3
  8
0
 10
73.730208988559525
 20
127.8781617384071
 30
0.0
  0
VERTEX
  5
12C4
  8
0
 10
73.753351912939479
 20
127.8626614434322
 30
0.0
  0
VERTEX
  5
12C5
  8
0
 10
73.800094556311421
 20
127.83196039302921
 30
0.0
  0
VERTEX
  5
12C6
  8
0
 10
73.847417821071588
 20
127.80167793934839
 30
0.0
  0
VERTEX
  5
12C7
  8
0
 10
74.01711219026771
 20
127.69928712595831
 30
0.0
  0
VERTEX
  5
12C8
  8
0
 10
74.319042748254788
 20
127.53844624422941
 30
0.0
  0
VERTEX
  5
12C9
  8
0
 10
74.473068021917641
 20
127.4656683402377
 30
0.0
  0
VERTEX
  5
12CA
  8
0
 10
74.627658178921365
 20
127.3982713191198
 30
0.0
  0
VERTEX
  5
12CB
  8
0
 10
74.933838492108748
 20
127.2799869664929
 30
0.0
  0
VERTEX
  5
12CC
  8
0
 10
75.23512122413581
 20
127.18140420069381
 30
0.0
  0
VERTEX
  5
12CD
  8
0
 10
75.551154697057882
 20
127.0950666467335
 30
0.0
  0
VERTEX
  5
12CE
  8
0
 10
75.87954330114718
 20
127.0222682718442
 30
0.0
  0
VERTEX
  5
12CF
  8
0
 10
76.215153688503449
 20
126.96435157026249
 30
0.0
  0
VERTEX
  5
12D0
  8
0
 10
76.384048588497592
 20
126.9411701171871
 30
0.0
  0
VERTEX
  5
12D1
  8
0
 10
76.552798917492623
 20
126.9218508881339
 30
0.0
  0
VERTEX
  5
12D2
  8
0
 10
76.8871796113811
 20
126.8945731202819
 30
0.0
  0
VERTEX
  5
12D3
  8
0
 10
77.212861922486013
 20
126.8816466214658
 30
0.0
  0
VERTEX
  5
12D4
  8
0
 10
77.370737874414374
 20
126.88011596580991
 30
0.0
  0
SEQEND
  5
12D5
  8
0
  0
POLYLINE
  5
8C8
  8
0
 66
     1
 10
0.0
 20
0.0
 30
0.0
  0
VERTEX
  5
12D6
  8
0
 10
41.228183573030947
 20
137.83558564689389
 30
0.0
  0
VERTEX
  5
12D7
  8
0
 10
41.254681415591172
 20
137.42902295564571
 30
0.0
  0
VERTEX
  5
12D8
  8
0
 10
41.352632978802603
 20
136.60806873961499
 30
0.0
  0
VERTEX
  5
12D9
  8
0
 10
41.512678395910882
 20
135.78172849911431
 30
0.0
  0
VERTEX
  5
12DA
  8
0
 10
41.616644501008167
 20
135.36844016745221
 30
0.0
  0
VERTEX
  5
12DB
  8
0
 10
41.736851921281747
 20
134.9560804744674
 30
0.0
  0
VERTEX
  5
12DC
  8
0
 10
42.026621628952391
 20
134.1371822006023
 30
0.0
  0
VERTEX
  5
12DD
  8
0
 10
42.382918303999013
 20
133.33113491332429
 30
0.0
  0
VERTEX
  5
12DE
  8
0
 10
42.806189494322439
 20
132.54403534529351
 30
0.0
  0
VERTEX
  5
12DF
  8
0
 10
43.296567796120478
 20
131.7817997827851
 30
0.0
  0
VERTEX
  5
12E0
  8
0
 10
43.853846134183243
 20
131.0503880826852
 30
0.0
  0
VERTEX
  5
12E1
  8
0
 10
44.157412760242657
 20
130.69813497052411
 30
0.0
  0
VERTEX
  5
12E2
  8
0
 10
44.477481194536892
 20
130.35586538401631
 30
0.0
  0
VERTEX
  5
12E3
  8
0
 10
45.166709154470929
 20
129.7043444788867
 30
0.0
  0
VERTEX
  5
12E4
  8
0
 10
45.598693009436708
 20
129.3466157493805
 30
0.0
  0
VERTEX
  5
12E5
  8
0
 10
45.726133268050937
 20
129.24765925088809
 30
0.0
  0
VERTEX
  5
12E6
  8
0
 10
45.855350366928398
 20
129.15020240868861
 30
0.0
  0
VERTEX
  5
12E7
  8
0
 10
45.920623849838869
 20
129.1020457340415
 30
0.0
  0
VERTEX
  5
12E8
  8
0
 10
45.986339890700201
 20
129.05427525218661
 30
0.0
  0
VERTEX
  5
12E9
  8
0
 10
46.119097474879773
 20
128.95990804404559
 30
0.0
  0
VERTEX
  5
12EA
  8
0
 10
46.253618819529997
 20
128.86713130367261
 30
0.0
  0
VERTEX
  5
12EB
  8
0
 10
46.38989970217574
 20
128.77597583271549
 30
0.0
  0
VERTEX
  5
12EC
  8
0
 10
46.527935989774733
 20
128.68647274264751
 30
0.0
  0
VERTEX
  5
12ED
  8
0
 10
46.667723649543063
 20
128.5986534845083
 30
0.0
  0
VERTEX
  5
12EE
  8
0
 10
46.738273013519461
 20
128.5553852215308
 30
0.0
  0
VERTEX
  5
12EF
  8
0
 10
46.80925875841222
 20
128.5125498808635
 30
0.0
  0
VERTEX
  5
12F0
  8
0
 10
46.952537510874599
 20
128.4281941600353
 30
0.0
  0
VERTEX
  5
12F1
  8
0
 10
47.097556224957081
 20
128.34561899264759
 30
0.0
  0
VERTEX
  5
12F2
  8
0
 10
47.244311346040199
 20
128.26485753051409
 30
0.0
  0
VERTEX
  5
12F3
  8
0
 10
47.3927994482234
 20
128.18594344788639
 30
0.0
  0
VERTEX
  5
12F4
  8
0
 10
47.54336087116058
 20
128.1087379464665
 30
0.0
  0
VERTEX
  5
12F5
  8
0
 10
47.619904878214179
 20
128.07055210780919
 30
0.0
  0
VERTEX
  5
12F6
  8
0
 10
47.697326893631782
 20
128.03264758526251
 30
0.0
  0
VERTEX
  5
12F7
  8
0
 10
47.854768451991617
 20
127.95776574335861
 30
0.0
  0
VERTEX
  5
12F8
  8
0
 10
48.015609267122727
 20
127.8842571108038
 30
0.0
  0
VERTEX
  5
12F9
  8
0
 10
48.179767871490412
 20
127.8122832032555
 30
0.0
  0
VERTEX
  5
12FA
  8
0
 10
48.34715774637499
 20
127.7420019865903
 30
0.0
  0
VERTEX
  5
12FB
  8
0
 10
48.517687523393022
 20
127.6735675033915
 30
0.0
  0
VERTEX
  5
12FC
  8
0
 10
48.604100062543068
 20
127.64008976146501
 30
0.0
  0
VERTEX
  5
12FD
  8
0
 10
48.691261259630039
 20
127.6071295041843
 30
0.0
  0
VERTEX
  5
12FE
  8
0
 10
48.867778796968707
 20
127.5428330871741
 30
0.0
  0
VERTEX
  5
12FF
  8
0
 10
49.04713592183213
 20
127.4808184508459
 30
0.0
  0
VERTEX
  5
1300
  8
0
 10
49.137845284970517
 20
127.45070935033949
 30
0.0
  0
VERTEX
  5
1301
  8
0
 10
49.229222879137133
 20
127.4212211916407
 30
0.0
  0
VERTEX
  5
1302
  8
0
 10
49.41392347656722
 20
127.3641722625654
 30
0.0
  0
VERTEX
  5
1303
  8
0
 10
49.60111536837735
 20
127.30979750228489
 30
0.0
  0
VERTEX
  5
1304
  8
0
 10
49.695605732592291
 20
127.28365074494501
 30
0.0
  0
VERTEX
  5
1305
  8
0
 10
49.790670462466487
 20
127.2582171630158
 30
0.0
  0
VERTEX
  5
1306
  8
0
 10
49.982455409753697
 20
127.20954546133871
 30
0.0
  0
VERTEX
  5
1307
  8
0
 10
50.176332187502233
 20
127.1638901580672
 30
0.0
  0
VERTEX
  5
1308
  8
0
 10
50.372158801135178
 20
127.12135217229699
 30
0.0
  0
VERTEX
  5
1309
  8
0
 10
50.569813835899879
 20
127.08202073645759
 30
0.0
  0
VERTEX
  5
130A
  8
0
 10
50.769167982647787
 20
127.0459803275708
 30
0.0
  0
VERTEX
  5
130B
  8
0
 10
50.869432941338523
 20
127.0292203104004
 30
0.0
  0
VERTEX
  5
130C
  8
0
 10
50.970062687996851
 20
127.0133133821905
 30
0.0
  0
VERTEX
  5
130D
  8
0
 10
51.172332802695387
 20
126.9840947219418
 30
0.0
  0
VERTEX
  5
130E
  8
0
 10
51.375807352317622
 20
126.9583910048208
 30
0.0
  0
VERTEX
  5
130F
  8
0
 10
51.580310400784811
 20
126.9362602392462
 30
0.0
  0
VERTEX
  5
1310
  8
0
 10
51.785662017197581
 20
126.91775137038979
 30
0.0
  0
VERTEX
  5
1311
  8
0
 10
51.991679356444138
 20
126.9029039499233
 30
0.0
  0
VERTEX
  5
1312
  8
0
 10
52.094880122373688
 20
126.8968630094017
 30
0.0
  0
VERTEX
  5
1313
  8
0
 10
52.198178509280751
 20
126.89174787289799
 30
0.0
  0
VERTEX
  5
1314
  8
0
 10
52.404971960573732
 20
126.884303417138
 30
0.0
  0
VERTEX
  5
1315
  8
0
 10
52.611863844809697
 20
126.88058101100169
 30
0.0
  0
VERTEX
  5
1316
  8
0
 10
52.715284457578832
 20
126.88011596580991
 30
0.0
  0
SEQEND
  5
1317
  8
0
  0
POLYLINE
  5
8CA
  8
0
 66
     1
 10
0.0
 20
0.0
 30
0.0
  0
VERTEX
  5
1318
  8
0
 10
52.715284457578832
 20
149.88011596580989
 30
0.0
  0
VERTEX
  5
1319
  8
0
 10
52.6118638448105
 20
149.87965092061799
 30
0.0
  0
VERTEX
  5
131A
  8
0
 10
52.40497196057958
 20
149.87592851448201
 30
0.0
  0
VERTEX
  5
131B
  8
0
 10
52.19817850929212
 20
149.86848405872229
 30
0.0
  0
VERTEX
  5
131C
  8
0
 10
52.094880122386478
 20
149.8633689222188
 30
0.0
  0
VERTEX
  5
131D
  8
0
 10
51.991679356457041
 20
149.8573279816973
 30
0.0
  0
VERTEX
  5
131E
  8
0
 10
51.785662017210313
 20
149.84248056123101
 30
0.0
  0
VERTEX
  5
131F
  8
0
 10
51.58031040079738
 20
149.82397169237481
 30
0.0
  0
VERTEX
  5
1320
  8
0
 10
51.375807352330007
 20
149.80184092680039
 30
0.0
  0
VERTEX
  5
1321
  8
0
 10
51.172332802707608
 20
149.7761372096796
 30
0.0
  0
VERTEX
  5
1322
  8
0
 10
50.970062688008852
 20
149.74691854943109
 30
0.0
  0
VERTEX
  5
1323
  8
0
 10
50.869432941350453
 20
149.73101162122131
 30
0.0
  0
VERTEX
  5
1324
  8
0
 10
50.769167982659553
 20
149.71425160405099
 30
0.0
  0
VERTEX
  5
1325
  8
0
 10
50.569813835911468
 20
149.67821119516441
 30
0.0
  0
VERTEX
  5
1326
  8
0
 10
50.372158801146547
 20
149.63887975932511
 30
0.0
  0
VERTEX
  5
1327
  8
0
 10
50.176332187513367
 20
149.59634177355511
 30
0.0
  0
VERTEX
  5
1328
  8
0
 10
49.982455409764611
 20
149.55068647028381
 30
0.0
  0
VERTEX
  5
1329
  8
0
 10
49.790670462477181
 20
149.50201476860681
 30
0.0
  0
VERTEX
  5
132A
  8
0
 10
49.695605732602871
 20
149.47658118667761
 30
0.0
  0
VERTEX
  5
132B
  8
0
 10
49.601115368387802
 20
149.4504344293378
 30
0.0
  0
VERTEX
  5
132C
  8
0
 10
49.413923476577388
 20
149.39605966905751
 30
0.0
  0
VERTEX
  5
132D
  8
0
 10
49.229222879147073
 20
149.3390107399822
 30
0.0
  0
VERTEX
  5
132E
  8
0
 10
49.137845284980358
 20
149.30952258128349
 30
0.0
  0
VERTEX
  5
132F
  8
0
 10
49.0471359218418
 20
149.27941348077709
 30
0.0
  0
VERTEX
  5
1330
  8
0
 10
48.867778796978143
 20
149.21739884444901
 30
0.0
  0
VERTEX
  5
1331
  8
0
 10
48.691261259639191
 20
149.15310242743891
 30
0.0
  0
VERTEX
  5
1332
  8
0
 10
48.604100062552106
 20
149.1201421701582
 30
0.0
  0
VERTEX
  5
1333
  8
0
 10
48.517687523401953
 20
149.08666442823181
 30
0.0
  0
VERTEX
  5
1334
  8
0
 10
48.34715774638363
 20
149.018229945033
 30
0.0
  0
VERTEX
  5
1335
  8
0
 10
48.179767871498818
 20
148.94794872836781
 30
0.0
  0
VERTEX
  5
1336
  8
0
 10
48.015609267130863
 20
148.87597482081969
 30
0.0
  0
VERTEX
  5
1337
  8
0
 10
47.854768451999462
 20
148.80246618826479
 30
0.0
  0
VERTEX
  5
1338
  8
0
 10
47.697326893639399
 20
148.72758434636091
 30
0.0
  0
VERTEX
  5
1339
  8
0
 10
47.619904878221632
 20
148.68967982381429
 30
0.0
  0
VERTEX
  5
133A
  8
0
 10
47.54336087116797
 20
148.651493985157
 30
0.0
  0
VERTEX
  5
133B
  8
0
 10
47.392799448230498
 20
148.57428848373709
 30
0.0
  0
VERTEX
  5
133C
  8
0
 10
47.244311346047141
 20
148.49537440110939
 30
0.0
  0
VERTEX
  5
133D
  8
0
 10
47.097556224963903
 20
148.41461293897601
 30
0.0
  0
VERTEX
  5
133E
  8
0
 10
46.952537510881257
 20
148.33203777158829
 30
0.0
  0
VERTEX
  5
133F
  8
0
 10
46.80925875841865
 20
148.24768205076009
 30
0.0
  0
VERTEX
  5
1340
  8
0
 10
46.738273013525763
 20
148.2048467100928
 30
0.0
  0
VERTEX
  5
1341
  8
0
 10
46.667723649549373
 20
148.16157844711529
 30
0.0
  0
VERTEX
  5
1342
  8
0
 10
46.527935989780872
 20
148.0737591889762
 30
0.0
  0
VERTEX
  5
1343
  8
0
 10
46.389899702181708
 20
147.98425609890819
 30
0.0
  0
VERTEX
  5
1344
  8
0
 10
46.253618819535802
 20
147.8931006279511
 30
0.0
  0
VERTEX
  5
1345
  8
0
 10
46.119097474885393
 20
147.8003238875782
 30
0.0
  0
VERTEX
  5
1346
  8
0
 10
45.986339890705722
 20
147.70595667943721
 30
0.0
  0
VERTEX
  5
1347
  8
0
 10
45.920623849844333
 20
147.65818619758221
 30
0.0
  0
VERTEX
  5
1348
  8
0
 10
45.855350366933742
 20
147.61002952293509
 30
0.0
  0
VERTEX
  5
1349
  8
0
 10
45.72613326805611
 20
147.5125726807357
 30
0.0
  0
VERTEX
  5
134A
  8
0
 10
45.598693009441767
 20
147.41361618224329
 30
0.0
  0
VERTEX
  5
134B
  8
0
 10
45.166709154475477
 20
147.05588745273701
 30
0.0
  0
VERTEX
  5
134C
  8
0
 10
44.477481194540637
 20
146.4043665476074
 30
0.0
  0
VERTEX
  5
134D
  8
0
 10
44.157412760246068
 20
146.06209696109951
 30
0.0
  0
VERTEX
  5
134E
  8
0
 10
43.853846134186249
 20
145.70984384893831
 30
0.0
  0
VERTEX
  5
134F
  8
0
 10
43.296567796122808
 20
144.97843214883801
 30
0.0
  0
VERTEX
  5
1350
  8
0
 10
42.806189494324251
 20
144.21619658632929
 30
0.0
  0
VERTEX
  5
1351
  8
0
 10
42.38291830400032
 20
143.42909701829811
 30
0.0
  0
VERTEX
  5
1352
  8
0
 10
42.026621628953237
 20
142.62304973101979
 30
0.0
  0
VERTEX
  5
1353
  8
0
 10
41.736851921282259
 20
141.80415145715409
 30
0.0
  0
VERTEX
  5
1354
  8
0
 10
41.616644501008572
 20
141.39179176416911
 30
0.0
  0
VERTEX
  5
1355
  8
0
 10
41.512678395911159
 20
140.9785034325067
 30
0.0
  0
VERTEX
  5
1356
  8
0
 10
41.35263297880271
 20
140.1521631920055
 30
0.0
  0
VERTEX
  5
1357
  8
0
 10
41.254681415591222
 20
139.33120897597431
 30
0.0
  0
VERTEX
  5
1358
  8
0
 10
41.228183573030947
 20
138.92464628472601
 30
0.0
  0
SEQEND
  5
1359
  8
0
  0
LINE
  5
8CC
  8
0
 10
41.228183573030947
 20
137.83558564689409
 30
0.0
 11
41.228183573030947
 21
138.92464628472561
 31
0.0
  0
POLYLINE
  5
8CE
  8
0
 66
     1
 10
0.0
 20
0.0
 30
0.0
  0
VERTEX
  5
135A
  8
0
 10
72.370962208915444
 20
147.24165442734841
 30
0.0
  0
VERTEX
  5
135B
  8
0
 10
72.212881369321167
 20
146.79285503798729
 30
0.0
  0
VERTEX
  5
135C
  8
0
 10
71.915439463518055
 20
145.86875664876669
 30
0.0
  0
VERTEX
  5
135D
  8
0
 10
71.644456518019581
 20
144.90471058056369
 30
0.0
  0
VERTEX
  5
135E
  8
0
 10
71.520843526580222
 20
144.41079192063609
 30
0.0
  0
VERTEX
  5
135F
  8
0
 10
71.40601414291541
 20
143.91063307027261
 30
0.0
  0
VERTEX
  5
1360
  8
0
 10
71.204747942649931
 20
142.8968389449673
 30
0.0
  0
VERTEX
  5
1361
  8
0
 10
71.043754162865071
 20
141.87389821228521
 30
0.0
  0
VERTEX
  5
1362
  8
0
 10
70.92455863917985
 20
140.8525595421161
 30
0.0
  0
VERTEX
  5
1363
  8
0
 10
70.847141488499005
 20
139.84403251336181
 30
0.0
  0
VERTEX
  5
1364
  8
0
 10
70.809901248091649
 20
138.85965964177441
 30
0.0
  0
VERTEX
  5
1365
  8
0
 10
70.80542771311201
 20
138.38011596580989
 30
0.0
  0
VERTEX
  5
1366
  8
0
 10
70.809901248091649
 20
137.9005722898454
 30
0.0
  0
VERTEX
  5
1367
  8
0
 10
70.847141488499005
 20
136.91619941825789
 30
0.0
  0
VERTEX
  5
1368
  8
0
 10
70.92455863917985
 20
135.90767238950369
 30
0.0
  0
VERTEX
  5
1369
  8
0
 10
71.043754162865071
 20
134.8863337193346
 30
0.0
  0
VERTEX
  5
136A
  8
0
 10
71.204747942649931
 20
133.86339298665251
 30
0.0
  0
VERTEX
  5
136B
  8
0
 10
71.406014142915467
 20
132.8495988613472
 30
0.0
  0
VERTEX
  5
136C
  8
0
 10
71.520843526580222
 20
132.34944001098381
 30
0.0
  0
VERTEX
  5
136D
  8
0
 10
71.644456518019638
 20
131.8555213510561
 30
0.0
  0
VERTEX
  5
136E
  8
0
 10
71.915439463518112
 20
130.89147528285309
 30
0.0
  0
VERTEX
  5
136F
  8
0
 10
72.212881369321167
 20
129.96737689363249
 30
0.0
  0
VERTEX
  5
1370
  8
0
 10
72.370962208915444
 20
129.51857750427141
 30
0.0
  0
SEQEND
  5
1371
  8
0
  0
POLYLINE
  5
8DD
  8
0
 66
     1
 10
0.0
 20
0.0
 30
0.0
  0
VERTEX
  5
1372
  8
0
 10
292.76474352791882
 20
50.813916293225418
 30
0.0
  0
VERTEX
  5
1373
  8
0
 10
292.76627418357458
 20
50.851818955852963
 30
0.0
  0
VERTEX
  5
1374
  8
0
 10
292.77920068239069
 20
50.930008360957373
 30
0.0
  0
VERTEX
  5
1375
  8
0
 10
292.80647845024271
 20
51.010286063006482
 30
0.0
  0
VERTEX
  5
1376
  8
0
 10
292.82579767929587
 20
51.050799432585961
 30
0.0
  0
VERTEX
  5
1377
  8
0
 10
292.84897913237143
 20
51.091347510591532
 30
0.0
  0
VERTEX
  5
1378
  8
0
 10
292.90689583395317
 20
51.171920435922431
 30
0.0
  0
VERTEX
  5
1379
  8
0
 10
292.97969420884237
 20
51.25075956448822
 30
0.0
  0
VERTEX
  5
137A
  8
0
 10
293.0660317628026
 20
51.326632488495143
 30
0.0
  0
VERTEX
  5
137B
  8
0
 10
293.16461452860182
 20
51.398964072932444
 30
0.0
  0
VERTEX
  5
137C
  8
0
 10
293.28289888122868
 20
51.472471462577261
 30
0.0
  0
VERTEX
  5
137D
  8
0
 10
293.35029590234649
 20
51.509585275636681
 30
0.0
  0
VERTEX
  5
137E
  8
0
 10
293.42307380633838
 20
51.54656347220466
 30
0.0
  0
VERTEX
  5
137F
  8
0
 10
293.58391468806713
 20
51.619050585894541
 30
0.0
  0
VERTEX
  5
1380
  8
0
 10
293.68630550145741
 20
51.659790599474029
 30
0.0
  0
VERTEX
  5
1381
  8
0
 10
293.71658795513821
 20
51.67115191015327
 30
0.0
  0
VERTEX
  5
1382
  8
0
 10
293.74728900554112
 20
51.682373825970132
 30
0.0
  0
VERTEX
  5
1383
  8
0
 10
293.76278930051592
 20
51.687929950536748
 30
0.0
  0
VERTEX
  5
1384
  8
0
 10
293.778385419904
 20
51.693448181054379
 30
0.0
  0
VERTEX
  5
1385
  8
0
 10
293.80985253178829
 20
51.704367032507491
 30
0.0
  0
VERTEX
  5
1386
  8
0
 10
293.84166426498513
 20
51.71512268414412
 30
0.0
  0
VERTEX
  5
1387
  8
0
 10
293.87379316683382
 20
51.725707710786082
 30
0.0
  0
VERTEX
  5
1388
  8
0
 10
293.90621045255449
 20
51.736114983254339
 30
0.0
  0
VERTEX
  5
1389
  8
0
 10
293.93888606243922
 20
51.746337694211121
 30
0.0
  0
VERTEX
  5
138A
  8
0
 10
293.95531101408699
 20
51.751377806418162
 30
0.0
  0
VERTEX
  5
138B
  8
0
 10
293.97178873402493
 20
51.75636938501367
 30
0.0
  0
VERTEX
  5
138C
  8
0
 10
294.00491348807128
 20
51.766212010138297
 30
0.0
  0
VERTEX
  5
138D
  8
0
 10
294.0388093552337
 20
51.776025748309763
 30
0.0
  0
VERTEX
  5
138E
  8
0
 10
294.07368916937958
 20
51.785860650205883
 30
0.0
  0
VERTEX
  5
138F
  8
0
 10
294.10953361924919
 20
51.795697719834628
 30
0.0
  0
VERTEX
  5
1390
  8
0
 10
294.14632123439912
 20
51.805518196790501
 30
0.0
  0
VERTEX
  5
1391
  8
0
 10
294.16506141945553
 20
51.810416427584897
 30
0.0
  0
VERTEX
  5
1392
  8
0
 10
294.1840283473835
 20
51.815303608227559
 30
0.0
  0
VERTEX
  5
1393
  8
0
 10
294.22262907023588
 20
51.82503582157441
 30
0.0
  0
VERTEX
  5
1394
  8
0
 10
294.2620952892089
 20
51.834697098477392
 30
0.0
  0
VERTEX
  5
1395
  8
0
 10
294.30239668216041
 20
51.844270150358788
 30
0.0
  0
VERTEX
  5
1396
  8
0
 10
294.34350076350012
 20
51.853738195877412
 30
0.0
  0
VERTEX
  5
1397
  8
0
 10
294.38537296222842
 20
51.863085020479637
 30
0.0
  0
VERTEX
  5
1398
  8
0
 10
294.40658575991279
 20
51.86770807801512
 30
0.0
  0
VERTEX
  5
1399
  8
0
 10
294.42797673930068
 20
51.872295038121052
 30
0.0
  0
VERTEX
  5
139A
  8
0
 10
294.47127375131163
 20
51.88135335511754
 30
0.0
  0
VERTEX
  5
139B
  8
0
 10
294.51522406982451
 20
51.890245836244759
 30
0.0
  0
VERTEX
  5
139C
  8
0
 10
294.53743139179733
 20
51.894625698209921
 30
0.0
  0
VERTEX
  5
139D
  8
0
 10
294.5597864339191
 20
51.89895916669974
 30
0.0
  0
VERTEX
  5
139E
  8
0
 10
294.60491721423602
 20
51.907480663838861
 30
0.0
  0
VERTEX
  5
139F
  8
0
 10
294.65056921982932
 20
51.915798101157058
 30
0.0
  0
VERTEX
  5
13A0
  8
0
 10
294.67357496789339
 20
51.919876620910742
 30
0.0
  0
VERTEX
  5
13A1
  8
0
 10
294.69669173789617
 20
51.923899789572367
 30
0.0
  0
VERTEX
  5
13A2
  8
0
 10
294.74323068605349
 20
51.931774672598237
 30
0.0
  0
VERTEX
  5
13A3
  8
0
 10
294.79012878567659
 20
51.939412415921957
 30
0.0
  0
VERTEX
  5
13A4
  8
0
 10
294.83732576190221
 20
51.946803491630106
 30
0.0
  0
VERTEX
  5
13A5
  8
0
 10
294.8847585765339
 20
51.953939257178767
 30
0.0
  0
VERTEX
  5
13A6
  8
0
 10
294.93236170086902
 20
51.960812029065401
 30
0.0
  0
VERTEX
  5
13A7
  8
0
 10
294.95620604825569
 20
51.964147670427742
 30
0.0
  0
VERTEX
  5
13A8
  8
0
 10
294.98006743639559
 20
51.967415151021932
 30
0.0
  0
VERTEX
  5
13A9
  8
0
 10
295.02780629241352
 20
51.973743056412133
 30
0.0
  0
VERTEX
  5
13AA
  8
0
 10
295.07550743096817
 20
51.979791324385673
 30
0.0
  0
VERTEX
  5
13AB
  8
0
 10
295.12313949318082
 20
51.9855614988995
 30
0.0
  0
VERTEX
  5
13AC
  8
0
 10
295.1716132793357
 20
51.991161760243322
 30
0.0
  0
VERTEX
  5
13AD
  8
0
 10
295.22127265849622
 20
51.996618985207441
 30
0.0
  0
VERTEX
  5
13AE
  8
0
 10
295.24652143156999
 20
51.999286337219559
 30
0.0
  0
VERTEX
  5
13AF
  8
0
 10
295.27203557388759
 20
52.001908953643863
 30
0.0
  0
VERTEX
  5
13B0
  8
0
 10
295.32381679901943
 20
52.007008848012589
 30
0.0
  0
VERTEX
  5
13B1
  8
0
 10
295.376528418833
 20
52.011897399016298
 30
0.0
  0
VERTEX
  5
13B2
  8
0
 10
295.40320506638028
 20
52.014256230677383
 30
0.0
  0
SEQEND
  5
13B3
  8
0
  0
POLYLINE
  5
8DE
  8
0
 66
     1
 10
0.0
 20
0.0
 30
0.0
  0
VERTEX
  5
13B4
  8
0
 10
295.40320506638028
 20
52.014256230677383
 30
0.0
  0
VERTEX
  5
13B5
  8
0
 10
295.85200445574139
 20
52.052208082481492
 30
0.0
  0
VERTEX
  5
13B6
  8
0
 10
296.776102844962
 20
52.12361756612512
 30
0.0
  0
VERTEX
  5
13B7
  8
0
 10
297.74014891316511
 20
52.18867481541227
 30
0.0
  0
VERTEX
  5
13B8
  8
0
 10
298.2340675730926
 20
52.218351669003233
 30
0.0
  0
VERTEX
  5
13B9
  8
0
 10
298.73422642345611
 20
52.245919764939401
 30
0.0
  0
VERTEX
  5
13BA
  8
0
 10
299.7480205487613
 20
52.294239504543931
 30
0.0
  0
VERTEX
  5
13BB
  8
0
 10
300.77096128144342
 20
52.332890691414292
 30
0.0
  0
VERTEX
  5
13BC
  8
0
 10
301.79229995161262
 20
52.36150700482856
 30
0.0
  0
VERTEX
  5
13BD
  8
0
 10
302.80082698036688
 20
52.380093218295507
 30
0.0
  0
VERTEX
  5
13BE
  8
0
 10
303.7851998519543
 20
52.389033809000352
 30
0.0
  0
VERTEX
  5
13BF
  8
0
 10
304.26474352791882
 20
52.39010780972697
 30
0.0
  0
VERTEX
  5
13C0
  8
0
 10
304.74428720388318
 20
52.389033809000352
 30
0.0
  0
VERTEX
  5
13C1
  8
0
 10
305.72866007547071
 20
52.380093218295507
 30
0.0
  0
VERTEX
  5
13C2
  8
0
 10
306.73718710422497
 20
52.36150700482856
 30
0.0
  0
VERTEX
  5
13C3
  8
0
 10
307.75852577439412
 20
52.332890691414292
 30
0.0
  0
VERTEX
  5
13C4
  8
0
 10
308.78146650707617
 20
52.294239504543931
 30
0.0
  0
VERTEX
  5
13C5
  8
0
 10
309.79526063238143
 20
52.245919764939401
 30
0.0
  0
VERTEX
  5
13C6
  8
0
 10
310.29541948274488
 20
52.218351669003233
 30
0.0
  0
VERTEX
  5
13C7
  8
0
 10
310.78933814267248
 20
52.18867481541227
 30
0.0
  0
VERTEX
  5
13C8
  8
0
 10
311.75338421087559
 20
52.123617566125148
 30
0.0
  0
VERTEX
  5
13C9
  8
0
 10
312.6774826000962
 20
52.052208082481513
 30
0.0
  0
VERTEX
  5
13CA
  8
0
 10
313.1262819894572
 20
52.014256230677383
 30
0.0
  0
SEQEND
  5
13CB
  8
0
  0
POLYLINE
  5
8DF
  8
0
 66
     1
 10
0.0
 20
0.0
 30
0.0
  0
VERTEX
  5
13CC
  8
0
 10
313.1262819894572
 20
52.014256230677383
 30
0.0
  0
VERTEX
  5
13CD
  8
0
 10
313.15295863700447
 20
52.011897399016298
 30
0.0
  0
VERTEX
  5
13CE
  8
0
 10
313.20567025681822
 20
52.007008848012589
 30
0.0
  0
VERTEX
  5
13CF
  8
0
 10
313.25745148194989
 20
52.001908953643863
 30
0.0
  0
VERTEX
  5
13D0
  8
0
 10
313.28296562426749
 20
51.999286337219559
 30
0.0
  0
VERTEX
  5
13D1
  8
0
 10
313.30821439734132
 20
51.996618985207441
 30
0.0
  0
VERTEX
  5
13D2
  8
0
 10
313.35787377650178
 20
51.991161760243322
 30
0.0
  0
VERTEX
  5
13D3
  8
0
 10
313.40634756265672
 20
51.9855614988995
 30
0.0
  0
VERTEX
  5
13D4
  8
0
 10
313.45397962486942
 20
51.979791324385673
 30
0.0
  0
VERTEX
  5
13D5
  8
0
 10
313.50168076342402
 20
51.973743056412133
 30
0.0
  0
VERTEX
  5
13D6
  8
0
 10
313.54941961944201
 20
51.967415151021932
 30
0.0
  0
VERTEX
  5
13D7
  8
0
 10
313.57328100758178
 20
51.964147670427742
 30
0.0
  0
VERTEX
  5
13D8
  8
0
 10
313.59712535496851
 20
51.960812029065401
 30
0.0
  0
VERTEX
  5
13D9
  8
0
 10
313.64472847930369
 20
51.953939257178767
 30
0.0
  0
VERTEX
  5
13DA
  8
0
 10
313.69216129393538
 20
51.946803491630106
 30
0.0
  0
VERTEX
  5
13DB
  8
0
 10
313.73935827016089
 20
51.939412415921957
 30
0.0
  0
VERTEX
  5
13DC
  8
0
 10
313.7862563697841
 20
51.931774672598237
 30
0.0
  0
VERTEX
  5
13DD
  8
0
 10
313.8327953179413
 20
51.923899789572367
 30
0.0
  0
VERTEX
  5
13DE
  8
0
 10
313.85591208794409
 20
51.919876620910742
 30
0.0
  0
VERTEX
  5
13DF
  8
0
 10
313.87891783600821
 20
51.915798101157058
 30
0.0
  0
VERTEX
  5
13E0
  8
0
 10
313.92456984160151
 20
51.907480663838861
 30
0.0
  0
VERTEX
  5
13E1
  8
0
 10
313.96970062191849
 20
51.89895916669974
 30
0.0
  0
VERTEX
  5
13E2
  8
0
 10
313.99205566404021
 20
51.894625698209921
 30
0.0
  0
VERTEX
  5
13E3
  8
0
 10
314.01426298601302
 20
51.890245836244759
 30
0.0
  0
VERTEX
  5
13E4
  8
0
 10
314.05821330452591
 20
51.88135335511754
 30
0.0
  0
VERTEX
  5
13E5
  8
0
 10
314.10151031653692
 20
51.872295038121052
 30
0.0
  0
VERTEX
  5
13E6
  8
0
 10
314.12290129592469
 20
51.86770807801512
 30
0.0
  0
VERTEX
  5
13E7
  8
0
 10
314.14411409360912
 20
51.863085020479637
 30
0.0
  0
VERTEX
  5
13E8
  8
0
 10
314.18598629233747
 20
51.853738195877412
 30
0.0
  0
VERTEX
  5
13E9
  8
0
 10
314.22709037367707
 20
51.844270150358788
 30
0.0
  0
VERTEX
  5
13EA
  8
0
 10
314.26739176662858
 20
51.834697098477392
 30
0.0
  0
VERTEX
  5
13EB
  8
0
 10
314.3068579856016
 20
51.82503582157441
 30
0.0
  0
VERTEX
  5
13EC
  8
0
 10
314.34545870845398
 20
51.815303608227559
 30
0.0
  0
VERTEX
  5
13ED
  8
0
 10
314.36442563638212
 20
51.810416427584862
 30
0.0
  0
VERTEX
  5
13EE
  8
0
 10
314.38316582143841
 20
51.805518196790501
 30
0.0
  0
VERTEX
  5
13EF
  8
0
 10
314.41995343658829
 20
51.795697719834628
 30
0.0
  0
VERTEX
  5
13F0
  8
0
 10
314.4557978864579
 20
51.785860650205883
 30
0.0
  0
VERTEX
  5
13F1
  8
0
 10
314.49067770060378
 20
51.776025748309763
 30
0.0
  0
VERTEX
  5
13F2
  8
0
 10
314.5245735677662
 20
51.766212010138297
 30
0.0
  0
VERTEX
  5
13F3
  8
0
 10
314.55769832181261
 20
51.75636938501367
 30
0.0
  0
VERTEX
  5
13F4
  8
0
 10
314.57417604175049
 20
51.751377806418162
 30
0.0
  0
VERTEX
  5
13F5
  8
0
 10
314.59060099339831
 20
51.746337694211121
 30
0.0
  0
VERTEX
  5
13F6
  8
0
 10
314.62327660328299
 20
51.736114983254339
 30
0.0
  0
VERTEX
  5
13F7
  8
0
 10
314.65569388900371
 20
51.725707710786082
 30
0.0
  0
VERTEX
  5
13F8
  8
0
 10
314.68782279085252
 20
51.71512268414412
 30
0.0
  0
VERTEX
  5
13F9
  8
0
 10
314.7196345240493
 20
51.70436703250752
 30
0.0
  0
VERTEX
  5
13FA
  8
0
 10
314.75110163593348
 20
51.693448181054379
 30
0.0
  0
VERTEX
  5
13FB
  8
0
 10
314.76669775532162
 20
51.687929950536748
 30
0.0
  0
VERTEX
  5
13FC
  8
0
 10
314.78219805029642
 20
51.682373825970132
 30
0.0
  0
VERTEX
  5
13FD
  8
0
 10
314.81289910069938
 20
51.67115191015327
 30
0.0
  0
VERTEX
  5
13FE
  8
0
 10
314.84318155438018
 20
51.659790599474071
 30
0.0
  0
VERTEX
  5
13FF
  8
0
 10
314.94557236777041
 20
51.619050585894541
 30
0.0
  0
VERTEX
  5
1400
  8
0
 10
315.10641324949921
 20
51.54656347220466
 30
0.0
  0
VERTEX
  5
1401
  8
0
 10
315.17919115349099
 20
51.509585275636709
 30
0.0
  0
VERTEX
  5
1402
  8
0
 10
315.24658817460892
 20
51.472471462577232
 30
0.0
  0
VERTEX
  5
1403
  8
0
 10
315.36487252723578
 20
51.398964072932444
 30
0.0
  0
VERTEX
  5
1404
  8
0
 10
315.463455293035
 20
51.3266324884951
 30
0.0
  0
VERTEX
  5
1405
  8
0
 10
315.54979284699522
 20
51.25075956448822
 30
0.0
  0
VERTEX
  5
1406
  8
0
 10
315.62259122188442
 20
51.171920435922431
 30
0.0
  0
VERTEX
  5
1407
  8
0
 10
315.68050792346622
 20
51.091347510591532
 30
0.0
  0
VERTEX
  5
1408
  8
0
 10
315.7036893765416
 20
51.050799432585961
 30
0.0
  0
VERTEX
  5
1409
  8
0
 10
315.72300860559483
 20
51.010286063006482
 30
0.0
  0
VERTEX
  5
140A
  8
0
 10
315.75028637344678
 20
50.930008360957373
 30
0.0
  0
VERTEX
  5
140B
  8
0
 10
315.7632128722629
 20
50.851818955852963
 30
0.0
  0
VERTEX
  5
140C
  8
0
 10
315.76474352791882
 20
50.813916293225418
 30
0.0
  0
SEQEND
  5
140D
  8
0
  0
POLYLINE
  5
8E2
  8
0
 66
     1
 10
0.0
 20
0.0
 30
0.0
  0
VERTEX
  5
140E
  8
0
 10
292.76474352791882
 20
55.806445926581141
 30
0.0
  0
VERTEX
  5
140F
  8
0
 10
295.85200445574139
 20
56.067514172195636
 30
0.0
  0
VERTEX
  5
1410
  8
0
 10
296.776102844962
 20
56.138923655839278
 30
0.0
  0
VERTEX
  5
1411
  8
0
 10
297.74014891316511
 20
56.203980905126429
 30
0.0
  0
VERTEX
  5
1412
  8
0
 10
298.2340675730926
 20
56.233657758717392
 30
0.0
  0
VERTEX
  5
1413
  8
0
 10
298.73422642345611
 20
56.26122585465356
 30
0.0
  0
VERTEX
  5
1414
  8
0
 10
299.7480205487613
 20
56.309545594258083
 30
0.0
  0
VERTEX
  5
1415
  8
0
 10
300.77096128144342
 20
56.348196781128451
 30
0.0
  0
VERTEX
  5
1416
  8
0
 10
301.79229995161262
 20
56.376813094542712
 30
0.0
  0
VERTEX
  5
1417
  8
0
 10
302.80082698036688
 20
56.395399308009672
 30
0.0
  0
VERTEX
  5
1418
  8
0
 10
303.7851998519543
 20
56.404339898714511
 30
0.0
  0
VERTEX
  5
1419
  8
0
 10
304.26474352791882
 20
56.405413899441129
 30
0.0
  0
VERTEX
  5
141A
  8
0
 10
304.74428720388318
 20
56.404339898714511
 30
0.0
  0
VERTEX
  5
141B
  8
0
 10
305.72866007547071
 20
56.395399308009672
 30
0.0
  0
VERTEX
  5
141C
  8
0
 10
306.73718710422497
 20
56.376813094542712
 30
0.0
  0
VERTEX
  5
141D
  8
0
 10
307.75852577439412
 20
56.348196781128451
 30
0.0
  0
VERTEX
  5
141E
  8
0
 10
308.78146650707617
 20
56.309545594258083
 30
0.0
  0
VERTEX
  5
141F
  8
0
 10
309.79526063238143
 20
56.26122585465356
 30
0.0
  0
VERTEX
  5
1420
  8
0
 10
310.29541948274488
 20
56.233657758717392
 30
0.0
  0
VERTEX
  5
1421
  8
0
 10
310.78933814267248
 20
56.203980905126429
 30
0.0
  0
VERTEX
  5
1422
  8
0
 10
311.75338421087559
 20
56.138923655839307
 30
0.0
  0
VERTEX
  5
1423
  8
0
 10
312.6774826000962
 20
56.067514172195672
 30
0.0
  0
VERTEX
  5
1424
  8
0
 10
315.76474352791882
 20
55.806445926580999
 30
0.0
  0
SEQEND
  5
1425
  8
0
  0
LINE
  5
8FE
  8
2
 62
     2
 10
187.86528445757881
 20
53.676924913735029
 30
0.0
 11
187.86528445757881
 21
48.107780294421268
 31
0.0
  0
LINE
  5
8FF
  8
2
 62
     2
 10
186.66528445757891
 20
55.91561883830704
 30
0.0
 11
186.66528445757891
 21
48.107780294421268
 31
0.0
  0
ARC
  5
900
  8
2
 62
     2
 10
131.03973196359411
 20
-225.70549893271209
 30
0.0
 40
285.10293258849941
 50
76.09258143665879
 51
78.503041410398623
  0
LINE
  5
903
  8
2
 62
     2
 10
200.76528445757879
 20
52.53050833527741
 30
0.0
 11
200.7652844575789
 21
48.107780294421268
 31
0.0
  0
LINE
  5
904
  8
2
 62
     2
 10
199.5652844575788
 20
51.039746421126949
 30
0.0
 11
199.5652844575788
 21
48.107780294421246
 31
0.0
  0
LINE
  5
907
  8
2
 62
     2
 10
55.865284457578809
 20
51.039746421126949
 30
0.0
 11
55.865284457578809
 21
48.107780294421246
 31
0.0
  0
LINE
  5
908
  8
2
 62
     2
 10
54.665284457578871
 20
52.53050833527741
 30
0.0
 11
54.665284457578771
 21
48.107780294421268
 31
0.0
  0
LINE
  5
909
  8
2
 10
54.665284457578771
 20
48.107780294421268
 30
0.0
 11
68.765284457578787
 21
48.107780294421268
 31
0.0
  0
ARC
  5
90A
  8
2
 62
     2
 10
124.3908369515636
 20
-225.70549893271209
 30
0.0
 40
285.10293258849941
 50
101.49695858960131
 51
103.9074185633412
  0
LINE
  5
90B
  8
2
 62
     2
 10
68.765284457578787
 20
55.91561883830704
 30
0.0
 11
68.765284457578787
 21
48.107780294421268
 31
0.0
  0
LINE
  5
90C
  8
2
 62
     2
 10
67.565284457578855
 20
53.676924913735029
 30
0.0
 11
67.565284457578855
 21
48.107780294421268
 31
0.0
  0
LINE
  5
90D
  8
0
 10
54.665284457578871
 20
52.53050833527741
 30
0.0
 11
54.665284457578871
 21
52.581929094960678
 31
0.0
  0
LINE
  5
90E
  8
0
 10
68.765284457578787
 20
55.967039597990293
 30
0.0
 11
68.765284457578787
 21
55.91561883830704
 31
0.0
  0
POLYLINE
  5
90F
  8
0
 66
     1
 10
0.0
 20
0.0
 30
0.0
  0
VERTEX
  5
1426
  8
0
 10
54.665284457578871
 20
52.581929094960678
 30
0.0
  0
VERTEX
  5
1427
  8
0
 10
54.666030122492771
 20
52.582108113267878
 30
0.0
  0
VERTEX
  5
1428
  8
0
 10
54.671994495426702
 20
52.583540032520567
 30
0.0
  0
VERTEX
  5
1429
  8
0
 10
54.683918194839862
 20
52.58640265947929
 30
0.0
  0
VERTEX
  5
142A
  8
0
 10
54.692111836032041
 20
52.588369778689071
 30
0.0
  0
VERTEX
  5
142B
  8
0
 10
54.701791132091778
 20
52.590693572075878
 30
0.0
  0
VERTEX
  5
142C
  8
0
 10
54.725598184893443
 20
52.596409139769861
 30
0.0
  0
VERTEX
  5
142D
  8
0
 10
54.755319210101341
 20
52.60354452662034
 30
0.0
  0
VERTEX
  5
142E
  8
0
 10
54.790929060760838
 20
52.612093695377723
 30
0.0
  0
VERTEX
  5
142F
  8
0
 10
54.832397607383321
 20
52.6220494125917
 30
0.0
  0
VERTEX
  5
1430
  8
0
 10
54.879689763438137
 20
52.633403254731547
 30
0.0
  0
VERTEX
  5
1431
  8
0
 10
54.905507382240899
 20
52.639601516616132
 30
0.0
  0
VERTEX
  5
1432
  8
0
 10
54.932765515039812
 20
52.646145615313351
 30
0.0
  0
VERTEX
  5
1433
  8
0
 10
54.991579954803797
 20
52.660265713027847
 30
0.0
  0
VERTEX
  5
1434
  8
0
 10
55.056083319842173
 20
52.675751600862782
 30
0.0
  0
VERTEX
  5
1435
  8
0
 10
55.126221033868433
 20
52.692590176210899
 30
0.0
  0
VERTEX
  5
1436
  8
0
 10
55.201933753374313
 20
52.71076719195645
 30
0.0
  0
VERTEX
  5
1437
  8
0
 10
55.283157417840123
 20
52.73026726852936
 30
0.0
  0
VERTEX
  5
1438
  8
0
 10
55.325814558970478
 20
52.740508342037828
 30
0.0
  0
VERTEX
  5
1439
  8
0
 10
55.369823303936762
 20
52.751073906918002
 30
0.0
  0
VERTEX
  5
143A
  8
0
 10
55.461858083672382
 20
52.773169502629138
 30
0.0
  0
VERTEX
  5
143B
  8
0
 10
55.55918388643488
 20
52.796535360582851
 30
0.0
  0
VERTEX
  5
143C
  8
0
 10
55.609805360898569
 20
52.808688501354879
 30
0.0
  0
VERTEX
  5
143D
  8
0
 10
55.661718364878531
 20
52.821151710930501
 30
0.0
  0
VERTEX
  5
143E
  8
0
 10
55.769374764597963
 20
52.846997725782209
 30
0.0
  0
VERTEX
  5
143F
  8
0
 10
55.882061997531203
 20
52.874051536828972
 30
0.0
  0
VERTEX
  5
1440
  8
0
 10
55.94026254534139
 20
52.888024252125028
 30
0.0
  0
VERTEX
  5
1441
  8
0
 10
55.999684719028892
 20
52.902290253845763
 30
0.0
  0
VERTEX
  5
1442
  8
0
 10
56.122143408525631
 20
52.931689984058721
 30
0.0
  0
VERTEX
  5
1443
  8
0
 10
56.249334453744488
 20
52.96222585236098
 30
0.0
  0
VERTEX
  5
1444
  8
0
 10
56.381150238363027
 20
52.993872022359369
 30
0.0
  0
VERTEX
  5
1445
  8
0
 10
56.517479233067426
 20
53.026601718234652
 30
0.0
  0
VERTEX
  5
1446
  8
0
 10
56.658206089917833
 20
53.060387247396541
 30
0.0
  0
VERTEX
  5
1447
  8
0
 10
56.730181650213687
 20
53.07766705059646
 30
0.0
  0
VERTEX
  5
1448
  8
0
 10
56.803211739943663
 20
53.095200023914337
 30
0.0
  0
VERTEX
  5
1449
  8
0
 10
56.952373493888437
 20
53.131010592703603
 30
0.0
  0
VERTEX
  5
144A
  8
0
 10
57.105565146016481
 20
53.167788654447953
 30
0.0
  0
VERTEX
  5
144B
  8
0
 10
57.26265708089624
 20
53.205503091235357
 30
0.0
  0
VERTEX
  5
144C
  8
0
 10
57.423516383067408
 20
53.244121992887102
 30
0.0
  0
VERTEX
  5
144D
  8
0
 10
57.588006949500709
 20
53.283612683956811
 30
0.0
  0
VERTEX
  5
144E
  8
0
 10
57.671570581303968
 20
53.303674536984367
 30
0.0
  0
VERTEX
  5
144F
  8
0
 10
57.7559896047552
 20
53.323941751377298
 30
0.0
  0
VERTEX
  5
1450
  8
0
 10
57.927322218733707
 20
53.365075072731202
 30
0.0
  0
VERTEX
  5
1451
  8
0
 10
58.101859826939737
 20
53.406977845122121
 30
0.0
  0
VERTEX
  5
1452
  8
0
 10
58.279454753131752
 20
53.449614614621233
 30
0.0
  0
VERTEX
  5
1453
  8
0
 10
58.45995673427182
 20
53.49294930626484
 30
0.0
  0
VERTEX
  5
1454
  8
0
 10
58.64321304766338
 20
53.536945254577489
 30
0.0
  0
VERTEX
  5
1455
  8
0
 10
58.735825712306912
 20
53.5591795881802
 30
0.0
  0
VERTEX
  5
1456
  8
0
 10
58.829068640169908
 20
53.581565234594528
 30
0.0
  0
VERTEX
  5
1457
  8
0
 10
59.01736625940498
 20
53.626771493358227
 30
0.0
  0
VERTEX
  5
1458
  8
0
 10
59.207946586783919
 20
53.672525781860479
 30
0.0
  0
VERTEX
  5
1459
  8
0
 10
59.40064837232319
 20
53.718789387405252
 30
0.0
  0
VERTEX
  5
145A
  8
0
 10
59.595308571073701
 20
53.76552316636355
 30
0.0
  0
VERTEX
  5
145B
  8
0
 10
59.791762481073192
 20
53.812687577292678
 30
0.0
  0
VERTEX
  5
145C
  8
0
 10
59.890610189606043
 20
53.836418812495161
 30
0.0
  0
VERTEX
  5
145D
  8
0
 10
59.989843882700818
 20
53.860242714392307
 30
0.0
  0
VERTEX
  5
145E
  8
0
 10
60.189385179315202
 20
53.908148341268713
 30
0.0
  0
VERTEX
  5
145F
  8
0
 10
60.390217539058078
 20
53.956363924978909
 30
0.0
  0
VERTEX
  5
1460
  8
0
 10
60.592171037702769
 20
54.00484867032543
 30
0.0
  0
VERTEX
  5
1461
  8
0
 10
60.7950748024275
 20
54.053561554373211
 30
0.0
  0
VERTEX
  5
1462
  8
0
 10
60.99875715639007
 20
54.102461361159051
 30
0.0
  0
VERTEX
  5
1463
  8
0
 10
61.100836471207799
 20
54.12696843638826
 30
0.0
  0
VERTEX
  5
1464
  8
0
 10
61.203045763984392
 20
54.151506716564512
 30
0.0
  0
VERTEX
  5
1465
  8
0
 10
61.407767776653259
 20
54.200656123322432
 30
0.0
  0
VERTEX
  5
1466
  8
0
 10
61.612749979135167
 20
54.249867996127811
 30
0.0
  0
VERTEX
  5
1467
  8
0
 10
61.715284457578832
 20
54.274484346475482
 30
0.0
  0
VERTEX
  5
1468
  8
0
 10
61.817818936022491
 20
54.29910069682316
 30
0.0
  0
VERTEX
  5
1469
  8
0
 10
62.022801138504413
 20
54.348312569628547
 30
0.0
  0
VERTEX
  5
146A
  8
0
 10
62.227523151173273
 20
54.397461976386438
 30
0.0
  0
VERTEX
  5
146B
  8
0
 10
62.329732443949872
 20
54.422000256562711
 30
0.0
  0
VERTEX
  5
146C
  8
0
 10
62.431811758767601
 20
54.446507331791913
 30
0.0
  0
VERTEX
  5
146D
  8
0
 10
62.63549411273015
 20
54.495407138577782
 30
0.0
  0
VERTEX
  5
146E
  8
0
 10
62.838397877454888
 20
54.544120022625549
 30
0.0
  0
VERTEX
  5
146F
  8
0
 10
63.040351376099572
 20
54.592604767972063
 30
0.0
  0
VERTEX
  5
1470
  8
0
 10
63.241183735842469
 20
54.640820351682258
 30
0.0
  0
VERTEX
  5
1471
  8
0
 10
63.440725032456832
 20
54.688725978558672
 30
0.0
  0
VERTEX
  5
1472
  8
0
 10
63.539958725551628
 20
54.712549880455811
 30
0.0
  0
VERTEX
  5
1473
  8
0
 10
63.638806434084472
 20
54.736281115658272
 30
0.0
  0
VERTEX
  5
1474
  8
0
 10
63.835260344083963
 20
54.783445526587393
 30
0.0
  0
VERTEX
  5
1475
  8
0
 10
64.029920542834475
 20
54.830179305545698
 30
0.0
  0
VERTEX
  5
1476
  8
0
 10
64.222622328373745
 20
54.876442911090493
 30
0.0
  0
VERTEX
  5
1477
  8
0
 10
64.413202655752684
 20
54.922197199592738
 30
0.0
  0
VERTEX
  5
1478
  8
0
 10
64.601500274987757
 20
54.967403458356443
 30
0.0
  0
VERTEX
  5
1479
  8
0
 10
64.694743202850759
 20
54.98978910477075
 30
0.0
  0
VERTEX
  5
147A
  8
0
 10
64.787355867494284
 20
55.012023438373483
 30
0.0
  0
VERTEX
  5
147B
  8
0
 10
64.970612180885837
 20
55.056019386686131
 30
0.0
  0
VERTEX
  5
147C
  8
0
 10
65.15111416202592
 20
55.099354078329732
 30
0.0
  0
VERTEX
  5
147D
  8
0
 10
65.328709088217906
 20
55.141990847828822
 30
0.0
  0
VERTEX
  5
147E
  8
0
 10
65.503246696423957
 20
55.183893620219749
 30
0.0
  0
VERTEX
  5
147F
  8
0
 10
65.674579310402464
 20
55.225026941573667
 30
0.0
  0
VERTEX
  5
1480
  8
0
 10
65.758998333853697
 20
55.245294155966597
 30
0.0
  0
VERTEX
  5
1481
  8
0
 10
65.842561965656841
 20
55.265356008994132
 30
0.0
  0
VERTEX
  5
1482
  8
0
 10
66.007052532090256
 20
55.304846700063841
 30
0.0
  0
VERTEX
  5
1483
  8
0
 10
66.167911834261403
 20
55.3434656017156
 30
0.0
  0
VERTEX
  5
1484
  8
0
 10
66.325003769141176
 20
55.381180038503032
 30
0.0
  0
VERTEX
  5
1485
  8
0
 10
66.47819542126922
 20
55.41795810024734
 30
0.0
  0
VERTEX
  5
1486
  8
0
 10
66.627357175214001
 20
55.453768669036599
 30
0.0
  0
VERTEX
  5
1487
  8
0
 10
66.700387264943956
 20
55.471301642354518
 30
0.0
  0
VERTEX
  5
1488
  8
0
 10
66.772362825239838
 20
55.488581445554424
 30
0.0
  0
VERTEX
  5
1489
  8
0
 10
66.913089682090231
 20
55.522366974716313
 30
0.0
  0
VERTEX
  5
148A
  8
0
 10
67.04941867679463
 20
55.555096670591581
 30
0.0
  0
VERTEX
  5
148B
  8
0
 10
67.181234461413169
 20
55.586742840589977
 30
0.0
  0
VERTEX
  5
148C
  8
0
 10
67.308425506632034
 20
55.617278708892229
 30
0.0
  0
VERTEX
  5
148D
  8
0
 10
67.430884196128773
 20
55.646678439105187
 30
0.0
  0
VERTEX
  5
148E
  8
0
 10
67.490306369816153
 20
55.660944440825908
 30
0.0
  0
VERTEX
  5
148F
  8
0
 10
67.548506917626469
 20
55.674917156121978
 30
0.0
  0
VERTEX
  5
1490
  8
0
 10
67.661194150559709
 20
55.701970967168762
 30
0.0
  0
VERTEX
  5
1491
  8
0
 10
67.768850550279126
 20
55.727816982020443
 30
0.0
  0
VERTEX
  5
1492
  8
0
 10
67.820763554259088
 20
55.740280191596071
 30
0.0
  0
VERTEX
  5
1493
  8
0
 10
67.871385028722784
 20
55.75243333236812
 30
0.0
  0
VERTEX
  5
1494
  8
0
 10
67.968710831485282
 20
55.775799190321813
 30
0.0
  0
VERTEX
  5
1495
  8
0
 10
68.060745611220909
 20
55.797894786032941
 30
0.0
  0
VERTEX
  5
1496
  8
0
 10
68.104754356187186
 20
55.808460350913151
 30
0.0
  0
VERTEX
  5
1497
  8
0
 10
68.147411497317535
 20
55.818701424421619
 30
0.0
  0
VERTEX
  5
1498
  8
0
 10
68.228635161783359
 20
55.838201500994501
 30
0.0
  0
VERTEX
  5
1499
  8
0
 10
68.304347881289232
 20
55.856378516740051
 30
0.0
  0
VERTEX
  5
149A
  8
0
 10
68.374485595315491
 20
55.873217092088169
 30
0.0
  0
VERTEX
  5
149B
  8
0
 10
68.438988960353868
 20
55.888702979923089
 30
0.0
  0
VERTEX
  5
149C
  8
0
 10
68.497803400117846
 20
55.902823077637613
 30
0.0
  0
VERTEX
  5
149D
  8
0
 10
68.525061532916766
 20
55.909367176334818
 30
0.0
  0
VERTEX
  5
149E
  8
0
 10
68.550879151719528
 20
55.91556543821941
 30
0.0
  0
VERTEX
  5
149F
  8
0
 10
68.598171307774351
 20
55.926919280359272
 30
0.0
  0
VERTEX
  5
14A0
  8
0
 10
68.639639854396805
 20
55.93687499757322
 30
0.0
  0
VERTEX
  5
14A1
  8
0
 10
68.675249705056331
 20
55.945424166330611
 30
0.0
  0
VERTEX
  5
14A2
  8
0
 10
68.704970730264222
 20
55.952559553181118
 30
0.0
  0
VERTEX
  5
14A3
  8
0
 10
68.728777783065865
 20
55.958275120875101
 30
0.0
  0
VERTEX
  5
14A4
  8
0
 10
68.738457079125624
 20
55.96059891426188
 30
0.0
  0
VERTEX
  5
14A5
  8
0
 10
68.746650720317916
 20
55.96256603347166
 30
0.0
  0
VERTEX
  5
14A6
  8
0
 10
68.758574419730962
 20
55.965428660430412
 30
0.0
  0
VERTEX
  5
14A7
  8
0
 10
68.764538792664894
 20
55.9668605796831
 30
0.0
  0
VERTEX
  5
14A8
  8
0
 10
68.765284457578787
 20
55.967039597990293
 30
0.0
  0
SEQEND
  5
14A9
  8
0
  0
LINE
  5
910
  8
0
 10
54.080474180783078
 20
52.390107809726999
 30
0.0
 11
70.805427713112067
 21
56.40541389944115
 31
0.0
  0
ARC
  5
911
  8
0
 10
60.215284457582008
 20
34.407780294413158
 30
0.0
 40
19.000000000008711
 50
108.8374724403123
 51
113.24956259058629
  0
LINE
  5
930
  8
1
 10
127.7152844575788
 20
92.607780294421275
 30
0.0
 11
127.7152844575788
 21
73.607780294421332
 31
0.0
  0
ARC
  5
938
  8
2
 10
304.26474352791882
 20
114.6077802944211
 30
0.0
 40
35.999999999999801
 50
255.7499673021932
 51
284.25003269780677
  0
ARC
  5
939
  8
2
 10
296.26474352791882
 20
83.107780294421332
 30
0.0
 40
3.5000000000000129
 50
180.0
 51
255.7499673021932
  0
ARC
  5
93A
  8
2
 10
312.26474352791871
 20
83.107780294421332
 30
0.0
 40
3.499999999999992
 50
284.25003269780041
 51
0.0
  0
LINE
  5
AFF
  8
2
 10
57.715284457578832
 20
35.107780294421282
 30
0.0
 11
57.715284457578832
 21
48.107780294421268
 31
0.0
  0
LINE
  5
B00
  8
2
 10
65.715284457578832
 20
35.107780294421282
 30
0.0
 11
65.715284457578832
 21
48.107780294421268
 31
0.0
  0
LINE
  5
B08
  8
2
 10
65.715284457578832
 20
47.107780294421268
 30
0.0
 11
57.715284457578832
 21
47.107780294421268
 31
0.0
  0
LINE
  5
B0D
  8
2
 10
65.038784457578828
 20
35.784280294421279
 30
0.0
 11
58.391784457578837
 21
35.784280294421279
 31
0.0
  0
LINE
  5
B37
  8
2
 10
58.391784457578837
 20
35.784280294421279
 30
0.0
 11
57.715284457578832
 21
35.107780294421282
 31
0.0
  0
LINE
  5
B38
  8
2
 10
65.715284457578832
 20
35.107780294421282
 30
0.0
 11
65.038784457578828
 21
35.784280294421279
 31
0.0
  0
LINE
  5
B39
  8
2
 10
58.391784457578837
 20
47.107780294421268
 30
0.0
 11
58.391784457578837
 21
35.784280294421279
 31
0.0
  0
LINE
  5
B3A
  8
2
 10
65.038784457578828
 20
35.784280294421279
 30
0.0
 11
65.038784457578828
 21
47.107780294421268
 31
0.0
  0
LINE
  5
B3D
  8
2
 10
197.0387844575788
 20
35.784280294421279
 30
0.0
 11
197.0387844575788
 21
47.107780294421268
 31
0.0
  0
LINE
  5
B3E
  8
2
 10
190.39178445757881
 20
47.107780294421268
 30
0.0
 11
190.39178445757881
 21
35.784280294421279
 31
0.0
  0
LINE
  5
B3F
  8
2
 10
197.7152844575788
 20
35.107780294421282
 30
0.0
 11
197.0387844575788
 21
35.784280294421279
 31
0.0
  0
LINE
  5
B40
  8
2
 10
190.39178445757881
 20
35.784280294421279
 30
0.0
 11
189.7152844575788
 21
35.107780294421282
 31
0.0
  0
LINE
  5
B41
  8
2
 10
197.0387844575788
 20
35.784280294421279
 30
0.0
 11
190.39178445757881
 21
35.784280294421279
 31
0.0
  0
LINE
  5
B42
  8
2
 10
197.7152844575788
 20
47.107780294421268
 30
0.0
 11
189.7152844575788
 21
47.107780294421268
 31
0.0
  0
LINE
  5
B43
  8
2
 10
197.7152844575788
 20
35.107780294421282
 30
0.0
 11
197.7152844575788
 21
48.107780294421268
 31
0.0
  0
LINE
  5
B44
  8
2
 10
189.7152844575788
 20
35.107780294421282
 30
0.0
 11
189.7152844575788
 21
48.107780294421268
 31
0.0
  0
LINE
  5
B45
  8
2
 10
186.66528445757871
 20
48.107780294421268
 30
0.0
 11
200.76528445757879
 21
48.107780294421268
 31
0.0
  0
TEXT
  5
C25
  8
0
 62
     3
 10
0.0
 20
0.0
 30
0.0
 40
10.0
  1
AGRR170
  7
STANDARD1
  0
ENDSEC
  0
EOF
