  0
SECTION
  2
HEADER
  9
$ACADVER
  1
AC1009
  9
$INSBASE
 10
0.0
 20
0.0
 30
0.0
  9
$EXTMIN
 10
-0.0204638472032742
 20
-2.960436562073669
 30
0.0
  9
$EXTMAX
 10
200.3880915674047
 20
133.70207173575329
 30
0.0
  9
$LIMMIN
 10
0.0
 20
0.0
  9
$LIMMAX
 10
385.0
 20
270.0
  9
$ORTHOMODE
 70
     1
  9
$REGENMODE
 70
     1
  9
$FILLMODE
 70
     1
  9
$QTEXTMODE
 70
     0
  9
$MIRRTEXT
 70
     0
  9
$DRAGMODE
 70
     2
  9
$LTSCALE
 40
10.0
  9
$OSMODE
 70
  3071
  9
$ATTMODE
 70
     1
  9
$TEXTSIZE
 40
4.0
  9
$TRACEWID
 40
0.05
  9
$TEXTSTYLE
  7
STANDARD
  9
$CLAYER
  8
0
  9
$CELTYPE
  6
BYLAYER
  9
$CECOLOR
 62
   256
  9
$DIMSCALE
 40
1.0
  9
$DIMASZ
 40
3.0
  9
$DIMEXO
 40
1.0
  9
$DIMDLI
 40
6.0
  9
$DIMRND
 40
0.0
  9
$DIMDLE
 40
0.0
  9
$DIMEXE
 40
1.0
  9
$DIMTP
 40
495.0
  9
$DIMTM
 40
0.0
  9
$DIMTXT
 40
3.0
  9
$DIMCEN
 40
0.0
  9
$DIMTSZ
 40
0.0
  9
$DIMTOL
 70
     0
  9
$DIMLIM
 70
     0
  9
$DIMTIH
 70
     0
  9
$DIMTOH
 70
     0
  9
$DIMSE1
 70
     0
  9
$DIMSE2
 70
     0
  9
$DIMTAD
 70
     1
  9
$DIMZIN
 70
     0
  9
$DIMBLK
  1

  9
$DIMASO
 70
     1
  9
$DIMSHO
 70
     0
  9
$DIMPOST
  1

  9
$DIMAPOST
  1

  9
$DIMALT
 70
     0
  9
$DIMALTD
 70
     2
  9
$DIMALTF
 40
25.399999999999999
  9
$DIMLFAC
 40
1.0
  9
$DIMTOFL
 70
     1
  9
$DIMTVP
 40
0.0
  9
$DIMTIX
 70
     1
  9
$DIMSOXD
 70
     0
  9
$DIMSAH
 70
     0
  9
$DIMBLK1
  1

  9
$DIMBLK2
  1

  9
$DIMSTYLE
  2
STANDARD
  9
$DIMCLRD
 70
     0
  9
$DIMCLRE
 70
     0
  9
$DIMCLRT
 70
     4
  9
$DIMTFAC
 40
1.0
  9
$DIMGAP
 40
1.0
  9
$LUNITS
 70
     2
  9
$LUPREC
 70
     4
  9
$SKETCHINC
 40
0.1
  9
$FILLETRAD
 40
0.0
  9
$AUNITS
 70
     0
  9
$AUPREC
 70
     0
  9
$MENU
  1
E:\r13\win\SUPPORT\ACAD
  9
$ELEVATION
 40
0.0
  9
$PELEVATION
 40
0.0
  9
$THICKNESS
 40
0.0
  9
$LIMCHECK
 70
     0
  9
$BLIPMODE
 70
     0
  9
$CHAMFERA
 40
0.0
  9
$CHAMFERB
 40
0.0
  9
$SKPOLY
 70
     0
  9
$TDCREATE
 40
2450541.3939600689
  9
$TDUPDATE
 40
2456597.5013725348
  9
$TDINDWG
 40
0.0564893287
  9
$TDUSRTIMER
 40
0.0564893287
  9
$USRTIMER
 70
     1
  9
$ANGBASE
 50
0.0
  9
$ANGDIR
 70
     0
  9
$PDMODE
 70
     0
  9
$PDSIZE
 40
0.0
  9
$PLINEWID
 40
0.0
  9
$COORDS
 70
     1
  9
$SPLFRAME
 70
     0
  9
$SPLINETYPE
 70
     6
  9
$SPLINESEGS
 70
     8
  9
$ATTDIA
 70
     0
  9
$ATTREQ
 70
     1
  9
$HANDLING
 70
     1
  9
$HANDSEED
  5
B96
  9
$SURFTAB1
 70
     6
  9
$SURFTAB2
 70
     6
  9
$SURFTYPE
 70
     6
  9
$SURFU
 70
     6
  9
$SURFV
 70
     6
  9
$UCSNAME
  2

  9
$UCSORG
 10
0.0
 20
0.0
 30
0.0
  9
$UCSXDIR
 10
1.0
 20
0.0
 30
0.0
  9
$UCSYDIR
 10
0.0
 20
1.0
 30
0.0
  9
$PUCSNAME
  2

  9
$PUCSORG
 10
0.0
 20
0.0
 30
0.0
  9
$PUCSXDIR
 10
1.0
 20
0.0
 30
0.0
  9
$PUCSYDIR
 10
0.0
 20
1.0
 30
0.0
  9
$USERI1
 70
     3
  9
$USERI2
 70
     1
  9
$USERI3
 70
     1
  9
$USERI4
 70
     0
  9
$USERI5
 70
     0
  9
$USERR1
 40
1.0
  9
$USERR2
 40
3.0
  9
$USERR3
 40
3.0
  9
$USERR4
 40
3.0
  9
$USERR5
 40
10.0
  9
$WORLDVIEW
 70
     1
  9
$SHADEDGE
 70
     3
  9
$SHADEDIF
 70
    70
  9
$TILEMODE
 70
     1
  9
$MAXACTVP
 70
    16
  9
$PLIMCHECK
 70
     0
  9
$PEXTMIN
 10
1.0000000000000000E+020
 20
1.0000000000000000E+020
 30
1.0000000000000000E+020
  9
$PEXTMAX
 10
-1.0000000000000000E+020
 20
-1.0000000000000000E+020
 30
-1.0000000000000000E+020
  9
$PLIMMIN
 10
0.0
 20
0.0
  9
$PLIMMAX
 10
12.0
 20
9.0
  9
$UNITMODE
 70
     0
  9
$VISRETAIN
 70
     0
  9
$PLINEGEN
 70
     0
  9
$PSLTSCALE
 70
     0
  0
ENDSEC
  0
SECTION
  2
TABLES
  0
TABLE
  2
VPORT
 70
     1
  0
VPORT
  2
*ACTIVE
 70
     0
 10
0.0
 20
0.0
 11
1.0
 21
1.0
 12
200.0432691713483
 22
133.5127261426681
 13
0.0
 23
0.0
 14
5.0
 24
5.0
 15
10.0
 25
10.0
 16
0.0
 26
0.0
 36
1.0
 17
0.0
 27
0.0
 37
0.0
 40
275.42274993631997
 41
1.831871345029239
 42
50.0
 43
0.0
 44
0.0
 50
0.0
 51
0.0
 71
     0
 72
   100
 73
     1
 74
     0
 75
     0
 76
     0
 77
     0
 78
     0
  0
ENDTAB
  0
TABLE
  2
LTYPE
 70
     4
  0
LTYPE
  2
CONTINUOUS
 70
     0
  3
Solid Line
 72
    65
 73
     0
 40
0.0
  0
LTYPE
  2
CENTER
 70
     0
  3
____ _ ____ _ ____ _ ____ _ ____ _ ____ _ ____
 72
    65
 73
     4
 40
2.0
 49
1.25
 49
-0.25
 49
0.25
 49
-0.25
  0
LTYPE
  2
HIDDEN
 70
     0
  3
_ _ _ _ _ _ _ _ _ _ _ _ _ _ _ _ _ _ _ _ _ _ _
 72
    65
 73
     2
 40
0.375
 49
0.25
 49
-0.125
  0
LTYPE
  2
PHANTOM2
 70
     0
  3
___ _ _ ___ _ _ ___ _ _ ___ _ _
 72
    65
 73
     6
 40
1.25
 49
0.625
 49
-0.125
 49
0.125
 49
-0.125
 49
0.125
 49
-0.125
  0
ENDTAB
  0
TABLE
  2
LAYER
 70
     2
  0
LAYER
  2
0
 70
     0
 62
     7
  6
CONTINUOUS
  0
LAYER
  2
DEFPOINTS
 70
     0
 62
     7
  6
CONTINUOUS
  0
ENDTAB
  0
TABLE
  2
STYLE
 70
     2
  0
STYLE
  2
STANDARD
 70
     0
 40
0.0
 41
1.0
 50
0.0
 71
     0
 42
4.0
  3
SIMPLEX
  4
BIGFONT
  0
STYLE
  2
STANDARD1
 70
     0
 40
0.0
 41
1.0
 50
0.0
 71
     0
 42
3.0
  3
txt
  4

  0
ENDTAB
  0
TABLE
  2
VIEW
 70
     0
  0
ENDTAB
  0
TABLE
  2
UCS
 70
     0
  0
ENDTAB
  0
TABLE
  2
APPID
 70
    12
  0
APPID
  2
ACAD
 70
     0
  0
APPID
  2
ASM_BASE
 70
     0
  0
APPID
  2
ASM_EXPLO_VER_2_00
 70
     0
  0
APPID
  2
ASM_CADM_VER_12_00
 70
     0
  0
APPID
  2
ASM_BASEFORO
 70
     0
  0
APPID
  2
ASM_BASETRAVI
 70
     0
  0
APPID
  2
ASM_BASETRAVI1
 70
     0
  0
APPID
  2
ASM_GRUPPI
 70
     0
  0
APPID
  2
ASM_CADM_ALBERO
 70
     0
  0
APPID
  2
ASM_GOLE
 70
     0
  0
APPID
  2
ACAD_MLEADERVER
 70
     0
  0
APPID
  2
ACAD_NAV_VCDISPLAY
 70
     0
  0
ENDTAB
  0
TABLE
  2
DIMSTYLE
 70
     1
  0
DIMSTYLE
  2
STANDARD
 70
     0
  3

  4

  5

  6

  7

 40
1.0
 41
0.18
 42
0.0625
 43
0.38
 44
0.18
 45
0.0
 46
0.0
 47
0.0
 48
0.0
140
0.18
141
0.09
142
0.0
143
25.399999999999999
144
1.0
145
0.0
146
1.0
147
0.09
 71
     0
 72
     0
 73
     1
 74
     1
 75
     0
 76
     0
 77
     0
 78
     0
170
     0
171
     2
172
     0
173
     0
174
     0
175
     0
176
     0
177
     0
178
     0
  0
ENDTAB
  0
ENDSEC
  0
SECTION
  2
BLOCKS
  0
BLOCK
  8
0
  2
$MODEL_SPACE
 70
     0
 10
0.0
 20
0.0
 30
0.0
  3
$MODEL_SPACE
  1

  0
ENDBLK
  5
8B6
  8
0
  0
BLOCK
 67
     1
  8
0
  2
$PAPER_SPACE
 70
     0
 10
0.0
 20
0.0
 30
0.0
  3
$PAPER_SPACE
  1

  0
ENDBLK
  5
8B4
 67
     1
  8
0
  0
ENDSEC
  0
SECTION
  2
ENTITIES
  0
LINE
  5
70E
  8
0
  6
CONTINUOUS
 62
     7
 10
103.8880915674047
 20
108.20207173575329
 30
0.0
 11
179.8880915674047
 21
108.20207173575329
 31
0.0
  0
LINE
  5
70F
  8
0
  6
CONTINUOUS
 62
     7
 10
103.8880915674048
 20
128.20207173575329
 30
0.0
 11
179.8880915674047
 21
128.20207173575329
 31
0.0
  0
LINE
  5
710
  8
0
  6
CONTINUOUS
 62
     7
 10
106.08594097003591
 20
118.20207173575329
 30
0.0
 11
177.69024216477339
 21
118.20207173575309
 31
0.0
  0
LINE
  5
711
  8
0
  6
CENTER
 62
     1
 10
83.388091567404672
 20
118.20207173575329
 30
0.0
 11
200.3880915674047
 21
118.20207173575329
 31
0.0
  0
CIRCLE
  5
712
  8
0
  6
CONTINUOUS
 62
     7
 10
95.138091567404729
 20
118.20207173575329
 30
0.0
 40
5.0
  0
LINE
  5
713
  8
0
  6
CONTINUOUS
 62
     7
 10
99.388091567404729
 20
124.70207173575329
 30
0.0
 11
88.502422130857894
 21
124.70207173575329
 31
0.0
  0
LINE
  5
715
  8
0
  6
CONTINUOUS
 62
     7
 10
103.8880915674047
 20
128.70207173575329
 30
0.0
 11
91.615045504777413
 21
128.70207173575329
 31
0.0
  0
LINE
  5
716
  8
0
  6
CONTINUOUS
 62
     7
 10
103.8880915674047
 20
107.70207173575329
 30
0.0
 11
91.615048202175615
 21
107.70207173575329
 31
0.0
  0
LINE
  5
717
  8
0
  6
CONTINUOUS
 62
     7
 10
103.8880915674048
 20
128.20207173575329
 30
0.0
 11
93.485326352923565
 21
128.70207173575329
 31
0.0
  0
LINE
  5
718
  8
0
  6
CONTINUOUS
 62
     7
 10
103.8880915674048
 20
108.20207173575319
 30
0.0
 11
93.485326352925327
 21
107.70207173575329
 31
0.0
  0
LINE
  5
719
  8
0
  6
CONTINUOUS
 62
     7
 10
87.388091567404786
 20
118.20207173575329
 30
0.0
 11
88.124561456946253
 21
109.7841823788842
 31
0.0
  0
LINE
  5
71A
  8
0
  6
CENTER
 62
     1
 10
95.138091567404729
 20
126.45207173575299
 30
0.0
 11
95.138091567404729
 21
109.95207173575329
 31
0.0
  0
LINE
  5
71D
  8
0
  6
CONTINUOUS
 62
     7
 10
87.388091567404899
 20
118.20207173575329
 30
0.0
 11
88.124561456946282
 21
126.4199610926224
 31
0.0
  0
CIRCLE
  5
71E
  8
0
  6
CONTINUOUS
 62
     7
 10
95.138091567404729
 20
118.20207173575329
 30
0.0
 40
2.75
  0
ARC
  5
71F
  8
0
  6
CONTINUOUS
 62
     7
 10
91.501341935007943
 20
125.065581471954
 30
0.0
 40
3.6382675209363362
 50
88.209051367983022
 51
158.14496631205029
  0
ARC
  5
720
  8
0
  6
CONTINUOUS
 62
     7
 10
88.502422130857894
 20
125.20207173575329
 30
0.0
 40
0.5
 50
188.91985559325431
 51
270.00000000000011
  0
ARC
  5
721
  8
0
  6
CONTINUOUS
 62
     7
 10
99.388091567404786
 20
114.20207173575329
 30
0.0
 40
2.5
 50
270.00000000000011
 51
0.0000000000000254
  0
LINE
  5
722
  8
0
  6
CENTER
 62
     1
 10
141.88809156740459
 20
133.70207173575329
 30
0.0
 11
141.88809156740459
 21
102.70207173575329
 31
0.0
  0
LINE
  5
723
  8
0
  6
CONTINUOUS
 62
     7
 10
103.8880915674047
 20
107.70207173575329
 30
0.0
 11
103.8880915674047
 21
108.20207173575329
 31
0.0
  0
ARC
  5
724
  8
0
  6
CONTINUOUS
 62
     7
 10
99.388091567404729
 20
122.20207173575329
 30
0.0
 40
2.5
 50
0.0000000000000763
 51
90.000000000000028
  0
LINE
  5
725
  8
0
  6
CONTINUOUS
 62
     7
 10
101.8880915674048
 20
114.20207173575329
 30
0.0
 11
101.8880915674047
 21
122.20207173575329
 31
0.0
  0
LINE
  5
726
  8
0
  6
CONTINUOUS
 62
     7
 10
103.8880915674047
 20
128.20207173575329
 30
0.0
 11
103.8880915674048
 21
128.70207173575329
 31
0.0
  0
ARC
  5
727
  8
0
  6
CONTINUOUS
 62
     7
 10
184.3880915674047
 20
114.20207173575329
 30
0.0
 40
2.5
 50
180.0
 51
269.99999999999989
  0
LINE
  5
728
  8
0
  6
CENTER
 62
     1
 10
188.63809156740459
 20
126.45207173575299
 30
0.0
 11
188.63809156740459
 21
109.95207173575329
 31
0.0
  0
LINE
  5
729
  8
0
  6
CONTINUOUS
 62
     7
 10
196.3880915674045
 20
118.20207173575329
 30
0.0
 11
195.65162167786301
 21
109.9841823788841
 31
0.0
  0
LINE
  5
72A
  8
0
  6
CONTINUOUS
 62
     7
 10
179.8880915674047
 20
108.20207173575319
 30
0.0
 11
190.29085678188409
 21
107.70207173575329
 31
0.0
  0
LINE
  5
72B
  8
0
  6
CONTINUOUS
 62
     7
 10
179.8880915674047
 20
107.70207173575329
 30
0.0
 11
192.16113493263379
 21
107.70207173575329
 31
0.0
  0
LINE
  5
72D
  8
0
  6
CONTINUOUS
 62
     7
 10
179.8880915674047
 20
107.70207173575329
 30
0.0
 11
179.8880915674047
 21
108.20207173575329
 31
0.0
  0
CIRCLE
  5
730
  8
0
  6
CONTINUOUS
 62
     7
 10
188.63809156740459
 20
118.20207173575329
 30
0.0
 40
2.75
  0
CIRCLE
  5
731
  8
0
  6
CONTINUOUS
 62
     7
 10
188.63809156740459
 20
118.20207173575329
 30
0.0
 40
5.0
  0
LINE
  5
732
  8
0
  6
CONTINUOUS
 62
     7
 10
179.8880915674047
 20
128.20207173575329
 30
0.0
 11
190.2908567818854
 21
128.70207173575329
 31
0.0
  0
LINE
  5
733
  8
0
  6
CONTINUOUS
 62
     7
 10
179.8880915674047
 20
128.70207173575329
 30
0.0
 11
192.16113763003199
 21
128.70207173575329
 31
0.0
  0
LINE
  5
734
  8
0
  6
CONTINUOUS
 62
     7
 10
184.3880915674047
 20
124.70207173575329
 30
0.0
 11
195.27376100395139
 21
124.70207173575329
 31
0.0
  0
ARC
  5
735
  8
0
  6
CONTINUOUS
 62
     7
 10
184.3880915674047
 20
122.20207173575329
 30
0.0
 40
2.5
 50
90.0
 51
179.99999999999989
  0
LINE
  5
736
  8
0
  6
CONTINUOUS
 62
     7
 10
181.8880915674047
 20
114.20207173575329
 30
0.0
 11
181.8880915674047
 21
122.20207173575329
 31
0.0
  0
LINE
  5
737
  8
0
  6
CONTINUOUS
 62
     7
 10
179.8880915674047
 20
128.20207173575329
 30
0.0
 11
179.8880915674047
 21
128.70207173575329
 31
0.0
  0
LINE
  5
738
  8
0
  6
CONTINUOUS
 62
     7
 10
196.3880915674045
 20
118.20207173575329
 30
0.0
 11
195.65162167786301
 21
126.4199610926224
 31
0.0
  0
ARC
  5
739
  8
0
  6
CONTINUOUS
 62
     7
 10
192.27484119980139
 20
125.065581471954
 30
0.0
 40
3.6382675209363189
 50
21.855033687949629
 51
91.790948632016963
  0
ARC
  5
73A
  8
0
  6
CONTINUOUS
 62
     7
 10
195.27376100395139
 20
125.20207173575329
 30
0.0
 40
0.5
 50
270.0
 51
351.08014440671928
  0
LINE
  5
73B
  8
0
  6
CONTINUOUS
 62
     7
 10
177.69024216477351
 20
66.596351528861703
 30
0.0
 11
106.08594097003579
 21
66.596351528861703
 31
0.0
  0
LINE
  5
73C
  8
0
  6
CONTINUOUS
 62
     7
 10
107.8880915674046
 20
61.59635152886171
 30
0.0
 11
175.8880915674047
 21
61.59635152886171
 31
0.0
  0
LINE
  5
73D
  8
0
  6
CONTINUOUS
 62
     7
 10
107.8880915674046
 20
60.596351528861703
 30
0.0
 11
175.8880915674047
 21
60.596351528861703
 31
0.0
  0
LINE
  5
73E
  8
0
  6
CENTER
 62
     1
 10
39.475627829224607
 20
71.615450716578437
 30
0.0
 11
39.475627829224607
 21
23.5963515288617
 31
0.0
  0
LINE
  5
73F
  8
0
  6
CONTINUOUS
 62
     7
 10
49.278023844562313
 20
63.48339652008093
 30
0.0
 11
49.97562782922455
 21
28.5963515288617
 31
0.0
  0
LINE
  5
740
  8
0
  6
CONTINUOUS
 62
     7
 10
29.67323181388679
 20
63.483396520080817
 30
0.0
 11
28.97562782922455
 21
28.5963515288617
 31
0.0
  0
ARC
  5
741
  8
0
  6
HIDDEN
 62
     2
 10
32.172669561012754
 20
63.762324914096723
 30
0.0
 40
2.5
 50
183.8066296102391
 51
264.99999999999989
  0
ARC
  5
742
  8
0
  6
HIDDEN
 62
     2
 10
46.778586097436339
 20
63.762324914096723
 30
0.0
 40
2.5
 50
275.00000000000011
 51
356.19337038976232
  0
LINE
  5
743
  8
0
  6
HIDDEN
 62
     2
 10
39.475627829225012
 20
60.596351528861703
 30
0.0
 11
31.954780204143621
 21
61.271838168867411
 31
0.0
  0
LINE
  5
744
  8
0
  6
HIDDEN
 62
     2
 10
39.475627829224891
 20
60.596351528861703
 30
0.0
 11
46.996475454305482
 21
61.271838168867312
 31
0.0
  0
LINE
  5
745
  8
0
  6
HIDDEN
 62
     2
 10
101.8880915674047
 20
41.596351528861703
 30
0.0
 11
101.8880915674047
 21
63.346834542554859
 31
0.0
  0
ARC
  5
746
  8
0
  6
CONTINUOUS
 62
     7
 10
107.8880915674046
 20
57.596351528861703
 30
0.0
 40
4.0
 50
90.0
 51
179.99999999999989
  0
LINE
  5
747
  8
0
  6
CENTER
 62
     1
 10
141.88809156740459
 20
71.596351528861703
 30
0.0
 11
141.88809156740459
 21
55.596351528861703
 31
0.0
  0
LINE
  5
748
  8
0
  6
CONTINUOUS
 62
     7
 10
100.9976523930973
 20
63.775867114260961
 30
0.0
 11
87.388091567404672
 21
41.596351528861703
 31
0.0
  0
ARC
  5
749
  8
0
  6
CONTINUOUS
 62
     7
 10
44.123360256853623
 20
61.200031348313303
 30
0.0
 40
1.85226757237156
 50
359.99999999999818
 51
25.750843738220901
  0
ARC
  5
74A
  8
0
  6
CONTINUOUS
 62
     7
 10
34.827895401596379
 20
61.200031348313303
 30
0.0
 40
1.85226757237156
 50
154.24915626177909
 51
180.00000000000171
  0
LINE
  5
74B
  8
0
  6
CONTINUOUS
 62
     7
 10
49.97562782922455
 20
28.5963515288617
 30
0.0
 11
28.97562782922461
 21
28.5963515288617
 31
0.0
  0
LINE
  5
74C
  8
0
  6
CONTINUOUS
 62
     7
 10
45.975627829224997
 20
41.596351528861703
 30
0.0
 11
32.975627829225012
 21
41.596351528861703
 31
0.0
  0
LINE
  5
74D
  8
0
  6
HIDDEN
 62
     2
 10
36.725627829224607
 20
28.5963515288617
 30
0.0
 11
36.725627829224607
 21
39.046351528861749
 31
0.0
  0
LINE
  5
74E
  8
0
  6
HIDDEN
 62
     2
 10
42.225627829224607
 20
28.5963515288617
 30
0.0
 11
42.225627829224607
 21
39.046351528861749
 31
0.0
  0
LINE
  5
74F
  8
0
  6
CONTINUOUS
 62
     7
 10
39.475627829224607
 20
41.596351528861703
 30
0.0
 11
39.475627829224607
 21
28.5963515288617
 31
0.0
  0
LINE
  5
750
  8
0
  6
CONTINUOUS
 62
     7
 10
32.975627829225118
 20
61.200031348313303
 30
0.0
 11
32.975627829225012
 21
41.596351528861703
 31
0.0
  0
LINE
  5
751
  8
0
  6
HIDDEN
 62
     2
 10
34.475627829224607
 20
41.296351528861749
 30
0.0
 11
36.725627829224607
 21
39.046351528861749
 31
0.0
  0
LINE
  5
752
  8
0
  6
HIDDEN
 62
     2
 10
34.475627829224607
 20
41.296351528861749
 30
0.0
 11
44.475627829224599
 21
41.296351528861749
 31
0.0
  0
LINE
  5
753
  8
0
  6
HIDDEN
 62
     2
 10
34.475627829224607
 20
41.296351528861749
 30
0.0
 11
34.475627829224607
 21
41.596351528861703
 31
0.0
  0
LINE
  5
754
  8
0
  6
HIDDEN
 62
     2
 10
44.475627829224599
 20
41.296351528861749
 30
0.0
 11
42.225627829224607
 21
39.046351528861749
 31
0.0
  0
LINE
  5
755
  8
0
  6
HIDDEN
 62
     2
 10
42.225627829224607
 20
39.046351528861749
 30
0.0
 11
39.475627829224607
 21
39.046351528861749
 31
0.0
  0
LINE
  5
756
  8
0
  6
HIDDEN
 62
     2
 10
36.725627829224607
 20
39.046351528861749
 30
0.0
 11
39.475627829224607
 21
39.046351528861749
 31
0.0
  0
LINE
  5
757
  8
0
  6
HIDDEN
 62
     2
 10
44.475627829224599
 20
41.596351528861703
 30
0.0
 11
44.475627829224599
 21
41.296351528861749
 31
0.0
  0
ARC
  5
758
  8
0
  6
CONTINUOUS
 62
     7
 10
107.8880915674046
 20
57.596351528861703
 30
0.0
 40
3.0
 50
90.0
 51
179.99999999999989
  0
LINE
  5
759
  8
0
  6
CONTINUOUS
 62
     7
 10
87.388091567404672
 20
28.5963515288617
 30
0.0
 11
104.8880915674047
 21
28.5963515288617
 31
0.0
  0
LINE
  5
75A
  8
0
  6
HIDDEN
 62
     2
 10
92.388091567404672
 20
28.5963515288617
 30
0.0
 11
92.388091567404672
 21
39.046351528861749
 31
0.0
  0
LINE
  5
75B
  8
0
  6
HIDDEN
 62
     2
 10
97.888091567404686
 20
28.5963515288617
 30
0.0
 11
97.888091567404686
 21
39.046351528861749
 31
0.0
  0
LINE
  5
75C
  8
0
  6
CENTER
 62
     1
 10
95.138091567404672
 20
23.5963515288617
 30
0.0
 11
95.138091567404672
 21
56.744929961662187
 31
0.0
  0
LINE
  5
75D
  8
0
  6
CONTINUOUS
 62
     7
 10
103.8880915674047
 20
28.5963515288617
 30
0.0
 11
103.8880915674047
 21
57.596351528861703
 31
0.0
  0
LINE
  5
75E
  8
0
  6
CONTINUOUS
 62
     7
 10
87.388091567404672
 20
41.596351528861703
 30
0.0
 11
87.388091567404672
 21
28.5963515288617
 31
0.0
  0
LINE
  5
75F
  8
0
  6
CONTINUOUS
 62
     7
 10
45.975627829225168
 20
61.200031348313303
 30
0.0
 11
45.975627829224997
 21
41.596351528861703
 31
0.0
  0
LINE
  5
760
  8
0
  6
HIDDEN
 62
     2
 10
92.388091567404672
 20
39.046351528861749
 30
0.0
 11
95.138091567404672
 21
39.046351528861749
 31
0.0
  0
LINE
  5
761
  8
0
  6
HIDDEN
 62
     2
 10
90.138091567404672
 20
41.296351528861749
 30
0.0
 11
100.1380915674046
 21
41.296351528861749
 31
0.0
  0
LINE
  5
762
  8
0
  6
HIDDEN
 62
     2
 10
101.8880915674047
 20
41.596351528861703
 30
0.0
 11
87.388091567404672
 21
41.596351528861703
 31
0.0
  0
LINE
  5
763
  8
0
  6
HIDDEN
 62
     2
 10
90.138091567404672
 20
41.296351528861749
 30
0.0
 11
92.388091567404672
 21
39.046351528861749
 31
0.0
  0
LINE
  5
764
  8
0
  6
HIDDEN
 62
     2
 10
90.138091567404672
 20
41.296351528861749
 30
0.0
 11
90.138091567404672
 21
41.596351528861703
 31
0.0
  0
LINE
  5
765
  8
0
  6
HIDDEN
 62
     2
 10
100.1380915674046
 20
41.296351528861749
 30
0.0
 11
97.888091567404686
 21
39.046351528861749
 31
0.0
  0
LINE
  5
766
  8
0
  6
HIDDEN
 62
     2
 10
97.888091567404686
 20
39.046351528861749
 30
0.0
 11
95.138091567404672
 21
39.046351528861749
 31
0.0
  0
LINE
  5
767
  8
0
  6
HIDDEN
 62
     2
 10
100.1380915674046
 20
41.596351528861703
 30
0.0
 11
100.1380915674046
 21
41.296351528861749
 31
0.0
  0
LINE
  5
768
  8
0
  6
CONTINUOUS
 62
     7
 10
104.8880915674047
 20
28.5963515288617
 30
0.0
 11
104.8880915674047
 21
57.596351528861703
 31
0.0
  0
LINE
  5
769
  8
0
  6
CONTINUOUS
 62
     7
 10
39.475627829224891
 20
66.596351528861703
 30
0.0
 11
46.996475454305482
 21
65.920864888856102
 31
0.0
  0
ARC
  5
76A
  8
0
  6
CONTINUOUS
 62
     7
 10
43.60736424285335
 20
60.812856545684042
 30
0.0
 40
2.5112466463903989
 50
49.346611822371059
 51
70.419832471152475
  0
LINE
  5
76B
  8
0
  6
CONTINUOUS
 62
     7
 10
39.475627829225012
 20
66.596351528861703
 30
0.0
 11
31.954780204143621
 21
65.920864888855974
 31
0.0
  0
ARC
  5
76C
  8
0
  6
CONTINUOUS
 62
     7
 10
35.475627829224891
 20
60.442492092514442
 30
0.0
 40
2.9043424500404171
 50
90.0
 51
109.5801675288515
  0
ARC
  5
76D
  8
0
  6
CONTINUOUS
 62
     7
 10
32.172669561012754
 20
63.430378143626683
 30
0.0
 40
2.5
 50
95.000000000000114
 51
178.78481721698139
  0
ARC
  5
76E
  8
0
  6
CONTINUOUS
 62
     7
 10
35.343891415596659
 20
60.812856545684042
 30
0.0
 40
2.5112466463903989
 50
109.5801675288475
 51
130.6533881776289
  0
ARC
  5
76F
  8
0
  6
CONTINUOUS
 62
     7
 10
35.14118495732248
 20
61.048912718436611
 30
0.0
 40
2.2000996957052941
 50
130.653388177631
 51
154.24915626178191
  0
ARC
  5
770
  8
0
  6
CONTINUOUS
 62
     7
 10
43.475627829225111
 20
60.442492092514442
 30
0.0
 40
2.9043424500404171
 50
70.419832471148482
 51
90.0
  0
ARC
  5
771
  8
0
  6
CONTINUOUS
 62
     7
 10
106.08594097003579
 20
60.596351528861703
 30
0.0
 40
6.0
 50
90.0
 51
147.99999999999989
  0
ARC
  5
772
  8
0
  6
CONTINUOUS
 62
     7
 10
46.778586097436339
 20
63.430378143626683
 30
0.0
 40
2.5
 50
1.2151827830186019
 51
84.999999999999957
  0
ARC
  5
773
  8
0
  6
CONTINUOUS
 62
     7
 10
43.810070701127529
 20
61.048912718436611
 30
0.0
 40
2.2000996957052941
 50
25.750843738218109
 51
49.346611822368999
  0
ARC
  5
774
  8
0
  6
HIDDEN
 62
     2
 10
104.8880915674047
 20
63.346834542554859
 30
0.0
 40
3.0
 50
113.5333713838622
 51
180.0
  0
ARC
  5
775
  8
0
  6
CONTINUOUS
 62
     7
 10
175.8880915674047
 20
57.596351528861703
 30
0.0
 40
4.0
 50
0.0000000000000763
 51
90.000000000000028
  0
LINE
  5
776
  8
0
  6
HIDDEN
 62
     2
 10
181.8880915674047
 20
41.596351528861703
 30
0.0
 11
181.8880915674047
 21
63.346834542554859
 31
0.0
  0
LINE
  5
777
  8
0
  6
CONTINUOUS
 62
     7
 10
196.38809156740459
 20
41.596351528861703
 30
0.0
 11
182.7785307417121
 21
63.775867114260961
 31
0.0
  0
LINE
  5
778
  8
0
  6
HIDDEN
 62
     2
 10
181.8880915674047
 20
41.596351528861703
 30
0.0
 11
196.38809156740459
 21
41.596351528861703
 31
0.0
  0
LINE
  5
779
  8
0
  6
CONTINUOUS
 62
     7
 10
178.8880915674047
 20
28.5963515288617
 30
0.0
 11
196.38809156740459
 21
28.5963515288617
 31
0.0
  0
LINE
  5
77A
  8
0
  6
CONTINUOUS
 62
     7
 10
178.8880915674047
 20
28.5963515288617
 30
0.0
 11
178.8880915674047
 21
35.56057811659258
 31
0.0
  0
LINE
  5
77B
  8
0
  6
CONTINUOUS
 62
     7
 10
179.8880915674047
 20
28.5963515288617
 30
0.0
 11
179.8880915674047
 21
57.596351528861703
 31
0.0
  0
LINE
  5
77C
  8
0
  6
CONTINUOUS
 62
     7
 10
178.8880915674047
 20
28.5963515288617
 30
0.0
 11
178.8880915674047
 21
57.596351528861703
 31
0.0
  0
ARC
  5
77D
  8
0
  6
CONTINUOUS
 62
     7
 10
175.8880915674047
 20
57.596351528861703
 30
0.0
 40
3.0
 50
0.0
 51
90.0
  0
LINE
  5
77E
  8
0
  6
HIDDEN
 62
     2
 10
191.3880915674047
 20
28.5963515288617
 30
0.0
 11
191.3880915674047
 21
39.046351528861749
 31
0.0
  0
LINE
  5
77F
  8
0
  6
HIDDEN
 62
     2
 10
185.88809156740459
 20
28.5963515288617
 30
0.0
 11
185.88809156740459
 21
39.046351528861749
 31
0.0
  0
LINE
  5
780
  8
0
  6
CONTINUOUS
 62
     7
 10
196.38809156740459
 20
28.5963515288617
 30
0.0
 11
196.38809156740459
 21
41.596351528861703
 31
0.0
  0
LINE
  5
781
  8
0
  6
CENTER
 62
     1
 10
188.63809156740459
 20
23.5963515288617
 30
0.0
 11
188.63809156740459
 21
56.744929961662187
 31
0.0
  0
LINE
  5
782
  8
0
  6
HIDDEN
 62
     2
 10
193.63809156740459
 20
41.296351528861749
 30
0.0
 11
191.3880915674047
 21
39.046351528861749
 31
0.0
  0
LINE
  5
783
  8
0
  6
HIDDEN
 62
     2
 10
193.63809156740459
 20
41.296351528861749
 30
0.0
 11
183.63809156740459
 21
41.296351528861749
 31
0.0
  0
LINE
  5
784
  8
0
  6
HIDDEN
 62
     2
 10
183.63809156740459
 20
41.296351528861749
 30
0.0
 11
185.88809156740459
 21
39.046351528861749
 31
0.0
  0
LINE
  5
785
  8
0
  6
HIDDEN
 62
     2
 10
185.88809156740459
 20
39.046351528861749
 30
0.0
 11
188.63809156740459
 21
39.046351528861749
 31
0.0
  0
LINE
  5
786
  8
0
  6
HIDDEN
 62
     2
 10
191.3880915674047
 20
39.046351528861749
 30
0.0
 11
188.63809156740459
 21
39.046351528861749
 31
0.0
  0
LINE
  5
787
  8
0
  6
HIDDEN
 62
     2
 10
183.63809156740459
 20
41.596351528861703
 30
0.0
 11
183.63809156740459
 21
41.296351528861749
 31
0.0
  0
LINE
  5
788
  8
0
  6
HIDDEN
 62
     2
 10
193.63809156740459
 20
41.296351528861749
 30
0.0
 11
193.63809156740459
 21
41.596351528861703
 31
0.0
  0
ARC
  5
789
  8
0
  6
CONTINUOUS
 62
     7
 10
177.69024216477351
 20
60.596351528861703
 30
0.0
 40
6.0
 50
66.466628616137683
 51
90.0
  0
ARC
  5
78A
  8
0
  6
CONTINUOUS
 62
     7
 10
177.69024216477351
 20
60.596351528861703
 30
0.0
 40
6.0
 50
31.999999999999989
 51
90.0
  0
ARC
  5
78B
  8
0
  6
HIDDEN
 62
     2
 10
178.8880915674047
 20
63.346834542554859
 30
0.0
 40
3.0
 50
0.0
 51
66.466628616137754
  0
ARC
  5
9D9
  8
0
  6
CONTINUOUS
 62
     7
 10
91.575538952647378
 20
111.6026496130293
 30
0.0
 40
3.900777968238502
 50
207.78665890408431
 51
270.58033345520988
  0
ARC
  5
9DB
  8
0
  6
CONTINUOUS
 62
     7
 10
192.2748411998013
 20
111.3385619995525
 30
0.0
 40
3.6382675209363189
 50
268.20905136798279
 51
338.14496631205009
  0
ARC
  5
A0E
  8
0
  6
CONTINUOUS
 62
     7
 10
88.502422130857951
 20
111.20207173575319
 30
0.0
 40
0.5
 50
90.000000000000625
 51
171.08014440674631
  0
LINE
  5
A0F
  8
0
  6
CONTINUOUS
 62
     7
 10
99.388091567404786
 20
111.70207173575329
 30
0.0
 11
88.502422130857951
 21
111.70207173575319
 31
0.0
  0
LINE
  5
A10
  8
0
  6
CONTINUOUS
 62
     7
 10
184.38809156740459
 20
111.70207173575351
 30
0.0
 11
195.27376100395131
 21
111.70207173575329
 31
0.0
  0
ARC
  5
A11
  8
0
  6
CONTINUOUS
 62
     7
 10
195.27376100395131
 20
111.20207173575341
 30
0.0
 40
0.5
 50
8.9198555932410066
 51
89.999999999999375
  0
TEXT
  5
B0A
  8
0
 62
     3
 10
0.0
 20
0.0
 30
0.0
 40
10.0
  1
AGS110N
  7
STANDARD1
  0
ENDSEC
  0
EOF
