  0
SECTION
  2
HEADER
  9
$ACADVER
  1
AC1009
  9
$INSBASE
 10
0.0
 20
0.0
 30
0.0
  9
$EXTMIN
 10
-0.0204638472032742
 20
-2.960436562073669
 30
0.0
  9
$EXTMAX
 10
274.37491363405883
 20
225.2315480948574
 30
0.0
  9
$LIMMIN
 10
0.0
 20
0.0
  9
$LIMMAX
 10
375.0
 20
270.0
  9
$ORTHOMODE
 70
     1
  9
$REGENMODE
 70
     1
  9
$FILLMODE
 70
     1
  9
$QTEXTMODE
 70
     0
  9
$MIRRTEXT
 70
     0
  9
$DRAGMODE
 70
     2
  9
$LTSCALE
 40
10.0
  9
$OSMODE
 70
  3071
  9
$ATTMODE
 70
     1
  9
$TEXTSIZE
 40
4.000000000000048
  9
$TRACEWID
 40
0.05
  9
$TEXTSTYLE
  7
STANDARD
  9
$CLAYER
  8
0
  9
$CELTYPE
  6
BYLAYER
  9
$CECOLOR
 62
   256
  9
$DIMSCALE
 40
1.0
  9
$DIMASZ
 40
3.0
  9
$DIMEXO
 40
2.0
  9
$DIMDLI
 40
10.0
  9
$DIMRND
 40
0.0
  9
$DIMDLE
 40
0.0
  9
$DIMEXE
 40
2.0
  9
$DIMTP
 40
0.0
  9
$DIMTM
 40
0.0
  9
$DIMTXT
 40
3.2000000000000002
  9
$DIMCEN
 40
0.0
  9
$DIMTSZ
 40
0.0
  9
$DIMTOL
 70
     0
  9
$DIMLIM
 70
     0
  9
$DIMTIH
 70
     0
  9
$DIMTOH
 70
     0
  9
$DIMSE1
 70
     0
  9
$DIMSE2
 70
     0
  9
$DIMTAD
 70
     1
  9
$DIMZIN
 70
     0
  9
$DIMBLK
  1

  9
$DIMASO
 70
     1
  9
$DIMSHO
 70
     0
  9
$DIMPOST
  1

  9
$DIMAPOST
  1

  9
$DIMALT
 70
     0
  9
$DIMALTD
 70
     2
  9
$DIMALTF
 40
25.399999999999999
  9
$DIMLFAC
 40
1.0
  9
$DIMTOFL
 70
     1
  9
$DIMTVP
 40
1.6000000000000001
  9
$DIMTIX
 70
     1
  9
$DIMSOXD
 70
     0
  9
$DIMSAH
 70
     0
  9
$DIMBLK1
  1

  9
$DIMBLK2
  1

  9
$DIMSTYLE
  2
STANDARD
  9
$DIMCLRD
 70
     0
  9
$DIMCLRE
 70
     0
  9
$DIMCLRT
 70
     0
  9
$DIMTFAC
 40
1.0
  9
$DIMGAP
 40
0.09
  9
$LUNITS
 70
     2
  9
$LUPREC
 70
     4
  9
$SKETCHINC
 40
0.1
  9
$FILLETRAD
 40
1.0
  9
$AUNITS
 70
     0
  9
$AUPREC
 70
     4
  9
$MENU
  1
E:\r13\win\SUPPORT\ACAD
  9
$ELEVATION
 40
0.0
  9
$PELEVATION
 40
0.0
  9
$THICKNESS
 40
0.0
  9
$LIMCHECK
 70
     0
  9
$BLIPMODE
 70
     0
  9
$CHAMFERA
 40
0.0
  9
$CHAMFERB
 40
0.0
  9
$SKPOLY
 70
     0
  9
$TDCREATE
 40
2449839.7833333341
  9
$TDUPDATE
 40
2456597.5016459259
  9
$TDINDWG
 40
0.0360558102
  9
$TDUSRTIMER
 40
0.0360558102
  9
$USRTIMER
 70
     1
  9
$ANGBASE
 50
0.0
  9
$ANGDIR
 70
     0
  9
$PDMODE
 70
    35
  9
$PDSIZE
 40
0.0
  9
$PLINEWID
 40
0.0
  9
$COORDS
 70
     1
  9
$SPLFRAME
 70
     0
  9
$SPLINETYPE
 70
     6
  9
$SPLINESEGS
 70
     8
  9
$ATTDIA
 70
     0
  9
$ATTREQ
 70
     1
  9
$HANDLING
 70
     1
  9
$HANDSEED
  5
391
  9
$SURFTAB1
 70
     6
  9
$SURFTAB2
 70
     6
  9
$SURFTYPE
 70
     6
  9
$SURFU
 70
     6
  9
$SURFV
 70
     6
  9
$UCSNAME
  2

  9
$UCSORG
 10
0.0
 20
0.0
 30
0.0
  9
$UCSXDIR
 10
1.0
 20
0.0
 30
0.0
  9
$UCSYDIR
 10
0.0
 20
1.0
 30
0.0
  9
$PUCSNAME
  2

  9
$PUCSORG
 10
0.0
 20
0.0
 30
0.0
  9
$PUCSXDIR
 10
1.0
 20
0.0
 30
0.0
  9
$PUCSYDIR
 10
0.0
 20
1.0
 30
0.0
  9
$USERI1
 70
     0
  9
$USERI2
 70
     1
  9
$USERI3
 70
     1
  9
$USERI4
 70
     0
  9
$USERI5
 70
     0
  9
$USERR1
 40
0.0
  9
$USERR2
 40
0.0
  9
$USERR3
 40
0.0
  9
$USERR4
 40
0.0
  9
$USERR5
 40
0.0
  9
$WORLDVIEW
 70
     1
  9
$SHADEDGE
 70
     3
  9
$SHADEDIF
 70
    70
  9
$TILEMODE
 70
     1
  9
$MAXACTVP
 70
    16
  9
$PLIMCHECK
 70
     0
  9
$PEXTMIN
 10
1.0000000000000000E+020
 20
1.0000000000000000E+020
 30
1.0000000000000000E+020
  9
$PEXTMAX
 10
-1.0000000000000000E+020
 20
-1.0000000000000000E+020
 30
-1.0000000000000000E+020
  9
$PLIMMIN
 10
0.0
 20
0.0
  9
$PLIMMAX
 10
12.0
 20
9.0
  9
$UNITMODE
 70
     0
  9
$VISRETAIN
 70
     0
  9
$PLINEGEN
 70
     0
  9
$PSLTSCALE
 70
     0
  0
ENDSEC
  0
SECTION
  2
TABLES
  0
TABLE
  2
VPORT
 70
     1
  0
VPORT
  2
*ACTIVE
 70
     0
 10
0.0
 20
0.0
 11
1.0
 21
1.0
 12
195.04380321732449
 22
133.5127261426681
 13
0.0
 23
0.0
 14
10.0
 24
10.0
 15
10.0
 25
10.0
 16
0.0
 26
0.0
 36
1.0
 17
0.0
 27
0.0
 37
0.0
 40
275.42274993631997
 41
1.831871345029239
 42
50.0
 43
0.0
 44
0.0
 50
0.0
 51
0.0
 71
     0
 72
   500
 73
     1
 74
     0
 75
     0
 76
     0
 77
     0
 78
     2
  0
ENDTAB
  0
TABLE
  2
LTYPE
 70
     4
  0
LTYPE
  2
CONTINUOUS
 70
     0
  3
Solid Line
 72
    65
 73
     0
 40
0.0
  0
LTYPE
  2
CENTER
 70
     0
  3
____ _ ____ _ ____ _ ____ _ ____ _ ____ _ ____
 72
    65
 73
     4
 40
2.0
 49
1.25
 49
-0.25
 49
0.25
 49
-0.25
  0
LTYPE
  2
HIDDEN
 70
     0
  3
_ _ _ _ _ _ _ _ _ _ _ _ _ _ _ _ _ _ _ _ _ _ _
 72
    65
 73
     2
 40
0.375
 49
0.25
 49
-0.125
  0
LTYPE
  2
PHANTOM2
 70
     0
  3
___ _ _ ___ _ _ ___ _ _ ___ _ _
 72
    65
 73
     6
 40
1.25
 49
0.625
 49
-0.125
 49
0.125
 49
-0.125
 49
0.125
 49
-0.125
  0
ENDTAB
  0
TABLE
  2
LAYER
 70
     5
  0
LAYER
  2
0
 70
     0
 62
     7
  6
CONTINUOUS
  0
LAYER
  2
1
 70
     0
 62
     1
  6
CENTER
  0
LAYER
  2
3
 70
     0
 62
     3
  6
CONTINUOUS
  0
LAYER
  2
2
 70
     0
 62
     2
  6
HIDDEN
  0
LAYER
  2
DEFPOINTS
 70
     0
 62
     7
  6
CONTINUOUS
  0
ENDTAB
  0
TABLE
  2
STYLE
 70
     2
  0
STYLE
  2
STANDARD
 70
     0
 40
0.0
 41
1.0
 50
0.0
 71
     0
 42
4.000000000000048
  3
ROMANS
  4
BIGFONT
  0
STYLE
  2
STANDARD1
 70
     0
 40
0.0
 41
1.0
 50
0.0
 71
     0
 42
3.0
  3
txt
  4

  0
ENDTAB
  0
TABLE
  2
VIEW
 70
     1
  0
VIEW
  2
ALL
 70
     0
 40
270.33333333333343
 10
221.26442577030821
 20
134.83333333333329
 41
0.0
 11
0.0
 21
0.0
 31
1.0
 12
0.0
 22
0.0
 32
0.0
 42
0.0
 43
0.0
 44
0.0
 50
0.0
 71
     0
  0
ENDTAB
  0
TABLE
  2
UCS
 70
     0
  0
ENDTAB
  0
TABLE
  2
APPID
 70
     4
  0
APPID
  2
ACAD
 70
     0
  0
APPID
  2
ACAD_EXEMPT_FROM_CAD_STANDARDS
 70
     0
  0
APPID
  2
ACAD_MLEADERVER
 70
     0
  0
APPID
  2
ACAD_NAV_VCDISPLAY
 70
     0
  0
ENDTAB
  0
TABLE
  2
DIMSTYLE
 70
     1
  0
DIMSTYLE
  2
STANDARD
 70
     0
  3

  4

  5

  6

  7

 40
1.0
 41
0.18
 42
0.0625
 43
0.38
 44
0.18
 45
0.0
 46
0.0
 47
0.0
 48
0.0
140
0.18
141
0.09
142
0.0
143
25.399999999999999
144
1.0
145
0.0
146
1.0
147
0.09
 71
     0
 72
     0
 73
     1
 74
     1
 75
     0
 76
     0
 77
     0
 78
     0
170
     0
171
     2
172
     0
173
     0
174
     0
175
     0
176
     0
177
     0
178
     0
  0
ENDTAB
  0
ENDSEC
  0
SECTION
  2
BLOCKS
  0
BLOCK
  8
0
  2
$MODEL_SPACE
 70
     0
 10
0.0
 20
0.0
 30
0.0
  3
$MODEL_SPACE
  1

  0
ENDBLK
  5
13F
  8
0
  0
BLOCK
 67
     1
  8
0
  2
$PAPER_SPACE
 70
     0
 10
0.0
 20
0.0
 30
0.0
  3
$PAPER_SPACE
  1

  0
ENDBLK
  5
13D
 67
     1
  8
0
  0
ENDSEC
  0
SECTION
  2
ENTITIES
  0
LINE
  5
29
  8
0
 10
81.424900431143641
 20
153.94823040680879
 30
0.0
 11
92.099211916639035
 21
153.01434916088351
 31
0.0
  0
LINE
  5
2A
  8
0
 10
81.424900431143641
 20
153.94823040680879
 30
0.0
 11
70.750588945648275
 21
153.01434916088351
 31
0.0
  0
LINE
  5
2B
  8
0
 10
93.92490043114374
 20
115.9482304068089
 30
0.0
 11
68.924900431143556
 21
115.9482304068089
 31
0.0
  0
LINE
  5
2C
  8
0
 10
68.924900431143058
 20
115.9482304068089
 30
0.0
 11
68.924900431143556
 21
151.0219597647
 31
0.0
  0
LINE
  5
2D
  8
0
 10
93.924900431142973
 20
115.9482304068089
 30
0.0
 11
93.924900431143485
 21
151.0219597647
 31
0.0
  0
ARC
  5
2E
  8
0
 10
70.924900431143811
 20
151.0219597647
 30
0.0
 40
1.9999999999999989
 50
94.999999999999872
 51
180.0
  0
ARC
  5
2F
  8
0
 10
91.924900431143485
 20
151.0219597647
 30
0.0
 40
1.9999999999999989
 50
0.0000000000000254
 51
85.000000000000284
  0
LINE
  5
30
  8
1
 10
81.424900431144152
 20
158.9482304068089
 30
0.0
 11
81.424900431144394
 21
110.9482304068088
 31
0.0
  0
LINE
  5
3D
  8
0
 10
138.30118427616779
 20
195.2315480948574
 30
0.0
 11
266.44864299195001
 21
195.2315480948574
 31
0.0
  0
LINE
  5
3E
  8
0
 10
138.30118427616779
 20
220.2315480948574
 30
0.0
 11
266.44864299195001
 21
220.23154809485729
 31
0.0
  0
LINE
  5
3F
  8
0
 10
93.924900431143186
 20
130.94823040680939
 30
0.0
 11
68.924900431143243
 21
130.9482304068097
 31
0.0
  0
CIRCLE
  5
43
  8
0
 10
143.874913634059
 20
67.783806288302642
 30
0.0
 40
5.4999999999999432
  0
ARC
  5
44
  8
0
 10
143.874913634059
 20
67.783806288302642
 30
0.0
 40
7.0
 50
66.675440252707261
 51
118.94914683412389
  0
LINE
  5
45
  8
1
 10
143.874913634059
 20
78.283806288302586
 30
0.0
 11
143.874913634059
 21
57.283806288302699
 31
0.0
  0
LINE
  5
46
  8
0
 10
140.1338466242025
 20
77.283806288302586
 30
0.0
 11
146.941483691494
 21
77.2838062883026
 31
0.0
  0
LINE
  5
47
  8
1
 10
260.87491363405871
 20
78.283806288302586
 30
0.0
 11
260.87491363405871
 21
57.283806288302699
 31
0.0
  0
CIRCLE
  5
48
  8
0
 10
260.87491363405871
 20
67.783806288302642
 30
0.0
 40
5.4999999999999432
  0
ARC
  5
4A
  8
2
 10
70.924900431143811
 20
149.37450104891769
 30
0.0
 40
1.9999999999999989
 50
180.0
 51
265.00000000000011
  0
LINE
  5
4B
  8
2
 10
81.424900431143641
 20
146.4482304068089
 30
0.0
 11
70.750588945648275
 21
147.38211165273421
 31
0.0
  0
LINE
  5
4C
  8
2
 10
81.424900431143641
 20
146.4482304068089
 30
0.0
 11
92.099211916639035
 21
147.38211165273421
 31
0.0
  0
ARC
  5
4D
  8
2
 10
91.924900431143485
 20
149.37450104891769
 30
0.0
 40
1.9999999999999989
 50
274.99999999999972
 51
360.0
  0
ARC
  5
5C
  8
0
 10
138.30118427616779
 20
218.2315480948572
 30
0.0
 40
1.9999999999999989
 50
90.000000000000028
 51
175.00000000000031
  0
LINE
  5
5D
  8
0
 10
135.374913634059
 20
207.7315480948574
 30
0.0
 11
136.3087948799843
 21
218.4058595803528
 31
0.0
  0
LINE
  5
5E
  8
0
 10
135.374913634059
 20
207.7315480948574
 30
0.0
 11
136.3087948799843
 21
197.05723660936201
 31
0.0
  0
ARC
  5
5F
  8
0
 10
138.30118427616779
 20
197.2315480948576
 30
0.0
 40
1.9999999999999989
 50
184.9999999999998
 51
270.0
  0
ARC
  5
68
  8
0
 10
266.44864299195001
 20
197.2315480948576
 30
0.0
 40
1.9999999999999989
 50
270.0
 51
355.00000000000023
  0
LINE
  5
69
  8
0
 10
269.37491363405883
 20
207.7315480948574
 30
0.0
 11
268.44103238813352
 21
197.05723660936201
 31
0.0
  0
LINE
  5
6A
  8
0
 10
269.37491363405883
 20
207.7315480948574
 30
0.0
 11
268.44103238813352
 21
218.4058595803528
 31
0.0
  0
ARC
  5
6B
  8
0
 10
266.44864299195001
 20
218.2315480948572
 30
0.0
 40
1.9999999999999989
 50
4.999999999999714
 51
90.0
  0
LINE
  5
6D
  8
1
 10
130.374913634059
 20
207.7315480948574
 30
0.0
 11
274.37491363405883
 21
207.73154809485709
 31
0.0
  0
LINE
  5
6E
  8
1
 10
202.37491363405891
 20
225.2315480948574
 30
0.0
 11
202.37491363405891
 21
190.2315480948574
 31
0.0
  0
ARC
  5
6F
  8
0
 10
266.4486429919499
 20
78.283806288302685
 30
0.0
 40
1.9999999999999989
 50
4.999999999999714
 51
90.0
  0
LINE
  5
70
  8
0
 10
269.37491363405871
 20
67.783806288302856
 30
0.0
 11
268.44103238813341
 21
78.45811777379825
 31
0.0
  0
LINE
  5
71
  8
0
 10
269.37491363405871
 20
67.783806288302856
 30
0.0
 11
268.44103238813341
 21
57.109494802807482
 31
0.0
  0
ARC
  5
72
  8
0
 10
266.4486429919499
 20
57.283806288303019
 30
0.0
 40
1.9999999999999989
 50
270.0
 51
355.00000000000023
  0
ARC
  5
73
  8
0
 10
256.30118427616787
 20
57.283806288303012
 30
0.0
 40
1.9999999999999989
 50
184.9999999999998
 51
270.0
  0
LINE
  5
74
  8
0
 10
253.374913634059
 20
67.783806288302841
 30
0.0
 11
254.3087948799843
 21
57.109494802807468
 31
0.0
  0
LINE
  5
75
  8
0
 10
253.374913634059
 20
67.783806288302841
 30
0.0
 11
254.3087948799843
 21
78.458117773798236
 31
0.0
  0
ARC
  5
76
  8
0
 10
256.30118427616787
 20
78.283806288302671
 30
0.0
 40
1.9999999999999989
 50
90.000000000000028
 51
175.00000000000031
  0
ARC
  5
77
  8
0
 10
148.44864299195009
 20
78.283806288302628
 30
0.0
 40
1.9999999999999989
 50
4.999999999999714
 51
89.999999999999986
  0
LINE
  5
78
  8
0
 10
151.37491363405891
 20
67.783806288302799
 30
0.0
 11
150.44103238813361
 21
78.458117773798193
 31
0.0
  0
LINE
  5
79
  8
0
 10
151.37491363405891
 20
67.783806288302799
 30
0.0
 11
150.44103238813361
 21
57.109494802807419
 31
0.0
  0
ARC
  5
7A
  8
0
 10
148.44864299195009
 20
57.283806288302962
 30
0.0
 40
1.9999999999999989
 50
270.0
 51
355.00000000000023
  0
ARC
  5
7B
  8
0
 10
138.3011842761677
 20
57.283806288303019
 30
0.0
 40
1.9999999999999989
 50
184.9999999999998
 51
270.0
  0
LINE
  5
7C
  8
0
 10
135.37491363405891
 20
67.783806288302856
 30
0.0
 11
136.30879487998419
 21
57.109494802807482
 31
0.0
  0
LINE
  5
7D
  8
0
 10
135.37491363405891
 20
67.783806288302856
 30
0.0
 11
136.30879487998419
 21
78.45811777379825
 31
0.0
  0
ARC
  5
7E
  8
0
 10
138.3011842761677
 20
78.283806288302685
 30
0.0
 40
1.9999999999999989
 50
90.000000000000028
 51
175.00000000000031
  0
LINE
  5
7F
  8
0
 10
138.3011842761677
 20
80.283806288302813
 30
0.0
 11
266.4486429919499
 21
80.283806288302713
 31
0.0
  0
LINE
  5
80
  8
0
 10
138.3011842761677
 20
55.28380628830287
 30
0.0
 11
266.4486429919499
 21
55.28380628830287
 31
0.0
  0
LINE
  5
81
  8
1
 10
202.3749136340588
 20
85.28380628830277
 30
0.0
 11
202.3749136340588
 21
50.28380628830287
 31
0.0
  0
LINE
  5
82
  8
1
 10
130.37491363405891
 20
67.783806288302884
 30
0.0
 11
274.37491363405871
 21
67.783806288302827
 31
0.0
  0
LINE
  5
83
  8
0
 10
269.37491363405883
 20
115.9482304068089
 30
0.0
 11
253.374913634059
 21
115.9482304068089
 31
0.0
  0
LINE
  5
84
  8
0
 10
135.374913634059
 20
115.9482304068089
 30
0.0
 11
135.374913634059
 21
130.9482304068089
 31
0.0
  0
LINE
  5
85
  8
0
 10
269.37491363405883
 20
130.94823040680879
 30
0.0
 11
269.37491363405883
 21
115.9482304068089
 31
0.0
  0
LINE
  5
86
  8
0
 10
253.374913634059
 20
115.9482304068089
 30
0.0
 11
253.374913634059
 21
142.4482304068089
 31
0.0
  0
LINE
  5
87
  8
0
 10
135.374913634059
 20
130.94823040680879
 30
0.0
 11
148.5960608878307
 21
150.4391234538511
 31
0.0
  0
LINE
  5
88
  8
0
 10
269.37491363405883
 20
130.94823040680879
 30
0.0
 11
256.1537676334076
 21
150.4391216064748
 31
0.0
  0
LINE
  5
89
  8
0
 10
151.374913634059
 20
115.9482304068089
 30
0.0
 11
135.374913634059
 21
115.9482304068089
 31
0.0
  0
LINE
  5
8A
  8
0
 10
254.47491363405899
 20
115.9482304068089
 30
0.0
 11
254.47491363405899
 21
142.4482304068089
 31
0.0
  0
LINE
  5
8B
  8
0
 10
151.374913634059
 20
115.9482304068088
 30
0.0
 11
151.374913634059
 21
142.44823040680879
 31
0.0
  0
LINE
  5
8C
  8
0
 10
249.5332014768949
 20
153.9482304068089
 30
0.0
 11
155.21662579122309
 21
153.94823040680879
 31
0.0
  0
LINE
  5
8D
  8
0
 10
249.374913634059
 20
146.4482304068089
 30
0.0
 11
155.374913634059
 21
146.4482304068089
 31
0.0
  0
ARC
  5
8E
  8
0
 10
249.374913634059
 20
142.4482304068089
 30
0.0
 40
3.9999999999999991
 50
0.0000000000001018
 51
90.000000000000028
  0
ARC
  5
8F
  8
0
 10
249.5332014768949
 20
145.94823040680879
 30
0.0
 40
7.9999999999999991
 50
34.150000000000013
 51
90.000000000000014
  0
ARC
  5
90
  8
0
 10
155.374913634059
 20
142.44823040680879
 30
0.0
 40
3.9999999999999991
 50
90.000000000000028
 51
180.0
  0
ARC
  5
91
  8
0
 10
155.21662579122309
 20
145.9482304068089
 30
0.0
 40
7.9999999999999991
 50
90.000000000000071
 51
145.85000000000031
  0
ARC
  5
92
  8
0
 10
249.3749136340592
 20
142.4482304068089
 30
0.0
 40
5.0999999999999988
 50
0.0000000000000763
 51
90.000000000000028
  0
LINE
  5
93
  8
2
 10
138.37491363405911
 20
115.9482304068089
 30
0.0
 11
138.37491363405911
 21
132.9482304068089
 31
0.0
  0
LINE
  5
94
  8
2
 10
149.374913634059
 20
115.9482304068089
 30
0.0
 11
149.374913634059
 21
132.9482304068089
 31
0.0
  0
LINE
  5
95
  8
2
 10
148.37491363405891
 20
133.9482304068089
 30
0.0
 11
139.374913634059
 21
133.9482304068089
 31
0.0
  0
LINE
  5
96
  8
2
 10
139.374913634059
 20
133.9482304068089
 30
0.0
 11
138.37491363405911
 21
132.9482304068089
 31
0.0
  0
LINE
  5
97
  8
2
 10
148.37491363405891
 20
133.9482304068089
 30
0.0
 11
149.374913634059
 21
132.9482304068089
 31
0.0
  0
LINE
  5
98
  8
1
 10
143.874913634059
 20
138.9482304068089
 30
0.0
 11
143.874913634059
 21
110.9482304068088
 31
0.0
  0
LINE
  5
99
  8
1
 10
202.374913634059
 20
158.9482304068089
 30
0.0
 11
202.374913634059
 21
141.4482304068089
 31
0.0
  0
LINE
  5
9A
  8
1
 10
260.87491363405883
 20
138.9482304068089
 30
0.0
 11
260.87491363405888
 21
110.9482304068088
 31
0.0
  0
ARC
  5
9B
  8
0
 10
155.374913634059
 20
142.44823040680879
 30
0.0
 40
5.099999999999965
 50
90.000000000000028
 51
180.0
  0
LINE
  5
9C
  8
0
 10
150.27491363405909
 20
115.9482304068088
 30
0.0
 11
150.27491363405909
 21
142.44823040680879
 31
0.0
  0
LINE
  5
9D
  8
0
 10
249.3749136340592
 20
147.5482304068089
 30
0.0
 11
155.374913634059
 21
147.5482304068089
 31
0.0
  0
LINE
  5
9E
  8
2
 10
147.874913634059
 20
128.94823040680879
 30
0.0
 11
147.19841363405911
 21
130.11996277812909
 31
0.0
  0
LINE
  5
9F
  8
2
 10
139.874913634059
 20
128.94823040680879
 30
0.0
 11
140.55141363405889
 21
130.11996277812909
 31
0.0
  0
LINE
  5
A0
  8
2
 10
139.72491363405891
 20
115.9482304068088
 30
0.0
 11
139.72491363405891
 21
117.4482304068088
 31
0.0
  0
LINE
  5
A1
  8
2
 10
148.02491363405909
 20
115.9482304068088
 30
0.0
 11
148.02491363405909
 21
117.4482304068088
 31
0.0
  0
LINE
  5
A2
  8
2
 10
139.72491363405891
 20
117.4482304068088
 30
0.0
 11
148.02491363405909
 21
117.4482304068088
 31
0.0
  0
LINE
  5
A3
  8
2
 10
139.874913634059
 20
117.4482304068088
 30
0.0
 11
139.874913634059
 21
128.94823040680879
 31
0.0
  0
LINE
  5
A4
  8
2
 10
140.55141363405889
 20
117.4482304068088
 30
0.0
 11
140.55141363405889
 21
130.9482304068089
 31
0.0
  0
LINE
  5
A5
  8
2
 10
147.19841363405911
 20
117.4482304068088
 30
0.0
 11
147.19841363405911
 21
130.9482304068089
 31
0.0
  0
LINE
  5
A6
  8
2
 10
147.874913634059
 20
117.4482304068088
 30
0.0
 11
147.874913634059
 21
128.94823040680879
 31
0.0
  0
LINE
  5
A7
  8
2
 10
147.19841363405919
 20
130.9482304068089
 30
0.0
 11
143.874913634059
 21
132.94519067414711
 31
0.0
  0
LINE
  5
A8
  8
2
 10
140.5514136340588
 20
130.9482304068089
 30
0.0
 11
143.874913634059
 21
132.94519067414711
 31
0.0
  0
LINE
  5
A9
  8
2
 10
139.874913634059
 20
128.94823040680879
 30
0.0
 11
147.874913634059
 21
128.94823040680879
 31
0.0
  0
LINE
  5
AA
  8
2
 10
140.55141363405889
 20
130.9482304068089
 30
0.0
 11
147.19841363405911
 21
130.9482304068089
 31
0.0
  0
LINE
  5
AB
  8
2
 10
257.5514136340588
 20
130.9482304068089
 30
0.0
 11
264.19841363405902
 21
130.9482304068089
 31
0.0
  0
LINE
  5
AC
  8
2
 10
256.87491363405888
 20
128.94823040680879
 30
0.0
 11
264.87491363405888
 21
128.94823040680879
 31
0.0
  0
LINE
  5
AD
  8
2
 10
257.55141363405869
 20
130.9482304068089
 30
0.0
 11
260.87491363405888
 21
132.94519067414711
 31
0.0
  0
LINE
  5
AE
  8
2
 10
264.19841363405908
 20
130.9482304068089
 30
0.0
 11
260.87491363405888
 21
132.94519067414711
 31
0.0
  0
LINE
  5
AF
  8
2
 10
264.87491363405888
 20
117.4482304068088
 30
0.0
 11
264.87491363405888
 21
128.94823040680879
 31
0.0
  0
LINE
  5
B0
  8
2
 10
264.19841363405902
 20
117.4482304068088
 30
0.0
 11
264.19841363405902
 21
130.9482304068089
 31
0.0
  0
LINE
  5
B1
  8
2
 10
257.5514136340588
 20
117.4482304068088
 30
0.0
 11
257.5514136340588
 21
130.9482304068089
 31
0.0
  0
LINE
  5
B2
  8
2
 10
256.87491363405888
 20
117.4482304068088
 30
0.0
 11
256.87491363405888
 21
128.94823040680879
 31
0.0
  0
LINE
  5
B3
  8
2
 10
256.72491363405879
 20
117.4482304068088
 30
0.0
 11
265.02491363405898
 21
117.4482304068088
 31
0.0
  0
LINE
  5
B4
  8
2
 10
265.02491363405898
 20
115.9482304068088
 30
0.0
 11
265.02491363405898
 21
117.4482304068088
 31
0.0
  0
LINE
  5
B5
  8
2
 10
256.72491363405879
 20
115.9482304068088
 30
0.0
 11
256.72491363405879
 21
117.4482304068088
 31
0.0
  0
LINE
  5
B6
  8
2
 10
256.87491363405888
 20
128.94823040680879
 30
0.0
 11
257.5514136340588
 21
130.11996277812909
 31
0.0
  0
LINE
  5
B7
  8
2
 10
264.87491363405888
 20
128.94823040680879
 30
0.0
 11
264.19841363405902
 21
130.11996277812909
 31
0.0
  0
LINE
  5
B8
  8
2
 10
265.37491363405883
 20
133.9482304068089
 30
0.0
 11
266.37491363405883
 21
132.9482304068089
 31
0.0
  0
LINE
  5
B9
  8
2
 10
256.37491363405883
 20
133.9482304068089
 30
0.0
 11
255.374913634059
 21
132.9482304068089
 31
0.0
  0
LINE
  5
BA
  8
2
 10
265.37491363405883
 20
133.9482304068089
 30
0.0
 11
256.37491363405883
 21
133.9482304068089
 31
0.0
  0
LINE
  5
BB
  8
2
 10
266.37491363405883
 20
115.9482304068089
 30
0.0
 11
266.37491363405883
 21
132.9482304068089
 31
0.0
  0
LINE
  5
BC
  8
2
 10
255.374913634059
 20
115.9482304068089
 30
0.0
 11
255.374913634059
 21
132.9482304068089
 31
0.0
  0
CIRCLE
  5
BD
  8
3
 10
143.874913634059
 20
67.783806288302742
 30
0.0
 40
4.0
  0
CIRCLE
  5
BE
  8
0
 10
143.874913634059
 20
67.783806288302742
 30
0.0
 40
3.3235000000000001
  0
CIRCLE
  5
BF
  8
0
 10
143.874913634059
 20
67.783806288302742
 30
0.0
 40
4.1500000000000901
  0
CIRCLE
  5
C0
  8
0
 10
260.87491363405888
 20
67.783806288302742
 30
0.0
 40
3.3235000000000001
  0
CIRCLE
  5
C1
  8
3
 10
260.87491363405888
 20
67.783806288302742
 30
0.0
 40
4.0
  0
CIRCLE
  5
C2
  8
0
 10
260.87491363405888
 20
67.783806288302742
 30
0.0
 40
4.1500000000000901
  0
LINE
  5
C5
  8
0
 10
139.00645368683431
 20
74.871359294089103
 30
0.0
 11
139.13765192611081
 21
76.37096203105024
 31
0.0
  0
ARC
  5
C6
  8
0
 10
140.1338466242025
 20
76.283806288302586
 30
0.0
 40
1.0
 50
90.000000000000227
 51
175.00000000000051
  0
ARC
  5
C7
  8
0
 10
140.002648384926
 20
74.784203551341463
 30
0.0
 40
1.0
 50
175.0000000000002
 51
298.94914683412401
  0
LINE
  5
C8
  8
0
 10
148.03862158681829
 20
75.217176007073022
 30
0.0
 11
147.9376783895857
 21
76.370962031050254
 31
0.0
  0
ARC
  5
C9
  8
0
 10
146.941483691494
 20
76.2838062883026
 30
0.0
 40
1.0
 50
4.9999999999994342
 51
90.000000000000057
  0
ARC
  5
CA
  8
0
 10
147.0424268887266
 20
75.130020264325367
 30
0.0
 40
1.0
 50
246.67544025270769
 51
4.9999999999997433
  0
ARC
  5
CB
  8
0
 10
147.0424268887266
 20
60.437592312280401
 30
0.0
 40
1.0
 50
355.00000000000028
 51
113.3245597472923
  0
ARC
  5
CC
  8
0
 10
146.941483691494
 20
59.283806288303168
 30
0.0
 40
1.0
 50
269.99999999999989
 51
355.00000000000063
  0
LINE
  5
CD
  8
0
 10
148.03862158681829
 20
60.350436569532739
 30
0.0
 11
147.9376783895857
 21
59.196650545555507
 31
0.0
  0
ARC
  5
CE
  8
0
 10
140.002648384926
 20
60.783409025264312
 30
0.0
 40
1.0
 50
61.050853165875957
 51
184.99999999999969
  0
ARC
  5
CF
  8
0
 10
140.1338466242025
 20
59.283806288303182
 30
0.0
 40
1.0
 50
184.99999999999949
 51
269.99999999999977
  0
LINE
  5
D0
  8
0
 10
139.00645368683431
 20
60.696253282516651
 30
0.0
 11
139.13765192611081
 21
59.196650545555528
 31
0.0
  0
LINE
  5
D1
  8
0
 10
140.1338466242025
 20
58.283806288303182
 30
0.0
 11
146.941483691494
 21
58.283806288303161
 31
0.0
  0
ARC
  5
D2
  8
0
 10
143.874913634059
 20
67.783806288303126
 30
0.0
 40
7.0
 50
241.05085316587611
 51
293.32455974729282
  0
ARC
  5
D3
  8
0
 10
257.70740037939112
 20
75.130020264325367
 30
0.0
 40
1.0
 50
175.0000000000002
 51
293.32455974729231
  0
ARC
  5
D4
  8
0
 10
257.80834357662371
 20
76.2838062883026
 30
0.0
 40
1.0
 50
89.999999999999943
 51
175.0000000000006
  0
LINE
  5
D5
  8
0
 10
256.71120568129919
 20
75.217176007073022
 30
0.0
 11
256.8121488785319
 21
76.370962031050254
 31
0.0
  0
ARC
  5
D6
  8
0
 10
264.74717888319162
 20
74.784203551341463
 30
0.0
 40
1.0
 50
241.05085316587599
 51
4.9999999999997389
  0
ARC
  5
D7
  8
0
 10
264.61598064391512
 20
76.283806288302586
 30
0.0
 40
1.0
 50
4.9999999999994849
 51
89.999999999999758
  0
LINE
  5
D8
  8
0
 10
265.74337358128338
 20
74.871359294089103
 30
0.0
 11
265.61217534200682
 21
76.37096203105024
 31
0.0
  0
LINE
  5
D9
  8
0
 10
264.61598064391512
 20
77.283806288302586
 30
0.0
 11
257.80834357662371
 21
77.2838062883026
 31
0.0
  0
ARC
  5
DA
  8
0
 10
260.8749136340586
 20
67.783806288302642
 30
0.0
 40
7.0
 50
61.050853165876063
 51
113.3245597472927
  0
ARC
  5
DB
  8
0
 10
260.8749136340586
 20
67.783806288303126
 30
0.0
 40
7.0
 50
246.6754402527072
 51
298.94914683412401
  0
LINE
  5
DC
  8
0
 10
264.61598064391512
 20
58.283806288303182
 30
0.0
 11
257.80834357662371
 21
58.283806288303161
 31
0.0
  0
LINE
  5
DD
  8
0
 10
265.74337358128338
 20
60.696253282516651
 30
0.0
 11
265.61217534200682
 21
59.196650545555528
 31
0.0
  0
ARC
  5
DE
  8
0
 10
264.61598064391512
 20
59.283806288303182
 30
0.0
 40
1.0
 50
270.00000000000023
 51
355.00000000000051
  0
ARC
  5
DF
  8
0
 10
264.74717888319162
 20
60.783409025264312
 30
0.0
 40
1.0
 50
355.00000000000028
 51
118.94914683412399
  0
LINE
  5
E0
  8
0
 10
256.71120568129919
 20
60.350436569532739
 30
0.0
 11
256.8121488785319
 21
59.196650545555507
 31
0.0
  0
ARC
  5
E1
  8
0
 10
257.80834357662371
 20
59.283806288303168
 30
0.0
 40
1.0
 50
184.9999999999994
 51
270.00000000000011
  0
ARC
  5
E2
  8
0
 10
257.70740037939112
 20
60.437592312280401
 30
0.0
 40
1.0
 50
66.675440252707702
 51
184.9999999999998
  0
LINE
  5
25C
  8
1
 10
143.87491363405911
 20
218.2315480948572
 30
0.0
 11
143.87491363405911
 21
197.2315480948572
 31
0.0
  0
LINE
  5
25D
  8
1
 10
260.87491363405883
 20
218.2315480948572
 30
0.0
 11
260.87491363405883
 21
197.2315480948572
 31
0.0
  0
TEXT
  5
32D
  8
0
 62
     3
 10
0.0
 20
0.0
 30
0.0
 40
10.0
  1
AGS130T8-OG
  7
STANDARD1
  0
ENDSEC
  0
EOF
