  0
SECTION
  2
HEADER
  9
$ACADVER
  1
AC1009
  9
$INSBASE
 10
0.0
 20
0.0
 30
0.0
  9
$EXTMIN
 10
-0.0204638472032742
 20
-2.960436562073669
 30
0.0
  9
$EXTMAX
 10
304.0142158948463
 20
187.70459147125129
 30
0.0
  9
$LIMMIN
 10
0.0
 20
0.0
  9
$LIMMAX
 10
375.0
 20
270.0
  9
$ORTHOMODE
 70
     1
  9
$REGENMODE
 70
     1
  9
$FILLMODE
 70
     1
  9
$QTEXTMODE
 70
     0
  9
$MIRRTEXT
 70
     0
  9
$DRAGMODE
 70
     2
  9
$LTSCALE
 40
10.0
  9
$OSMODE
 70
  3071
  9
$ATTMODE
 70
     1
  9
$TEXTSIZE
 40
0.2
  9
$TRACEWID
 40
0.05
  9
$TEXTSTYLE
  7
STANDARD
  9
$CLAYER
  8
0
  9
$CELTYPE
  6
BYLAYER
  9
$CECOLOR
 62
   256
  9
$DIMSCALE
 40
1.0
  9
$DIMASZ
 40
3.0
  9
$DIMEXO
 40
2.0
  9
$DIMDLI
 40
0.38
  9
$DIMRND
 40
0.0
  9
$DIMDLE
 40
0.0
  9
$DIMEXE
 40
2.0
  9
$DIMTP
 40
0.0
  9
$DIMTM
 40
0.0
  9
$DIMTXT
 40
3.2000000000000002
  9
$DIMCEN
 40
0.09
  9
$DIMTSZ
 40
0.0
  9
$DIMTOL
 70
     0
  9
$DIMLIM
 70
     0
  9
$DIMTIH
 70
     0
  9
$DIMTOH
 70
     0
  9
$DIMSE1
 70
     0
  9
$DIMSE2
 70
     0
  9
$DIMTAD
 70
     1
  9
$DIMZIN
 70
     0
  9
$DIMBLK
  1

  9
$DIMASO
 70
     1
  9
$DIMSHO
 70
     0
  9
$DIMPOST
  1

  9
$DIMAPOST
  1

  9
$DIMALT
 70
     0
  9
$DIMALTD
 70
     2
  9
$DIMALTF
 40
25.399999999999999
  9
$DIMLFAC
 40
1.0
  9
$DIMTOFL
 70
     0
  9
$DIMTVP
 40
1.6000000000000001
  9
$DIMTIX
 70
     1
  9
$DIMSOXD
 70
     0
  9
$DIMSAH
 70
     0
  9
$DIMBLK1
  1

  9
$DIMBLK2
  1

  9
$DIMSTYLE
  2
STANDARD
  9
$DIMCLRD
 70
     0
  9
$DIMCLRE
 70
     0
  9
$DIMCLRT
 70
     0
  9
$DIMTFAC
 40
1.0
  9
$DIMGAP
 40
0.09
  9
$LUNITS
 70
     2
  9
$LUPREC
 70
     4
  9
$SKETCHINC
 40
0.1
  9
$FILLETRAD
 40
2.0
  9
$AUNITS
 70
     0
  9
$AUPREC
 70
     0
  9
$MENU
  1
E:\r13\win\SUPPORT\ACAD
  9
$ELEVATION
 40
0.0
  9
$PELEVATION
 40
0.0
  9
$THICKNESS
 40
0.0
  9
$LIMCHECK
 70
     0
  9
$BLIPMODE
 70
     0
  9
$CHAMFERA
 40
0.0
  9
$CHAMFERB
 40
0.0
  9
$SKPOLY
 70
     0
  9
$TDCREATE
 40
2447977.5416277782
  9
$TDUPDATE
 40
2456597.5018049772
  9
$TDINDWG
 40
0.0230665162
  9
$TDUSRTIMER
 40
0.0230665162
  9
$USRTIMER
 70
     1
  9
$ANGBASE
 50
0.0
  9
$ANGDIR
 70
     0
  9
$PDMODE
 70
     0
  9
$PDSIZE
 40
0.0
  9
$PLINEWID
 40
0.0
  9
$COORDS
 70
     1
  9
$SPLFRAME
 70
     0
  9
$SPLINETYPE
 70
     6
  9
$SPLINESEGS
 70
     8
  9
$ATTDIA
 70
     0
  9
$ATTREQ
 70
     1
  9
$HANDLING
 70
     1
  9
$HANDSEED
  5
53F
  9
$SURFTAB1
 70
     6
  9
$SURFTAB2
 70
     6
  9
$SURFTYPE
 70
     6
  9
$SURFU
 70
     6
  9
$SURFV
 70
     6
  9
$UCSNAME
  2

  9
$UCSORG
 10
0.0
 20
0.0
 30
0.0
  9
$UCSXDIR
 10
1.0
 20
0.0
 30
0.0
  9
$UCSYDIR
 10
0.0
 20
1.0
 30
0.0
  9
$PUCSNAME
  2

  9
$PUCSORG
 10
0.0
 20
0.0
 30
0.0
  9
$PUCSXDIR
 10
1.0
 20
0.0
 30
0.0
  9
$PUCSYDIR
 10
0.0
 20
1.0
 30
0.0
  9
$USERI1
 70
     0
  9
$USERI2
 70
     1
  9
$USERI3
 70
     1
  9
$USERI4
 70
     0
  9
$USERI5
 70
     0
  9
$USERR1
 40
0.0
  9
$USERR2
 40
0.0
  9
$USERR3
 40
0.0
  9
$USERR4
 40
0.0
  9
$USERR5
 40
0.0
  9
$WORLDVIEW
 70
     1
  9
$SHADEDGE
 70
     3
  9
$SHADEDIF
 70
    70
  9
$TILEMODE
 70
     1
  9
$MAXACTVP
 70
    16
  9
$PLIMCHECK
 70
     0
  9
$PEXTMIN
 10
1.0000000000000000E+020
 20
1.0000000000000000E+020
 30
1.0000000000000000E+020
  9
$PEXTMAX
 10
-1.0000000000000000E+020
 20
-1.0000000000000000E+020
 30
-1.0000000000000000E+020
  9
$PLIMMIN
 10
0.0
 20
0.0
  9
$PLIMMAX
 10
12.0
 20
9.0
  9
$UNITMODE
 70
     0
  9
$VISRETAIN
 70
     0
  9
$PLINEGEN
 70
     1
  9
$PSLTSCALE
 70
     0
  0
ENDSEC
  0
SECTION
  2
TABLES
  0
TABLE
  2
VPORT
 70
     1
  0
VPORT
  2
*ACTIVE
 70
     0
 10
0.0
 20
0.0
 11
1.0
 21
1.0
 12
195.04380321732449
 22
133.5127261426681
 13
0.0
 23
0.0
 14
10.0
 24
10.0
 15
10.0
 25
10.0
 16
0.0
 26
0.0
 36
1.0
 17
0.0
 27
0.0
 37
0.0
 40
275.42274993631997
 41
1.831871345029239
 42
50.0
 43
0.0
 44
0.0
 50
0.0
 51
0.0
 71
     0
 72
   500
 73
     1
 74
     0
 75
     0
 76
     0
 77
     0
 78
     2
  0
ENDTAB
  0
TABLE
  2
LTYPE
 70
     4
  0
LTYPE
  2
CONTINUOUS
 70
     0
  3
Solid Line
 72
    65
 73
     0
 40
0.0
  0
LTYPE
  2
CENTER
 70
     0
  3
____ _ ____ _ ____ _ ____ _ ____ _ ____ _ ____
 72
    65
 73
     4
 40
2.0
 49
1.25
 49
-0.25
 49
0.25
 49
-0.25
  0
LTYPE
  2
HIDDEN
 70
     0
  3
_ _ _ _ _ _ _ _ _ _ _ _ _ _ _ _ _ _ _ _ _ _ _
 72
    65
 73
     2
 40
0.375
 49
0.25
 49
-0.125
  0
LTYPE
  2
PHANTOM2
 70
     0
  3
___ _ _ ___ _ _ ___ _ _ ___ _ _
 72
    65
 73
     6
 40
1.25
 49
0.625
 49
-0.125
 49
0.125
 49
-0.125
 49
0.125
 49
-0.125
  0
ENDTAB
  0
TABLE
  2
LAYER
 70
     4
  0
LAYER
  2
0
 70
     0
 62
     7
  6
CONTINUOUS
  0
LAYER
  2
1
 70
     0
 62
     1
  6
CENTER
  0
LAYER
  2
2
 70
     0
 62
     2
  6
HIDDEN
  0
LAYER
  2
DEFPOINTS
 70
     0
 62
     7
  6
CONTINUOUS
  0
ENDTAB
  0
TABLE
  2
STYLE
 70
     2
  0
STYLE
  2
STANDARD
 70
     0
 40
0.0
 41
1.0
 50
0.0
 71
     0
 42
0.2
  3
TXT
  4
BIGFONT
  0
STYLE
  2
STANDARD1
 70
     0
 40
0.0
 41
1.0
 50
0.0
 71
     0
 42
3.0
  3
txt
  4

  0
ENDTAB
  0
TABLE
  2
VIEW
 70
     1
  0
VIEW
  2
ALL
 70
     0
 40
270.0
 10
220.99159663865549
 20
135.0
 41
0.0
 11
0.0
 21
0.0
 31
1.0
 12
0.0
 22
0.0
 32
0.0
 42
0.0
 43
0.0
 44
0.0
 50
0.0
 71
     0
  0
ENDTAB
  0
TABLE
  2
UCS
 70
     0
  0
ENDTAB
  0
TABLE
  2
APPID
 70
     5
  0
APPID
  2
ACAD
 70
     0
  0
APPID
  2
GENIUS_GENODEF_13
 70
     0
  0
APPID
  2
GENIUS_GENOBJ-N-FIL_13
 70
     0
  0
APPID
  2
ACAD_MLEADERVER
 70
     0
  0
APPID
  2
ACAD_NAV_VCDISPLAY
 70
     0
  0
ENDTAB
  0
TABLE
  2
DIMSTYLE
 70
     1
  0
DIMSTYLE
  2
STANDARD
 70
     0
  3

  4

  5

  6

  7

 40
1.0
 41
0.18
 42
0.0625
 43
0.38
 44
0.18
 45
0.0
 46
0.0
 47
0.0
 48
0.0
140
0.18
141
0.09
142
0.0
143
25.399999999999999
144
1.0
145
0.0
146
1.0
147
0.09
 71
     0
 72
     0
 73
     1
 74
     1
 75
     0
 76
     0
 77
     0
 78
     0
170
     0
171
     2
172
     0
173
     0
174
     0
175
     0
176
     0
177
     0
178
     0
  0
ENDTAB
  0
ENDSEC
  0
SECTION
  2
BLOCKS
  0
BLOCK
  8
0
  2
$MODEL_SPACE
 70
     0
 10
0.0
 20
0.0
 30
0.0
  3
$MODEL_SPACE
  1

  0
ENDBLK
  5
19F
  8
0
  0
BLOCK
 67
     1
  8
0
  2
$PAPER_SPACE
 70
     0
 10
0.0
 20
0.0
 30
0.0
  3
$PAPER_SPACE
  1

  0
ENDBLK
  5
19D
 67
     1
  8
0
  0
ENDSEC
  0
SECTION
  2
ENTITIES
  0
LINE
  5
1F5
  8
1
 10
289.0142158948463
 20
59.716903044580988
 30
0.0
 11
289.0142158948463
 21
32.716903044580988
 31
0.0
  0
LINE
  5
1F6
  8
1
 10
287.5142158948463
 20
59.716903044580988
 30
0.0
 11
287.51421589484619
 21
32.716903044580988
 31
0.0
  0
LINE
  5
1F7
  8
0
 10
276.71421589484629
 20
37.716903044580988
 30
0.0
 11
276.71421589484629
 21
73.216903044580974
 31
0.0
  0
LINE
  5
1F8
  8
0
 10
275.5142158948463
 20
73.216903044580974
 30
0.0
 11
275.5142158948463
 21
37.716903044580988
 31
0.0
  0
LINE
  5
1F9
  8
0
 10
299.01421589484619
 20
37.716903044580988
 30
0.0
 11
299.0142158948463
 21
54.716903044580988
 31
0.0
  0
LINE
  5
1FA
  8
2
 10
295.76421589484619
 20
46.216903044580903
 30
0.0
 11
280.7642158948463
 21
46.216903044581052
 31
0.0
  0
LINE
  5
1FB
  8
0
 10
275.5142158948463
 20
37.716903044580988
 30
0.0
 11
299.01421589484619
 21
37.716903044580988
 31
0.0
  0
ARC
  5
1FC
  8
0
 10
271.0142158948463
 20
73.216903044580974
 30
0.0
 40
4.5
 50
0.000000000000007
 51
90.0
  0
ARC
  5
1FD
  8
0
 10
271.0142158948463
 20
73.216903044580974
 30
0.0
 40
5.7000000000000002
 50
0.000000000000007
 51
90.0
  0
LINE
  5
1FE
  8
2
 10
279.5142158948463
 20
54.71690304458096
 30
0.0
 11
279.51421589484619
 21
80.195407987361634
 31
0.0
  0
LINE
  5
1FF
  8
2
 10
279.51421589484619
 20
54.716903044580988
 30
0.0
 11
299.01421589484619
 21
54.716903044580988
 31
0.0
  0
ARC
  5
200
  8
2
 10
275.01421589484619
 20
80.195407987361634
 30
0.0
 40
4.5
 50
0.000000000000007
 51
84.397605312766657
  0
ARC
  5
201
  8
0
 10
277.07490566564047
 20
75.716903044580974
 30
0.0
 40
9.0
 50
30.000000000000561
 51
90.000012142557793
  0
LINE
  5
202
  8
0
 10
299.0142158948463
 20
54.716903044580988
 30
0.0
 11
284.86913429970048
 21
80.216903044580988
 31
0.0
  0
LINE
  5
203
  8
2
 10
280.76421589484619
 20
54.716903044580988
 30
0.0
 11
280.76421589484619
 21
46.216903044581073
 31
0.0
  0
LINE
  5
204
  8
2
 10
283.26421589484619
 20
46.216903044581052
 30
0.0
 11
283.26421589484619
 21
37.716903044580988
 31
0.0
  0
LINE
  5
205
  8
2
 10
293.26421589484619
 20
46.216903044580931
 30
0.0
 11
293.26421589484619
 21
37.716903044580988
 31
0.0
  0
LINE
  5
206
  8
2
 10
295.76421589484607
 20
54.716903044580988
 30
0.0
 11
295.76421589484619
 21
46.216903044580903
 31
0.0
  0
LINE
  5
207
  8
2
 10
130.26421589484639
 20
54.716903044580988
 30
0.0
 11
130.26421589484639
 21
46.216903044580903
 31
0.0
  0
LINE
  5
208
  8
2
 10
132.76421589484639
 20
46.216903044580931
 30
0.0
 11
132.76421589484639
 21
37.716903044580988
 31
0.0
  0
LINE
  5
209
  8
2
 10
142.76421589484639
 20
46.216903044581052
 30
0.0
 11
142.76421589484639
 21
37.716903044580988
 31
0.0
  0
LINE
  5
20A
  8
2
 10
145.26421589484639
 20
54.716903044580988
 30
0.0
 11
145.26421589484639
 21
46.216903044581073
 31
0.0
  0
LINE
  5
215
  8
0
 10
137.01421589484639
 20
163.20459147125129
 30
0.0
 11
138.51421589484639
 21
163.20459147125129
 31
0.0
  0
ARC
  5
216
  8
0
 10
138.51421589484639
 20
169.95459147125129
 30
0.0
 40
6.75
 50
270.0
 51
90.0
  0
LINE
  5
217
  8
0
 10
137.01421589484639
 20
176.70459147125129
 30
0.0
 11
138.51421589484639
 21
176.70459147125129
 31
0.0
  0
ARC
  5
218
  8
0
 10
137.01421589484639
 20
169.95459147125129
 30
0.0
 40
6.75
 50
90.0
 51
270.0
  0
LINE
  5
219
  8
0
 10
127.0142158948463
 20
54.716903044580988
 30
0.0
 11
141.1592974899921
 21
80.216903044580988
 31
0.0
  0
ARC
  5
21A
  8
0
 10
148.9535261240521
 20
75.716903044580974
 30
0.0
 40
9.0
 50
89.999987857442193
 51
149.9999999999994
  0
ARC
  5
21B
  8
2
 10
151.01421589484639
 20
80.195407987361634
 30
0.0
 40
4.5
 50
95.602394687233343
 51
180.0
  0
LINE
  5
21C
  8
2
 10
146.51421589484639
 20
54.716903044580988
 30
0.0
 11
127.0142158948464
 21
54.716903044580988
 31
0.0
  0
LINE
  5
21D
  8
2
 10
146.5142158948463
 20
54.71690304458096
 30
0.0
 11
146.51421589484639
 21
80.195407987361634
 31
0.0
  0
ARC
  5
21E
  8
0
 10
155.0142158948463
 20
73.216903044580974
 30
0.0
 40
5.7000000000000002
 50
90.0
 51
180.0
  0
ARC
  5
21F
  8
0
 10
155.0142158948463
 20
73.216903044580974
 30
0.0
 40
4.5
 50
90.0
 51
180.0
  0
LINE
  5
220
  8
0
 10
150.5142158948463
 20
37.716903044580988
 30
0.0
 11
127.0142158948464
 21
37.716903044580988
 31
0.0
  0
LINE
  5
221
  8
2
 10
130.26421589484639
 20
46.216903044580903
 30
0.0
 11
145.2642158948463
 21
46.216903044581052
 31
0.0
  0
ARC
  5
223
  8
0
 10
128.89292236764879
 20
179.95459147125129
 30
0.0
 40
1.0
 50
175.0
 51
270.0
  0
LINE
  5
224
  8
0
 10
127.0142158948462
 20
169.95459147125129
 30
0.0
 11
128.0355858042976
 21
181.62890295674671
 31
0.0
  0
LINE
  5
225
  8
0
 10
138.51421589484639
 20
174.20459147125129
 30
0.0
 11
137.01421589484639
 21
174.20459147125129
 31
0.0
  0
LINE
  5
226
  8
0
 10
150.5142158948463
 20
182.70459147125129
 30
0.0
 11
150.5142158948463
 21
183.45459147125129
 31
0.0
  0
ARC
  5
227
  8
0
 10
145.5142158948463
 20
177.95459147125129
 30
0.0
 40
1.0
 50
0.0
 51
90.0
1001
GENIUS_GENODEF_13
1002
{
1000
HIER
1070
     0
1002
}
1002
{
1000
MANEDIT
1070
     0
1002
}
1002
{
1000
NOSEL
1070
     0
1002
}
1002
{
1000
BEHIND
1070
     0
1002
}
1002
{
1000
OTHER
1070
     0
1002
}
1002
{
1000
REACTOR
1002
}
1001
GENIUS_GENOBJ-N-FIL_13
1002
{
1000
OWNER
1000
GEN
1002
}
  0
LINE
  5
228
  8
0
 10
137.01421589484639
 20
165.70459147125129
 30
0.0
 11
138.51421589484639
 21
165.70459147125129
 31
0.0
  0
ARC
  5
229
  8
0
 10
138.51421589484639
 20
169.95459147125129
 30
0.0
 40
4.25
 50
270.0
 51
90.0
  0
ARC
  5
22A
  8
0
 10
137.01421589484639
 20
169.95459147125129
 30
0.0
 40
4.25
 50
90.0
 51
270.0
  0
LINE
  5
22B
  8
0
 10
146.5142158948465
 20
161.95459147125129
 30
0.0
 11
146.5142158948463
 21
177.95459147125129
 31
0.0
  0
LINE
  5
22C
  8
0
 10
130.02797520048111
 20
183.4545914712514
 30
0.0
 11
150.5142158948463
 21
183.45459147125129
 31
0.0
  0
LINE
  5
22D
  8
0
 10
132.3815274924541
 20
183.4545914712514
 30
0.0
 11
150.5142158948463
 21
182.70459147125129
 31
0.0
  0
LINE
  5
22E
  8
0
 10
128.89292236764879
 20
178.95459147125129
 30
0.0
 11
145.5142158948463
 21
178.95459147125129
 31
0.0
  0
LINE
  5
233
  8
0
 10
128.89292236764891
 20
160.95459147125129
 30
0.0
 11
145.5142158948465
 21
160.95459147125129
 31
0.0
  0
LINE
  5
234
  8
0
 10
127.0142158948464
 20
169.95459147125129
 30
0.0
 11
128.03558580429771
 21
158.2802799857559
 31
0.0
  0
ARC
  5
235
  8
0
 10
128.89292236764891
 20
159.95459147125129
 30
0.0
 40
1.0
 50
90.0
 51
185.0
  0
ARC
  5
236
  8
0
 10
145.5142158948465
 20
161.95459147125129
 30
0.0
 40
1.0
 50
270.0
 51
0.0
1001
GENIUS_GENOBJ-N-FIL_13
1002
{
1000
OWNER
1000
GEN
1002
}
1001
GENIUS_GENODEF_13
1002
{
1000
HIER
1070
     0
1002
}
1002
{
1000
MANEDIT
1070
     0
1002
}
1002
{
1000
NOSEL
1070
     0
1002
}
1002
{
1000
BEHIND
1070
     0
1002
}
1002
{
1000
OTHER
1070
     0
1002
}
1002
{
1000
REACTOR
1002
}
  0
LINE
  5
237
  8
1
 10
138.51421589484639
 20
179.2045914712514
 30
0.0
 11
138.51421589484639
 21
160.70459147125121
 31
0.0
  0
LINE
  5
238
  8
1
 10
137.01421589484639
 20
179.2045914712514
 30
0.0
 11
137.01421589484639
 21
160.70459147125121
 31
0.0
  0
LINE
  5
239
  8
0
 10
278.01421589484619
 20
157.20459147125129
 30
0.0
 11
150.5142158948463
 21
157.20459147125129
 31
0.0
  0
LINE
  5
23A
  8
0
 10
277.0749056656403
 20
169.95459147125129
 30
0.0
 11
151.9535261240521
 21
169.95459147125129
 31
0.0
  0
LINE
  5
23B
  8
0
 10
278.01421589484619
 20
182.70459147125129
 30
0.0
 11
150.5142158948463
 21
182.70459147125129
 31
0.0
  0
LINE
  5
23C
  8
0
 10
127.0142158948464
 20
37.716903044580988
 30
0.0
 11
127.0142158948463
 21
54.716903044580988
 31
0.0
  0
LINE
  5
23D
  8
0
 10
150.5142158948463
 20
73.216903044580974
 30
0.0
 11
150.5142158948463
 21
37.716903044580988
 31
0.0
  0
LINE
  5
23E
  8
0
 10
149.3142158948462
 20
37.716903044580988
 30
0.0
 11
149.3142158948462
 21
73.216903044580974
 31
0.0
  0
LINE
  5
23F
  8
1
 10
138.5142158948463
 20
59.716903044580988
 30
0.0
 11
138.51421589484639
 21
32.716903044580988
 31
0.0
  0
LINE
  5
240
  8
1
 10
137.01421589484619
 20
59.716903044580988
 30
0.0
 11
137.0142158948463
 21
32.716903044580988
 31
0.0
  0
LINE
  5
243
  8
1
 10
122.0142158948463
 20
169.95459147125129
 30
0.0
 11
304.0142158948463
 21
169.95459147125129
 31
0.0
  0
LINE
  5
244
  8
1
 10
213.0142158948463
 20
89.716903044580974
 30
0.0
 11
213.0142158948463
 21
72.716903044580988
 31
0.0
  0
LINE
  5
245
  8
0
 10
66.061703614238027
 20
81.814176600333724
 30
0.0
 11
66.061703614238027
 21
80.619629488828252
 31
0.0
  0
ARC
  5
246
  8
0
 10
64.062215374443966
 20
81.768935259447005
 30
0.0
 40
2.0
 50
1.296179503560958
 51
85.000000000000256
  0
ARC
  5
247
  8
0
 10
58.014215894846537
 20
73.059141387259956
 30
0.0
 40
7.136266600101691
 50
75.409779502456956
 51
90.0
  0
ARC
  5
248
  8
0
 10
60.68844912672445
 20
77.36753813919205
 30
0.0
 40
1.8257667681220859
 50
0.0
 51
33.390458869963311
  0
ARC
  5
249
  8
0
 10
59.410105890367461
 20
76.524931476108748
 30
0.0
 40
3.3568276482349391
 50
33.39045886995293
 51
57.85410828036261
  0
ARC
  5
24A
  8
0
 10
58.567220273020453
 20
75.183644400780111
 30
0.0
 40
4.9409700605117406
 50
57.85410828036261
 51
75.409779502450249
  0
ARC
  5
24B
  8
2
 10
64.062215374443966
 20
80.664870829714957
 30
0.0
 40
2.0
 50
274.99999999999977
 51
358.70382049643899
  0
LINE
  5
24C
  8
0
 10
62.514215894846423
 20
77.36753813919205
 30
0.0
 11
62.514215894846423
 21
54.716903044580988
 31
0.0
  0
LINE
  5
24D
  8
0
 10
66.061703614238027
 20
81.814176600333724
 30
0.0
 11
67.01421589484643
 21
37.716903044580988
 31
0.0
  0
ARC
  5
24E
  8
0
 10
49.01421589484638
 20
73.059141387259956
 30
0.0
 40
7.136266600101691
 50
90.0
 51
104.590220497543
  0
LINE
  5
24F
  8
0
 10
40.966728175454953
 20
81.814176600333724
 30
0.0
 11
40.966728175454953
 21
80.619629488828252
 31
0.0
  0
ARC
  5
250
  8
0
 10
42.966216415248951
 20
81.768935259447005
 30
0.0
 40
2.0
 50
94.999999999999744
 51
178.70382049643899
  0
ARC
  5
251
  8
0
 10
46.33998266296858
 20
77.36753813919205
 30
0.0
 40
1.8257667681220859
 50
146.60954113003669
 51
180.0
  0
ARC
  5
252
  8
0
 10
47.618325899325569
 20
76.524931476108748
 30
0.0
 40
3.3568276482349391
 50
122.1458917196374
 51
146.60954113004701
  0
ARC
  5
253
  8
2
 10
42.966216415248951
 20
80.664870829714957
 30
0.0
 40
2.0
 50
181.29617950356101
 51
265.00000000000023
  0
ARC
  5
254
  8
0
 10
48.461211516672577
 20
75.183644400780111
 30
0.0
 40
4.9409700605117406
 50
104.59022049754969
 51
122.1458917196374
  0
LINE
  5
255
  8
2
 10
53.51421589484643
 20
77.716903044580988
 30
0.0
 11
42.791904929753692
 21
78.672481433531459
 31
0.0
  0
LINE
  5
256
  8
0
 10
53.51421589484643
 20
84.716903044580974
 30
0.0
 11
42.791904929753692
 21
83.761324655630517
 31
0.0
  0
LINE
  5
257
  8
0
 10
53.514215894846373
 20
54.716903044580988
 30
0.0
 11
53.51421589484643
 21
37.716903044580988
 31
0.0
  0
LINE
  5
258
  8
0
 10
44.51421589484643
 20
77.36753813919205
 30
0.0
 11
44.51421589484643
 21
54.716903044580988
 31
0.0
  0
LINE
  5
259
  8
0
 10
40.966728175454953
 20
81.814176600333724
 30
0.0
 11
40.014215894846487
 21
37.716903044580988
 31
0.0
  0
LINE
  5
25A
  8
0
 10
62.514215894846423
 20
54.716903044580988
 30
0.0
 11
44.51421589484643
 21
54.716903044580988
 31
0.0
  0
LINE
  5
25B
  8
2
 10
53.514215894846032
 20
77.716903044580988
 30
0.0
 11
64.236526859939275
 21
78.672481433531459
 31
0.0
  0
LINE
  5
25C
  8
0
 10
53.514215894846032
 20
84.716903044580974
 30
0.0
 11
64.236526859939275
 21
83.761324655630517
 31
0.0
  0
LINE
  5
25D
  8
0
 10
67.01421589484643
 20
37.716903044580988
 30
0.0
 11
40.014215894846487
 21
37.716903044580988
 31
0.0
  0
LINE
  5
25E
  8
1
 10
53.51421589484643
 20
89.736002232297665
 30
0.0
 11
53.51421589484643
 21
32.716903044580988
 31
0.0
  0
LINE
  5
25F
  8
0
 10
155.0142158948463
 20
77.716903044580988
 30
0.0
 11
271.01421589484619
 21
77.716903044581002
 31
0.0
  0
LINE
  5
260
  8
0
 10
277.07490375829178
 20
84.716903044580974
 30
0.0
 11
148.9535261240521
 21
84.71690304458096
 31
0.0
  0
LINE
  5
261
  8
0
 10
155.01421589484639
 20
78.916903044580991
 30
0.0
 11
271.01421589484619
 21
78.916903044580991
 31
0.0
  0
LINE
  5
271
  8
1
 10
213.0142158948463
 20
187.70459147125129
 30
0.0
 11
213.0142158948463
 21
152.20459147125129
 31
0.0
  0
ARC
  5
279
  8
0
 10
130.02797520048111
 20
181.4545914712514
 30
0.0
 40
2.0
 50
89.999999999999815
 51
174.9999999999998
  0
ARC
  5
27A
  8
0
 10
130.02797520048111
 20
158.45459147125121
 30
0.0
 40
2.0
 50
185.0000000000002
 51
270.00000000000023
  0
LINE
  5
27B
  8
0
 10
132.3815274924541
 20
156.45459147125129
 30
0.0
 11
150.5142158948463
 21
157.20459147125129
 31
0.0
  0
LINE
  5
27C
  8
0
 10
130.02797520048111
 20
156.45459147125121
 30
0.0
 11
150.5142158948463
 21
156.45459147125129
 31
0.0
  0
LINE
  5
27D
  8
0
 10
150.5142158948463
 20
157.20459147125129
 30
0.0
 11
150.5142158948463
 21
156.45459147125129
 31
0.0
  0
LINE
  5
2A1
  8
0
 10
275.5142158948463
 20
157.20459147125129
 30
0.0
 11
275.5142158948463
 21
156.45459147125129
 31
0.0
  0
LINE
  5
2A2
  8
0
 10
296.00045658921152
 20
156.45459147125121
 30
0.0
 11
275.5142158948463
 21
156.45459147125129
 31
0.0
  0
LINE
  5
2A3
  8
0
 10
293.64690429723851
 20
156.45459147125129
 30
0.0
 11
275.5142158948463
 21
157.20459147125129
 31
0.0
  0
ARC
  5
2A4
  8
0
 10
296.00045658921152
 20
158.45459147125121
 30
0.0
 40
2.0
 50
269.99999999999977
 51
354.99999999999977
  0
ARC
  5
2A5
  8
0
 10
296.00045658921152
 20
181.4545914712514
 30
0.0
 40
2.0
 50
5.00000000000023
 51
90.000000000000185
  0
LINE
  5
2A6
  8
1
 10
289.01421589484619
 20
179.2045914712514
 30
0.0
 11
289.01421589484619
 21
160.70459147125121
 31
0.0
  0
LINE
  5
2A7
  8
1
 10
287.51421589484619
 20
179.2045914712514
 30
0.0
 11
287.51421589484619
 21
160.70459147125121
 31
0.0
  0
ARC
  5
2A8
  8
0
 10
280.51421589484607
 20
161.95459147125129
 30
0.0
 40
1.0
 50
180.0
 51
270.0
1001
GENIUS_GENOBJ-N-FIL_13
1002
{
1000
OWNER
1000
GEN
1002
}
1001
GENIUS_GENODEF_13
1002
{
1000
HIER
1070
     0
1002
}
1002
{
1000
MANEDIT
1070
     0
1002
}
1002
{
1000
NOSEL
1070
     0
1002
}
1002
{
1000
BEHIND
1070
     0
1002
}
1002
{
1000
OTHER
1070
     0
1002
}
1002
{
1000
REACTOR
1002
}
  0
ARC
  5
2A9
  8
0
 10
297.1355094220437
 20
159.95459147125129
 30
0.0
 40
1.0
 50
355.0
 51
90.0
  0
LINE
  5
2AA
  8
0
 10
299.01421589484619
 20
169.95459147125129
 30
0.0
 11
297.99284598539492
 21
158.2802799857559
 31
0.0
  0
LINE
  5
2AB
  8
0
 10
297.1355094220437
 20
160.95459147125129
 30
0.0
 11
280.51421589484607
 21
160.95459147125129
 31
0.0
  0
LINE
  5
2AC
  8
0
 10
297.13550942204381
 20
178.95459147125129
 30
0.0
 11
280.5142158948463
 21
178.95459147125129
 31
0.0
  0
LINE
  5
2AD
  8
0
 10
293.64690429723851
 20
183.4545914712514
 30
0.0
 11
275.5142158948463
 21
182.70459147125129
 31
0.0
  0
LINE
  5
2AE
  8
0
 10
296.00045658921152
 20
183.4545914712514
 30
0.0
 11
275.5142158948463
 21
183.45459147125129
 31
0.0
  0
LINE
  5
2AF
  8
0
 10
279.51421589484607
 20
161.95459147125129
 30
0.0
 11
279.5142158948463
 21
177.95459147125129
 31
0.0
  0
ARC
  5
2B0
  8
0
 10
289.01421589484619
 20
169.95459147125129
 30
0.0
 40
4.25
 50
270.0
 51
90.0
  0
ARC
  5
2B1
  8
0
 10
287.51421589484619
 20
169.95459147125129
 30
0.0
 40
4.25
 50
90.0
 51
270.0
  0
LINE
  5
2B2
  8
0
 10
289.01421589484619
 20
165.70459147125129
 30
0.0
 11
287.51421589484619
 21
165.70459147125129
 31
0.0
  0
ARC
  5
2B3
  8
0
 10
280.5142158948463
 20
177.95459147125129
 30
0.0
 40
1.0
 50
90.0
 51
180.0
1001
GENIUS_GENODEF_13
1002
{
1000
HIER
1070
     0
1002
}
1002
{
1000
MANEDIT
1070
     0
1002
}
1002
{
1000
NOSEL
1070
     0
1002
}
1002
{
1000
BEHIND
1070
     0
1002
}
1002
{
1000
OTHER
1070
     0
1002
}
1002
{
1000
REACTOR
1002
}
1001
GENIUS_GENOBJ-N-FIL_13
1002
{
1000
OWNER
1000
GEN
1002
}
  0
LINE
  5
2B4
  8
0
 10
275.5142158948463
 20
182.70459147125129
 30
0.0
 11
275.5142158948463
 21
183.45459147125129
 31
0.0
  0
LINE
  5
2B5
  8
0
 10
287.51421589484619
 20
174.20459147125129
 30
0.0
 11
289.01421589484619
 21
174.20459147125129
 31
0.0
  0
LINE
  5
2B6
  8
0
 10
299.01421589484642
 20
169.95459147125129
 30
0.0
 11
297.99284598539498
 21
181.62890295674671
 31
0.0
  0
ARC
  5
2B7
  8
0
 10
297.13550942204381
 20
179.95459147125129
 30
0.0
 40
1.0
 50
270.0
 51
5.0000000000000266
  0
ARC
  5
2B8
  8
0
 10
289.01421589484619
 20
169.95459147125129
 30
0.0
 40
6.75
 50
270.0
 51
90.0
  0
LINE
  5
2B9
  8
0
 10
289.01421589484619
 20
176.70459147125129
 30
0.0
 11
287.51421589484619
 21
176.70459147125129
 31
0.0
  0
ARC
  5
2BA
  8
0
 10
287.51421589484619
 20
169.95459147125129
 30
0.0
 40
6.75
 50
90.0
 51
270.0
  0
LINE
  5
2BB
  8
0
 10
289.01421589484619
 20
163.20459147125129
 30
0.0
 11
287.51421589484619
 21
163.20459147125129
 31
0.0
  0
TEXT
  5
4B0
  8
0
 62
     3
 10
0.0
 20
0.0
 30
0.0
 40
10.0
  1
AGS180
  7
STANDARD1
  0
ENDSEC
  0
EOF
