  0
SECTION
  2
HEADER
  9
$ACADVER
  1
AC1009
  9
$INSBASE
 10
0.0
 20
0.0
 30
0.0
  9
$EXTMIN
 10
-0.0204638472032742
 20
-2.960436562073669
 30
0.0
  9
$EXTMAX
 10
318.24297976762142
 20
175.05159535286879
 30
0.0
  9
$LIMMIN
 10
0.0
 20
0.0
  9
$LIMMAX
 10
385.0
 20
270.0
  9
$ORTHOMODE
 70
     1
  9
$REGENMODE
 70
     1
  9
$FILLMODE
 70
     1
  9
$QTEXTMODE
 70
     0
  9
$MIRRTEXT
 70
     0
  9
$DRAGMODE
 70
     2
  9
$LTSCALE
 40
10.0
  9
$OSMODE
 70
  3071
  9
$ATTMODE
 70
     1
  9
$TEXTSIZE
 40
4.0
  9
$TRACEWID
 40
0.05
  9
$TEXTSTYLE
  7
STANDARD
  9
$CLAYER
  8
0
  9
$CELTYPE
  6
BYLAYER
  9
$CECOLOR
 62
   256
  9
$DIMSCALE
 40
1.0
  9
$DIMASZ
 40
3.0
  9
$DIMEXO
 40
1.0
  9
$DIMDLI
 40
6.0
  9
$DIMRND
 40
0.0
  9
$DIMDLE
 40
0.0
  9
$DIMEXE
 40
1.0
  9
$DIMTP
 40
495.0
  9
$DIMTM
 40
0.0
  9
$DIMTXT
 40
3.0
  9
$DIMCEN
 40
0.0
  9
$DIMTSZ
 40
0.0
  9
$DIMTOL
 70
     0
  9
$DIMLIM
 70
     0
  9
$DIMTIH
 70
     0
  9
$DIMTOH
 70
     0
  9
$DIMSE1
 70
     0
  9
$DIMSE2
 70
     0
  9
$DIMTAD
 70
     1
  9
$DIMZIN
 70
     0
  9
$DIMBLK
  1

  9
$DIMASO
 70
     1
  9
$DIMSHO
 70
     0
  9
$DIMPOST
  1

  9
$DIMAPOST
  1

  9
$DIMALT
 70
     0
  9
$DIMALTD
 70
     2
  9
$DIMALTF
 40
25.399999999999999
  9
$DIMLFAC
 40
1.0
  9
$DIMTOFL
 70
     1
  9
$DIMTVP
 40
0.0
  9
$DIMTIX
 70
     1
  9
$DIMSOXD
 70
     0
  9
$DIMSAH
 70
     0
  9
$DIMBLK1
  1

  9
$DIMBLK2
  1

  9
$DIMSTYLE
  2
STANDARD
  9
$DIMCLRD
 70
     0
  9
$DIMCLRE
 70
     0
  9
$DIMCLRT
 70
     4
  9
$DIMTFAC
 40
1.0
  9
$DIMGAP
 40
1.0
  9
$LUNITS
 70
     2
  9
$LUPREC
 70
     4
  9
$SKETCHINC
 40
0.1
  9
$FILLETRAD
 40
0.0
  9
$AUNITS
 70
     0
  9
$AUPREC
 70
     0
  9
$MENU
  1
E:\r13\win\SUPPORT\ACAD
  9
$ELEVATION
 40
0.0
  9
$PELEVATION
 40
0.0
  9
$THICKNESS
 40
0.0
  9
$LIMCHECK
 70
     0
  9
$BLIPMODE
 70
     0
  9
$CHAMFERA
 40
0.0
  9
$CHAMFERB
 40
0.0
  9
$SKPOLY
 70
     0
  9
$TDCREATE
 40
2450541.3939600689
  9
$TDUPDATE
 40
2456597.501953565
  9
$TDINDWG
 40
0.0380765394
  9
$TDUSRTIMER
 40
0.0380765394
  9
$USRTIMER
 70
     1
  9
$ANGBASE
 50
0.0
  9
$ANGDIR
 70
     0
  9
$PDMODE
 70
     0
  9
$PDSIZE
 40
0.0
  9
$PLINEWID
 40
0.0
  9
$COORDS
 70
     1
  9
$SPLFRAME
 70
     0
  9
$SPLINETYPE
 70
     6
  9
$SPLINESEGS
 70
     8
  9
$ATTDIA
 70
     0
  9
$ATTREQ
 70
     1
  9
$HANDLING
 70
     1
  9
$HANDSEED
  5
F7E
  9
$SURFTAB1
 70
     6
  9
$SURFTAB2
 70
     6
  9
$SURFTYPE
 70
     6
  9
$SURFU
 70
     6
  9
$SURFV
 70
     6
  9
$UCSNAME
  2

  9
$UCSORG
 10
0.0
 20
0.0
 30
0.0
  9
$UCSXDIR
 10
1.0
 20
0.0
 30
0.0
  9
$UCSYDIR
 10
0.0
 20
1.0
 30
0.0
  9
$PUCSNAME
  2

  9
$PUCSORG
 10
0.0
 20
0.0
 30
0.0
  9
$PUCSXDIR
 10
1.0
 20
0.0
 30
0.0
  9
$PUCSYDIR
 10
0.0
 20
1.0
 30
0.0
  9
$USERI1
 70
     3
  9
$USERI2
 70
     1
  9
$USERI3
 70
     1
  9
$USERI4
 70
     0
  9
$USERI5
 70
     0
  9
$USERR1
 40
1.0
  9
$USERR2
 40
3.0
  9
$USERR3
 40
3.0
  9
$USERR4
 40
3.0
  9
$USERR5
 40
10.0
  9
$WORLDVIEW
 70
     1
  9
$SHADEDGE
 70
     3
  9
$SHADEDIF
 70
    70
  9
$TILEMODE
 70
     1
  9
$MAXACTVP
 70
    16
  9
$PLIMCHECK
 70
     0
  9
$PEXTMIN
 10
1.0000000000000000E+020
 20
1.0000000000000000E+020
 30
1.0000000000000000E+020
  9
$PEXTMAX
 10
-1.0000000000000000E+020
 20
-1.0000000000000000E+020
 30
-1.0000000000000000E+020
  9
$PLIMMIN
 10
0.0
 20
0.0
  9
$PLIMMAX
 10
12.0
 20
9.0
  9
$UNITMODE
 70
     0
  9
$VISRETAIN
 70
     0
  9
$PLINEGEN
 70
     0
  9
$PSLTSCALE
 70
     0
  0
ENDSEC
  0
SECTION
  2
TABLES
  0
TABLE
  2
VPORT
 70
     1
  0
VPORT
  2
*ACTIVE
 70
     0
 10
0.0
 20
0.0
 11
1.0
 21
1.0
 12
200.0432691713483
 22
133.5127261426681
 13
0.0
 23
0.0
 14
5.0
 24
5.0
 15
10.0
 25
10.0
 16
0.0
 26
0.0
 36
1.0
 17
0.0
 27
0.0
 37
0.0
 40
275.42274993631997
 41
1.831871345029239
 42
50.0
 43
0.0
 44
0.0
 50
0.0
 51
0.0
 71
     0
 72
   100
 73
     1
 74
     0
 75
     0
 76
     0
 77
     0
 78
     0
  0
ENDTAB
  0
TABLE
  2
LTYPE
 70
     4
  0
LTYPE
  2
CONTINUOUS
 70
     0
  3
Solid Line
 72
    65
 73
     0
 40
0.0
  0
LTYPE
  2
CENTER
 70
     0
  3
____ _ ____ _ ____ _ ____ _ ____ _ ____ _ ____
 72
    65
 73
     4
 40
2.0
 49
1.25
 49
-0.25
 49
0.25
 49
-0.25
  0
LTYPE
  2
HIDDEN
 70
     0
  3
_ _ _ _ _ _ _ _ _ _ _ _ _ _ _ _ _ _ _ _ _ _ _
 72
    65
 73
     2
 40
0.375
 49
0.25
 49
-0.125
  0
LTYPE
  2
PHANTOM2
 70
     0
  3
___ _ _ ___ _ _ ___ _ _ ___ _ _
 72
    65
 73
     6
 40
1.25
 49
0.625
 49
-0.125
 49
0.125
 49
-0.125
 49
0.125
 49
-0.125
  0
ENDTAB
  0
TABLE
  2
LAYER
 70
     2
  0
LAYER
  2
0
 70
     0
 62
     7
  6
CONTINUOUS
  0
LAYER
  2
DEFPOINTS
 70
     0
 62
     7
  6
CONTINUOUS
  0
ENDTAB
  0
TABLE
  2
STYLE
 70
     2
  0
STYLE
  2
STANDARD
 70
     0
 40
0.0
 41
1.0
 50
0.0
 71
     0
 42
4.0
  3
SIMPLEX
  4
BIGFONT
  0
STYLE
  2
STANDARD1
 70
     0
 40
0.0
 41
1.0
 50
0.0
 71
     0
 42
3.0
  3
txt
  4

  0
ENDTAB
  0
TABLE
  2
VIEW
 70
     0
  0
ENDTAB
  0
TABLE
  2
UCS
 70
     0
  0
ENDTAB
  0
TABLE
  2
APPID
 70
    12
  0
APPID
  2
ACAD
 70
     0
  0
APPID
  2
ASM_BASE
 70
     0
  0
APPID
  2
ASM_EXPLO_VER_2_00
 70
     0
  0
APPID
  2
ASM_CADM_VER_12_00
 70
     0
  0
APPID
  2
ASM_BASEFORO
 70
     0
  0
APPID
  2
ASM_BASETRAVI
 70
     0
  0
APPID
  2
ASM_BASETRAVI1
 70
     0
  0
APPID
  2
ASM_GRUPPI
 70
     0
  0
APPID
  2
ASM_CADM_ALBERO
 70
     0
  0
APPID
  2
ASM_GOLE
 70
     0
  0
APPID
  2
ACAD_MLEADERVER
 70
     0
  0
APPID
  2
ACAD_NAV_VCDISPLAY
 70
     0
  0
ENDTAB
  0
TABLE
  2
DIMSTYLE
 70
     1
  0
DIMSTYLE
  2
STANDARD
 70
     0
  3

  4

  5

  6

  7

 40
1.0
 41
0.18
 42
0.0625
 43
0.38
 44
0.18
 45
0.0
 46
0.0
 47
0.0
 48
0.0
140
0.18
141
0.09
142
0.0
143
25.399999999999999
144
1.0
145
0.0
146
1.0
147
0.09
 71
     0
 72
     0
 73
     1
 74
     1
 75
     0
 76
     0
 77
     0
 78
     0
170
     0
171
     2
172
     0
173
     0
174
     0
175
     0
176
     0
177
     0
178
     0
  0
ENDTAB
  0
ENDSEC
  0
SECTION
  2
BLOCKS
  0
BLOCK
  8
0
  2
$MODEL_SPACE
 70
     0
 10
0.0
 20
0.0
 30
0.0
  3
$MODEL_SPACE
  1

  0
ENDBLK
  5
CAA
  8
0
  0
BLOCK
 67
     1
  8
0
  2
$PAPER_SPACE
 70
     0
 10
0.0
 20
0.0
 30
0.0
  3
$PAPER_SPACE
  1

  0
ENDBLK
  5
CA8
 67
     1
  8
0
  0
ENDSEC
  0
SECTION
  2
ENTITIES
  0
LINE
  5
B03
  8
0
  6
CONTINUOUS
 62
     7
 10
141.18105232959419
 20
156.05159535286879
 30
0.0
 11
289.30490339095093
 21
156.05159535286879
 31
0.0
  0
LINE
  5
B04
  8
0
  6
CONTINUOUS
 62
     7
 10
138.74297976762119
 20
142.80159535286879
 30
0.0
 11
291.74297976762119
 21
142.80159535286879
 31
0.0
  0
LINE
  5
B05
  8
0
  6
CONTINUOUS
 62
     7
 10
138.74297976762119
 20
169.3015953528689
 30
0.0
 11
291.74297976762119
 21
169.3015953528689
 31
0.0
  0
LINE
  5
B06
  8
0
  6
CENTER
 62
     1
 10
112.24297976762119
 20
156.05159535286879
 30
0.0
 11
318.24297976762142
 21
156.05159535286879
 31
0.0
  0
CIRCLE
  5
B07
  8
0
  6
CONTINUOUS
 62
     7
 10
125.74297976762119
 20
156.05159535286879
 30
0.0
 40
6.0
  0
CIRCLE
  5
B08
  8
0
  6
CONTINUOUS
 62
     7
 10
125.74297976762119
 20
156.05159535286879
 30
0.0
 40
3.25
  0
LINE
  5
B09
  8
0
  6
CONTINUOUS
 62
     7
 10
119.6255060779672
 20
148.05159535286879
 30
0.0
 11
129.24297976762131
 21
148.05159535286879
 31
0.0
  0
LINE
  5
B0A
  8
0
  6
CONTINUOUS
 62
     7
 10
119.6255060779672
 20
164.0515953528689
 30
0.0
 11
129.24297976762131
 21
164.0515953528689
 31
0.0
  0
LINE
  5
B0B
  8
0
  6
CONTINUOUS
 62
     7
 10
123.17801485905331
 20
142.05159535286879
 30
0.0
 11
138.74297976762119
 21
142.80159535286879
 31
0.0
  0
LINE
  5
B0C
  8
0
  6
CONTINUOUS
 62
     7
 10
123.17801485905331
 20
170.0515953528689
 30
0.0
 11
138.74297976762119
 21
169.3015953528689
 31
0.0
  0
LINE
  5
B0D
  8
0
  6
CONTINUOUS
 62
     7
 10
120.738686744918
 20
142.05159535286879
 30
0.0
 11
139.74297976762119
 21
142.05159535286879
 31
0.0
  0
LINE
  5
B0E
  8
0
  6
CONTINUOUS
 62
     7
 10
120.7386883967303
 20
170.05159535286879
 30
0.0
 11
139.74297976762119
 21
170.05159535286879
 31
0.0
  0
ARC
  5
B0F
  8
0
  6
CONTINUOUS
 62
     7
 10
119.7165627266144
 20
146.38977262236489
 30
0.0
 40
1.6643155052099889
 50
93.136285112681563
 51
172.06561491552441
  0
LINE
  5
B10
  8
0
  6
CONTINUOUS
 62
     7
 10
117.24297976762151
 20
156.05159535286879
 30
0.0
 11
118.24422150218901
 21
144.60734995905301
 31
0.0
  0
ARC
  5
B11
  8
0
  6
CONTINUOUS
 62
     7
 10
120.8098784875916
 20
144.6162799821816
 30
0.0
 40
2.565672526270304
 50
180.19942282736969
 51
268.40996465446221
  0
ARC
  5
B12
  8
0
  6
CONTINUOUS
 62
     7
 10
120.8098784875915
 20
167.48691072355601
 30
0.0
 40
2.5656725262703088
 50
91.590035345537771
 51
179.8005771726213
  0
LINE
  5
B13
  8
0
  6
CONTINUOUS
 62
     7
 10
117.24297976762119
 20
156.05159535286879
 30
0.0
 11
118.24422150218891
 21
167.4958407466851
 31
0.0
  0
LINE
  5
B14
  8
0
  6
CENTER
 62
     1
 10
125.74297976762119
 20
165.30159535286879
 30
0.0
 11
125.74297976762119
 21
146.8015953528689
 31
0.0
  0
ARC
  5
B15
  8
0
  6
CONTINUOUS
 62
     7
 10
119.7165627266143
 20
165.7134180833728
 30
0.0
 40
1.6643155052099821
 50
187.93438508446681
 51
266.86371488731839
  0
LINE
  5
B16
  8
0
  6
CONTINUOUS
 62
     7
 10
139.74297976762119
 20
142.05159535286879
 30
0.0
 11
139.74297976762119
 21
142.80159535286879
 31
0.0
  0
LINE
  5
B17
  8
0
  6
CONTINUOUS
 62
     7
 10
133.74297976762131
 20
152.5515953528689
 30
0.0
 11
133.74297976762131
 21
159.55159535286879
 31
0.0
  0
ARC
  5
B18
  8
0
  6
CONTINUOUS
 62
     7
 10
129.24297976762131
 20
152.5515953528689
 30
0.0
 40
4.5
 50
270.0
 51
0.0000000000000636
  0
ARC
  5
B19
  8
0
  6
CONTINUOUS
 62
     7
 10
129.24297976762131
 20
159.55159535286879
 30
0.0
 40
4.5
 50
0.0000000000000509
 51
90.0
  0
LINE
  5
B1A
  8
0
  6
CONTINUOUS
 62
     7
 10
139.74297976762119
 20
169.30159535286879
 30
0.0
 11
139.74297976762119
 21
170.05159535286879
 31
0.0
  0
LINE
  5
B1B
  8
0
  6
CENTER
 62
     1
 10
215.24297976762119
 20
175.05159535286879
 30
0.0
 11
215.24297976762119
 21
137.0515953528689
 31
0.0
  0
LINE
  5
B1C
  8
0
  6
CONTINUOUS
 62
     7
 10
313.24297976762108
 20
156.05159535286879
 30
0.0
 11
312.24173803305359
 21
144.60734995905281
 31
0.0
  0
ARC
  5
B1D
  8
0
  6
CONTINUOUS
 62
     7
 10
310.76939680862819
 20
146.38977262236489
 30
0.0
 40
1.6643155052099821
 50
7.9343850844696178
 51
86.863714887319404
  0
LINE
  5
B1E
  8
0
  6
CONTINUOUS
 62
     7
 10
309.74727279032459
 20
142.05159535286879
 30
0.0
 11
290.74297976762131
 21
142.05159535286879
 31
0.0
  0
LINE
  5
B1F
  8
0
  6
CONTINUOUS
 62
     7
 10
307.30794467618949
 20
142.05159535286879
 30
0.0
 11
291.74297976762142
 21
142.80159535286879
 31
0.0
  0
LINE
  5
B20
  8
0
  6
CONTINUOUS
 62
     7
 10
290.74297976762131
 20
142.05159535286879
 30
0.0
 11
290.74297976762131
 21
142.80159535286879
 31
0.0
  0
ARC
  5
B21
  8
0
  6
CONTINUOUS
 62
     7
 10
309.676081047651
 20
144.6162799821816
 30
0.0
 40
2.565672526270252
 50
271.59003534553722
 51
359.80057717262639
  0
ARC
  5
B22
  8
0
  6
CONTINUOUS
 62
     7
 10
309.676081047651
 20
167.48691072355609
 30
0.0
 40
2.5656725262702502
 50
0.1994228273526184
 51
88.40996465446284
  0
CIRCLE
  5
B23
  8
0
  6
CONTINUOUS
 62
     7
 10
304.74297976762119
 20
156.05159535286879
 30
0.0
 40
6.0
  0
LINE
  5
B24
  8
0
  6
CONTINUOUS
 62
     7
 10
309.74727113851208
 20
170.05159535286879
 30
0.0
 11
290.74297976762131
 21
170.05159535286879
 31
0.0
  0
LINE
  5
B25
  8
0
  6
CONTINUOUS
 62
     7
 10
307.30794467619017
 20
170.0515953528689
 30
0.0
 11
291.74297976762142
 21
169.3015953528689
 31
0.0
  0
LINE
  5
B26
  8
0
  6
CONTINUOUS
 62
     7
 10
310.8604534572753
 20
164.0515953528689
 30
0.0
 11
301.24297976762108
 21
164.0515953528689
 31
0.0
  0
LINE
  5
B27
  8
0
  6
CONTINUOUS
 62
     7
 10
310.8604534572753
 20
148.05159535286879
 30
0.0
 11
301.24297976762108
 21
148.05159535286879
 31
0.0
  0
CIRCLE
  5
B28
  8
0
  6
CONTINUOUS
 62
     7
 10
304.74297976762119
 20
156.05159535286879
 30
0.0
 40
3.25
  0
LINE
  5
B29
  8
0
  6
CENTER
 62
     1
 10
304.74297976762142
 20
165.30159535286879
 30
0.0
 11
304.74297976762142
 21
146.8015953528689
 31
0.0
  0
LINE
  5
B2A
  8
0
  6
CONTINUOUS
 62
     7
 10
296.74297976762108
 20
152.5515953528689
 30
0.0
 11
296.74297976762108
 21
159.55159535286879
 31
0.0
  0
ARC
  5
B2B
  8
0
  6
CONTINUOUS
 62
     7
 10
301.24297976762108
 20
152.5515953528689
 30
0.0
 40
4.5
 50
179.99999999999989
 51
270.00000000000011
  0
ARC
  5
B2C
  8
0
  6
CONTINUOUS
 62
     7
 10
301.24297976762108
 20
159.55159535286879
 30
0.0
 40
4.5
 50
90.000000000000028
 51
180.0
  0
LINE
  5
B2D
  8
0
  6
CONTINUOUS
 62
     7
 10
290.74297976762131
 20
169.30159535286879
 30
0.0
 11
290.74297976762131
 21
170.05159535286879
 31
0.0
  0
LINE
  5
B2E
  8
0
  6
CONTINUOUS
 62
     7
 10
313.24297976762142
 20
156.05159535286879
 30
0.0
 11
312.24173803305359
 21
167.49584074668391
 31
0.0
  0
ARC
  5
B2F
  8
0
  6
CONTINUOUS
 62
     7
 10
310.76939680862819
 20
165.7134180833728
 30
0.0
 40
1.6643155052100149
 50
273.13628511268053
 51
352.06561491551662
  0
LINE
  5
B30
  8
0
  6
CONTINUOUS
 62
     7
 10
144.24297976762119
 20
87.070630482185067
 30
0.0
 11
286.24297976762131
 21
87.070630482185067
 31
0.0
  0
LINE
  5
B31
  8
0
  6
CONTINUOUS
 62
     7
 10
289.30490339095093
 20
93.770630482185112
 30
0.0
 11
141.18105232959419
 21
93.770630482185112
 31
0.0
  0
LINE
  5
B32
  8
0
  6
CONTINUOUS
 62
     7
 10
144.24297976762119
 20
86.270630482184998
 30
0.0
 11
286.24297976762131
 21
86.270630482184998
 31
0.0
  0
LINE
  5
B33
  8
0
  6
CENTER
 62
     1
 10
63.32579824278173
 20
38.770630482184998
 30
0.0
 11
63.325798242781623
 21
98.789729669901746
 31
0.0
  0
LINE
  5
B34
  8
0
  6
CONTINUOUS
 62
     7
 10
76.322952720926367
 20
89.927764129727066
 30
0.0
 11
77.32579824278173
 21
43.770630482184998
 31
0.0
  0
LINE
  5
B35
  8
0
  6
CONTINUOUS
 62
     7
 10
50.328643764636858
 20
89.927764129727066
 30
0.0
 11
49.325798242781673
 21
43.770630482184998
 31
0.0
  0
ARC
  5
B36
  8
0
  6
HIDDEN
 62
     2
 10
53.327935936289741
 20
90.178661772007814
 30
0.0
 40
3.0
 50
183.01957290244599
 51
264.99999999999977
  0
ARC
  5
B37
  8
0
  6
HIDDEN
 62
     2
 10
73.323660549273484
 20
90.178661772007715
 30
0.0
 40
3.0
 50
274.99999999999977
 51
356.98042709755498
  0
ARC
  5
B38
  8
0
  6
HIDDEN
 62
     2
 10
138.24297976762119
 20
88.420117509867424
 30
0.0
 40
4.5
 50
122.2893355174606
 51
180.0
  0
ARC
  5
B39
  8
0
  6
CONTINUOUS
 62
     7
 10
141.18105232959419
 20
83.770630482185112
 30
0.0
 40
10.0
 50
90.0
 51
150.59999999999991
  0
LINE
  5
B3A
  8
0
  6
HIDDEN
 62
     2
 10
57.32579824278173
 20
60.470630482184987
 30
0.0
 11
69.32579824278173
 21
60.470630482184987
 31
0.0
  0
LINE
  5
B3B
  8
0
  6
HIDDEN
 62
     2
 10
69.32579824278173
 20
60.470630482184987
 30
0.0
 11
66.575798242781715
 21
57.72063048218498
 31
0.0
  0
LINE
  5
B3C
  8
0
  6
CONTINUOUS
 62
     7
 10
77.32579824278173
 20
43.770630482184998
 30
0.0
 11
49.325798242781673
 21
43.770630482184998
 31
0.0
  0
LINE
  5
B3D
  8
0
  6
HIDDEN
 62
     2
 10
63.325798242781623
 20
86.270630482184998
 30
0.0
 11
73.585127777516448
 21
87.190077677732475
 31
0.0
  0
LINE
  5
B3E
  8
0
  6
CONTINUOUS
 62
     7
 10
71.325798242781673
 20
60.770630482184998
 30
0.0
 11
55.325798242781673
 21
60.770630482184998
 31
0.0
  0
LINE
  5
B3F
  8
0
  6
CONTINUOUS
 62
     7
 10
55.325798242781623
 20
60.770630482184998
 30
0.0
 11
55.325798242781623
 21
82.954558584443504
 31
0.0
  0
LINE
  5
B40
  8
0
  6
HIDDEN
 62
     2
 10
60.07579824278173
 20
43.770630482184998
 30
0.0
 11
60.07579824278173
 21
57.72063048218498
 31
0.0
  0
LINE
  5
B41
  8
0
  6
HIDDEN
 62
     2
 10
66.575798242781715
 20
43.770630482184998
 30
0.0
 11
66.575798242781715
 21
57.72063048218498
 31
0.0
  0
LINE
  5
B42
  8
0
  6
CONTINUOUS
 62
     7
 10
63.325798242781673
 20
60.770630482184998
 30
0.0
 11
63.32579824278173
 21
43.770630482184998
 31
0.0
  0
LINE
  5
B43
  8
0
  6
HIDDEN
 62
     2
 10
57.32579824278173
 20
60.470630482184987
 30
0.0
 11
60.07579824278173
 21
57.72063048218498
 31
0.0
  0
LINE
  5
B44
  8
0
  6
HIDDEN
 62
     2
 10
60.07579824278173
 20
57.72063048218498
 30
0.0
 11
63.32579824278173
 21
57.72063048218498
 31
0.0
  0
LINE
  5
B45
  8
0
  6
HIDDEN
 62
     2
 10
66.575798242781715
 20
57.72063048218498
 30
0.0
 11
63.32579824278173
 21
57.72063048218498
 31
0.0
  0
LINE
  5
B46
  8
0
  6
HIDDEN
 62
     2
 10
57.32579824278173
 20
60.470630482184987
 30
0.0
 11
57.32579824278173
 21
60.770630482184998
 31
0.0
  0
LINE
  5
B47
  8
0
  6
HIDDEN
 62
     2
 10
63.325798242781623
 20
86.270630482184998
 30
0.0
 11
53.066468708046777
 21
87.190077677732475
 31
0.0
  0
ARC
  5
B48
  8
0
  6
CONTINUOUS
 62
     7
 10
60.907926051829349
 20
83.308492447496775
 30
0.0
 40
5.5234347946095719
 50
140.53410031430229
 51
161.1687005855859
  0
ARC
  5
B49
  8
0
  6
CONTINUOUS
 62
     7
 10
61.945746828222582
 20
82.954556677094885
 30
0.0
 40
6.6199485854409712
 50
161.16870058558609
 51
180.0
  0
ARC
  5
B4A
  8
0
  6
CONTINUOUS
 62
     7
 10
59.825798242781559
 20
84.690506703928605
 30
0.0
 40
3.729610805938818
 50
89.999999999999119
 51
116.7065561515769
  0
ARC
  5
B4B
  8
0
  6
CONTINUOUS
 62
     7
 10
60.24753367400649
 20
83.852218112827174
 30
0.0
 40
4.6680075961727452
 50
116.7065561515772
 51
140.53410031430241
  0
LINE
  5
B4C
  8
0
  6
CENTER
 62
     1
 10
125.74297976762119
 20
38.770630482184998
 30
0.0
 11
125.74297976762119
 21
80.479831878645683
 31
0.0
  0
LINE
  5
B4D
  8
0
  6
HIDDEN
 62
     2
 10
133.74297976762131
 20
60.770630482184998
 30
0.0
 11
117.24297976762119
 21
60.770630482184998
 31
0.0
  0
LINE
  5
B4E
  8
0
  6
CONTINUOUS
 62
     7
 10
132.46891421839231
 20
88.679668018336585
 30
0.0
 11
117.24297976762119
 21
60.770630482184998
 31
0.0
  0
LINE
  5
B4F
  8
0
  6
CONTINUOUS
 62
     7
 10
117.24297976762119
 20
43.770630482184998
 30
0.0
 11
139.74297976762119
 21
43.770630482185013
 31
0.0
  0
LINE
  5
B50
  8
0
  6
CONTINUOUS
 62
     7
 10
71.325798242781673
 20
60.770630482184998
 30
0.0
 11
71.325798242781616
 21
82.954556677094885
 31
0.0
  0
LINE
  5
B51
  8
0
  6
HIDDEN
 62
     2
 10
69.32579824278173
 20
60.770630482184941
 30
0.0
 11
69.32579824278173
 21
60.470630482184987
 31
0.0
  0
LINE
  5
B52
  8
0
  6
HIDDEN
 62
     2
 10
122.49297976762119
 20
43.770630482184998
 30
0.0
 11
122.49297976762119
 21
57.72063048218498
 31
0.0
  0
LINE
  5
B53
  8
0
  6
HIDDEN
 62
     2
 10
128.99297976762119
 20
43.770630482184998
 30
0.0
 11
128.99297976762119
 21
57.72063048218498
 31
0.0
  0
LINE
  5
B54
  8
0
  6
CONTINUOUS
 62
     7
 10
117.24297976762119
 20
60.770630482184998
 30
0.0
 11
117.24297976762119
 21
43.770630482184998
 31
0.0
  0
LINE
  5
B55
  8
0
  6
HIDDEN
 62
     2
 10
119.74297976762119
 20
60.470630482184987
 30
0.0
 11
122.49297976762119
 21
57.72063048218498
 31
0.0
  0
LINE
  5
B56
  8
0
  6
HIDDEN
 62
     2
 10
119.74297976762119
 20
60.470630482184987
 30
0.0
 11
131.74297976762119
 21
60.470630482184987
 31
0.0
  0
LINE
  5
B57
  8
0
  6
HIDDEN
 62
     2
 10
119.74297976762119
 20
60.470630482184987
 30
0.0
 11
119.74297976762119
 21
60.770630482184998
 31
0.0
  0
LINE
  5
B58
  8
0
  6
HIDDEN
 62
     2
 10
131.74297976762119
 20
60.470630482184987
 30
0.0
 11
128.99297976762119
 21
57.72063048218498
 31
0.0
  0
LINE
  5
B59
  8
0
  6
HIDDEN
 62
     2
 10
128.99297976762119
 20
57.72063048218498
 30
0.0
 11
125.74297976762119
 21
57.72063048218498
 31
0.0
  0
LINE
  5
B5A
  8
0
  6
HIDDEN
 62
     2
 10
122.49297976762119
 20
57.72063048218498
 30
0.0
 11
125.74297976762119
 21
57.72063048218498
 31
0.0
  0
LINE
  5
B5B
  8
0
  6
HIDDEN
 62
     2
 10
131.74297976762119
 20
60.770630482184941
 30
0.0
 11
131.74297976762119
 21
60.470630482184987
 31
0.0
  0
ARC
  5
B5C
  8
0
  6
CONTINUOUS
 62
     7
 10
64.70584965734065
 20
82.954556677094885
 30
0.0
 40
6.6199485854409712
 50
0.0
 51
18.831299414413898
  0
ARC
  5
B5D
  8
0
  6
CONTINUOUS
 62
     7
 10
66.825798242781673
 20
84.690506703928605
 30
0.0
 40
3.729610805938818
 50
63.293443848423138
 51
90.000000000000881
  0
ARC
  5
B5E
  8
0
  6
CONTINUOUS
 62
     7
 10
66.404062811556742
 20
83.852218112827174
 30
0.0
 40
4.6680075961727452
 50
39.465899685697572
 51
63.293443848422761
  0
ARC
  5
B5F
  8
0
  6
CONTINUOUS
 62
     7
 10
65.743670433733882
 20
83.308492447496775
 30
0.0
 40
5.5234347946095719
 50
18.83129941441408
 51
39.4658996856977
  0
LINE
  5
B60
  8
0
  6
HIDDEN
 62
     2
 10
133.74297976762119
 20
60.770630482184998
 30
0.0
 11
133.74297976762131
 21
88.420117509867424
 31
0.0
  0
LINE
  5
B61
  8
0
  6
CONTINUOUS
 62
     7
 10
138.44297976762121
 20
43.770630482184998
 30
0.0
 11
138.44297976762121
 21
81.270630482184998
 31
0.0
  0
LINE
  5
B62
  8
0
  6
CONTINUOUS
 62
     7
 10
139.74297976762119
 20
43.770630482184998
 30
0.0
 11
139.74297976762119
 21
81.770630482184984
 31
0.0
  0
ARC
  5
B63
  8
0
  6
CONTINUOUS
 62
     7
 10
144.24297976762119
 20
81.270630482184998
 30
0.0
 40
5.7999999999999989
 50
90.0
 51
179.99999999999989
  0
ARC
  5
B64
  8
0
  6
CONTINUOUS
 62
     7
 10
144.24297976762119
 20
81.770630482184984
 30
0.0
 40
4.5
 50
90.0
 51
179.99999999999989
  0
LINE
  5
B65
  8
0
  6
CONTINUOUS
 62
     7
 10
63.325798242781623
 20
93.770630482184998
 30
0.0
 11
73.585127777516448
 21
92.851183286637607
 31
0.0
  0
LINE
  5
B66
  8
0
  6
CONTINUOUS
 62
     7
 10
63.325798242781623
 20
93.770630482184998
 30
0.0
 11
53.066468708046777
 21
92.851183286637507
 31
0.0
  0
ARC
  5
B67
  8
0
  6
CONTINUOUS
 62
     7
 10
53.327935936289741
 20
89.862599192362296
 30
0.0
 40
3.0
 50
95.000000000000185
 51
178.75534348147511
  0
ARC
  5
B69
  8
0
  6
CONTINUOUS
 62
     7
 10
73.323660549273484
 20
89.862599192362296
 30
0.0
 40
3.0
 50
1.2446565185252061
 51
85.000000000000256
  0
ARC
  5
B6B
  8
0
  6
HIDDEN
 62
     2
 10
292.24297976762119
 20
88.420117509867424
 30
0.0
 40
4.5
 50
0.0
 51
57.710664482539372
  0
LINE
  5
B6C
  8
0
  6
CENTER
 62
     1
 10
215.24297976762119
 20
98.770630482185112
 30
0.0
 11
215.24297976762119
 21
80.770630482184998
 31
0.0
  0
ARC
  5
B6D
  8
0
  6
CONTINUOUS
 62
     7
 10
289.30490720564819
 20
83.770630482185112
 30
0.0
 40
10.0
 50
29.399999999999949
 51
90.0
  0
LINE
  5
B6E
  8
0
  6
CENTER
 62
     1
 10
304.74297976762119
 20
38.770630482184998
 30
0.0
 11
304.74297976762119
 21
80.479831878645683
 31
0.0
  0
LINE
  5
B6F
  8
0
  6
HIDDEN
 62
     2
 10
307.99297976762119
 20
57.72063048218498
 30
0.0
 11
304.74297976762119
 21
57.72063048218498
 31
0.0
  0
LINE
  5
B70
  8
0
  6
HIDDEN
 62
     2
 10
310.74297976762119
 20
60.470630482184987
 30
0.0
 11
298.74297976762131
 21
60.470630482184987
 31
0.0
  0
LINE
  5
B71
  8
0
  6
CONTINUOUS
 62
     7
 10
290.74297976762131
 20
43.770630482184998
 30
0.0
 11
313.24297976762131
 21
43.770630482184998
 31
0.0
  0
LINE
  5
B72
  8
0
  6
HIDDEN
 62
     2
 10
296.74297976762108
 20
60.770630482184998
 30
0.0
 11
313.24297976762131
 21
60.770630482184998
 31
0.0
  0
LINE
  5
B73
  8
0
  6
CONTINUOUS
 62
     7
 10
313.24297976762131
 20
60.770630482184998
 30
0.0
 11
298.01704531685021
 21
88.679668018336585
 31
0.0
  0
LINE
  5
B74
  8
0
  6
CONTINUOUS
 62
     7
 10
292.04297976762132
 20
43.770630482184998
 30
0.0
 11
292.04297976762132
 21
81.270630482184998
 31
0.0
  0
LINE
  5
B75
  8
0
  6
HIDDEN
 62
     2
 10
296.74297976762131
 20
60.770630482184998
 30
0.0
 11
296.74297976762108
 21
88.420117509867424
 31
0.0
  0
LINE
  5
B76
  8
0
  6
CONTINUOUS
 62
     7
 10
290.74297976762131
 20
81.770630482184984
 30
0.0
 11
290.74297976762131
 21
43.770630482184998
 31
0.0
  0
LINE
  5
B77
  8
0
  6
HIDDEN
 62
     2
 10
301.49297976762131
 20
43.770630482184998
 30
0.0
 11
301.49297976762131
 21
57.72063048218498
 31
0.0
  0
LINE
  5
B78
  8
0
  6
HIDDEN
 62
     2
 10
298.74297976762131
 20
60.470630482184987
 30
0.0
 11
301.49297976762131
 21
57.72063048218498
 31
0.0
  0
LINE
  5
B79
  8
0
  6
HIDDEN
 62
     2
 10
301.49297976762131
 20
57.72063048218498
 30
0.0
 11
304.74297976762119
 21
57.72063048218498
 31
0.0
  0
LINE
  5
B7A
  8
0
  6
HIDDEN
 62
     2
 10
298.74297976762131
 20
60.770630482184941
 30
0.0
 11
298.74297976762131
 21
60.470630482184987
 31
0.0
  0
ARC
  5
B7B
  8
0
  6
CONTINUOUS
 62
     7
 10
286.24297976762131
 20
81.270630482184998
 30
0.0
 40
5.7999999999999989
 50
0.0000000000000763
 51
90.000000000000028
  0
ARC
  5
B7C
  8
0
  6
CONTINUOUS
 62
     7
 10
286.24297976762131
 20
81.770630482184984
 30
0.0
 40
4.5
 50
0.0
 51
90.0
  0
LINE
  5
B7D
  8
0
  6
HIDDEN
 62
     2
 10
307.99297976762119
 20
43.770630482184998
 30
0.0
 11
307.99297976762119
 21
57.72063048218498
 31
0.0
  0
LINE
  5
B7E
  8
0
  6
CONTINUOUS
 62
     7
 10
313.24297976762131
 20
43.770630482184998
 30
0.0
 11
313.24297976762131
 21
60.770630482185112
 31
0.0
  0
LINE
  5
B7F
  8
0
  6
CONTINUOUS
 62
     7
 10
313.24297976762131
 20
43.770630482184998
 30
0.0
 11
308.99297976762131
 21
43.770630482184998
 31
0.0
  0
LINE
  5
B80
  8
0
  6
HIDDEN
 62
     2
 10
310.74297976762119
 20
60.470630482184987
 30
0.0
 11
307.99297976762119
 21
57.72063048218498
 31
0.0
  0
LINE
  5
B81
  8
0
  6
HIDDEN
 62
     2
 10
310.74297976762119
 20
60.470630482184987
 30
0.0
 11
310.74297976762119
 21
60.770630482184998
 31
0.0
  0
TEXT
  5
EF2
  8
0
 62
     3
 10
0.0
 20
0.0
 30
0.0
 40
10.0
  1
AGS200N
  7
STANDARD1
  0
ENDSEC
  0
EOF
