  0
SECTION
  2
HEADER
  9
$ACADVER
  1
AC1009
  9
$INSBASE
 10
0.0
 20
0.0
 30
0.0
  9
$EXTMIN
 10
-0.0204638472032742
 20
-2.960436562073669
 30
0.0
  9
$EXTMAX
 10
170.97735900000001
 20
132.28156999999999
 30
0.0
  9
$LIMMIN
 10
0.0
 20
0.0
  9
$LIMMAX
 10
187.5
 20
135.0
  9
$ORTHOMODE
 70
     1
  9
$REGENMODE
 70
     1
  9
$FILLMODE
 70
     1
  9
$QTEXTMODE
 70
     0
  9
$MIRRTEXT
 70
     0
  9
$DRAGMODE
 70
     2
  9
$LTSCALE
 40
5.0
  9
$OSMODE
 70
  3071
  9
$ATTMODE
 70
     1
  9
$TEXTSIZE
 40
4.0
  9
$TRACEWID
 40
0.05
  9
$TEXTSTYLE
  7
STANDARD
  9
$CLAYER
  8
0
  9
$CELTYPE
  6
BYLAYER
  9
$CECOLOR
 62
   256
  9
$DIMSCALE
 40
0.5
  9
$DIMASZ
 40
3.0
  9
$DIMEXO
 40
2.0
  9
$DIMDLI
 40
0.38
  9
$DIMRND
 40
0.0
  9
$DIMDLE
 40
0.0
  9
$DIMEXE
 40
2.0
  9
$DIMTP
 40
0.0
  9
$DIMTM
 40
0.0
  9
$DIMTXT
 40
3.2000000000000002
  9
$DIMCEN
 40
0.0
  9
$DIMTSZ
 40
0.0
  9
$DIMTOL
 70
     0
  9
$DIMLIM
 70
     0
  9
$DIMTIH
 70
     0
  9
$DIMTOH
 70
     0
  9
$DIMSE1
 70
     0
  9
$DIMSE2
 70
     0
  9
$DIMTAD
 70
     1
  9
$DIMZIN
 70
     0
  9
$DIMBLK
  1

  9
$DIMASO
 70
     1
  9
$DIMSHO
 70
     0
  9
$DIMPOST
  1

  9
$DIMAPOST
  1

  9
$DIMALT
 70
     0
  9
$DIMALTD
 70
     2
  9
$DIMALTF
 40
25.399999999999999
  9
$DIMLFAC
 40
1.0
  9
$DIMTOFL
 70
     1
  9
$DIMTVP
 40
1.6000000000000001
  9
$DIMTIX
 70
     1
  9
$DIMSOXD
 70
     0
  9
$DIMSAH
 70
     0
  9
$DIMBLK1
  1

  9
$DIMBLK2
  1

  9
$DIMSTYLE
  2
STANDARD
  9
$DIMCLRD
 70
     0
  9
$DIMCLRE
 70
     0
  9
$DIMCLRT
 70
     0
  9
$DIMTFAC
 40
1.0
  9
$DIMGAP
 40
0.09
  9
$LUNITS
 70
     2
  9
$LUPREC
 70
     4
  9
$SKETCHINC
 40
0.1
  9
$FILLETRAD
 40
1.0
  9
$AUNITS
 70
     0
  9
$AUPREC
 70
     4
  9
$MENU
  1
E:\r13\win\SUPPORT\ACAD
  9
$ELEVATION
 40
0.0
  9
$PELEVATION
 40
0.0
  9
$THICKNESS
 40
0.0
  9
$LIMCHECK
 70
     0
  9
$BLIPMODE
 70
     0
  9
$CHAMFERA
 40
0.0
  9
$CHAMFERB
 40
0.0
  9
$SKPOLY
 70
     0
  9
$TDCREATE
 40
2449840.6038078698
  9
$TDUPDATE
 40
2456597.5470603132
  9
$TDINDWG
 40
0.0004409144
  9
$TDUSRTIMER
 40
0.0004409144
  9
$USRTIMER
 70
     1
  9
$ANGBASE
 50
0.0
  9
$ANGDIR
 70
     0
  9
$PDMODE
 70
    35
  9
$PDSIZE
 40
0.0
  9
$PLINEWID
 40
0.0
  9
$COORDS
 70
     1
  9
$SPLFRAME
 70
     0
  9
$SPLINETYPE
 70
     6
  9
$SPLINESEGS
 70
     8
  9
$ATTDIA
 70
     0
  9
$ATTREQ
 70
     1
  9
$HANDLING
 70
     1
  9
$HANDSEED
  5
2D5
  9
$SURFTAB1
 70
     6
  9
$SURFTAB2
 70
     6
  9
$SURFTYPE
 70
     6
  9
$SURFU
 70
     6
  9
$SURFV
 70
     6
  9
$UCSNAME
  2

  9
$UCSORG
 10
0.0
 20
0.0
 30
0.0
  9
$UCSXDIR
 10
1.0
 20
0.0
 30
0.0
  9
$UCSYDIR
 10
0.0
 20
1.0
 30
0.0
  9
$PUCSNAME
  2

  9
$PUCSORG
 10
0.0
 20
0.0
 30
0.0
  9
$PUCSXDIR
 10
1.0
 20
0.0
 30
0.0
  9
$PUCSYDIR
 10
0.0
 20
1.0
 30
0.0
  9
$USERI1
 70
     0
  9
$USERI2
 70
     1
  9
$USERI3
 70
     1
  9
$USERI4
 70
     0
  9
$USERI5
 70
     0
  9
$USERR1
 40
0.0
  9
$USERR2
 40
0.0
  9
$USERR3
 40
0.0
  9
$USERR4
 40
0.0
  9
$USERR5
 40
0.0
  9
$WORLDVIEW
 70
     1
  9
$SHADEDGE
 70
     3
  9
$SHADEDIF
 70
    70
  9
$TILEMODE
 70
     1
  9
$MAXACTVP
 70
    16
  9
$PLIMCHECK
 70
     0
  9
$PEXTMIN
 10
1.0000000000000000E+020
 20
1.0000000000000000E+020
 30
1.0000000000000000E+020
  9
$PEXTMAX
 10
-1.0000000000000000E+020
 20
-1.0000000000000000E+020
 30
-1.0000000000000000E+020
  9
$PLIMMIN
 10
0.0
 20
0.0
  9
$PLIMMAX
 10
12.0
 20
9.0
  9
$UNITMODE
 70
     0
  9
$VISRETAIN
 70
     0
  9
$PLINEGEN
 70
     0
  9
$PSLTSCALE
 70
     0
  0
ENDSEC
  0
SECTION
  2
TABLES
  0
TABLE
  2
VPORT
 70
     1
  0
VPORT
  2
*ACTIVE
 70
     0
 10
0.0
 20
0.0
 11
1.0
 21
1.0
 12
97.555845655288337
 22
66.014785922033241
 13
0.0
 23
0.0
 14
5.0
 24
5.0
 15
5.0
 25
5.0
 16
0.0
 26
0.0
 36
1.0
 17
0.0
 27
0.0
 37
0.0
 40
139.20783109903601
 41
1.831871345029239
 42
50.0
 43
0.0
 44
0.0
 50
0.0
 51
0.0
 71
     0
 72
   100
 73
     1
 74
     0
 75
     0
 76
     0
 77
     0
 78
     2
  0
ENDTAB
  0
TABLE
  2
LTYPE
 70
     4
  0
LTYPE
  2
CONTINUOUS
 70
     0
  3
Solid Line
 72
    65
 73
     0
 40
0.0
  0
LTYPE
  2
CENTER
 70
     0
  3
____ _ ____ _ ____ _ ____ _ ____ _ ____ _ ____
 72
    65
 73
     4
 40
2.0
 49
1.25
 49
-0.25
 49
0.25
 49
-0.25
  0
LTYPE
  2
HIDDEN
 70
     0
  3
_ _ _ _ _ _ _ _ _ _ _ _ _ _ _ _ _ _ _ _ _ _ _
 72
    65
 73
     2
 40
0.375
 49
0.25
 49
-0.125
  0
LTYPE
  2
PHANTOM2
 70
     0
  3
___ _ _ ___ _ _ ___ _ _ ___ _ _
 72
    65
 73
     6
 40
1.25
 49
0.625
 49
-0.125
 49
0.125
 49
-0.125
 49
0.125
 49
-0.125
  0
ENDTAB
  0
TABLE
  2
LAYER
 70
     4
  0
LAYER
  2
0
 70
     0
 62
     7
  6
CONTINUOUS
  0
LAYER
  2
1
 70
     0
 62
     1
  6
CENTER
  0
LAYER
  2
3
 70
     0
 62
     3
  6
CONTINUOUS
  0
LAYER
  2
2
 70
     0
 62
     2
  6
HIDDEN
  0
ENDTAB
  0
TABLE
  2
STYLE
 70
     2
  0
STYLE
  2
STANDARD
 70
     0
 40
0.0
 41
1.0
 50
0.0
 71
     0
 42
4.0
  3
ROMANS
  4
BIGFONT
  0
STYLE
  2
STANDARD1
 70
     0
 40
0.0
 41
1.0
 50
0.0
 71
     0
 42
3.0
  3
txt
  4

  0
ENDTAB
  0
TABLE
  2
VIEW
 70
     1
  0
VIEW
  2
ALL
 70
     0
 40
135.16666699999999
 10
110.63221299999999
 20
67.416667000000004
 41
0.0
 11
0.0
 21
0.0
 31
1.0
 12
0.0
 22
0.0
 32
0.0
 42
0.0
 43
0.0
 44
0.0
 50
0.0
 71
     0
  0
ENDTAB
  0
TABLE
  2
UCS
 70
     0
  0
ENDTAB
  0
TABLE
  2
APPID
 70
     3
  0
APPID
  2
ACAD
 70
     0
  0
APPID
  2
ACAD_MLEADERVER
 70
     0
  0
APPID
  2
ACAD_NAV_VCDISPLAY
 70
     0
  0
ENDTAB
  0
TABLE
  2
DIMSTYLE
 70
     1
  0
DIMSTYLE
  2
STANDARD
 70
     0
  3

  4

  5

  6

  7

 40
1.0
 41
0.18
 42
0.0625
 43
0.38
 44
0.18
 45
0.0
 46
0.0
 47
0.0
 48
0.0
140
0.18
141
0.09
142
0.0
143
25.399999999999999
144
1.0
145
0.0
146
1.0
147
0.09
 71
     0
 72
     0
 73
     1
 74
     1
 75
     0
 76
     0
 77
     0
 78
     0
170
     0
171
     2
172
     0
173
     0
174
     0
175
     0
176
     0
177
     0
178
     0
  0
ENDTAB
  0
ENDSEC
  0
SECTION
  2
BLOCKS
  0
BLOCK
  8
0
  2
$MODEL_SPACE
 70
     0
 10
0.0
 20
0.0
 30
0.0
  3
$MODEL_SPACE
  1

  0
ENDBLK
  5
11B
  8
0
  0
BLOCK
 67
     1
  8
0
  2
$PAPER_SPACE
 70
     0
 10
0.0
 20
0.0
 30
0.0
  3
$PAPER_SPACE
  1

  0
ENDBLK
  5
119
 67
     1
  8
0
  0
ENDSEC
  0
SECTION
  2
ENTITIES
  0
LINE
  5
29
  8
0
 10
82.704162999999994
 20
48.752743000000002
 30
0.0
 11
82.704162999999994
 21
86.752743000000009
 31
0.0
  0
LINE
  5
2A
  8
0
 10
83.704162999999994
 20
87.752743000000009
 30
0.0
 11
93.704162999999994
 21
87.752743000000009
 31
0.0
  0
LINE
  5
2B
  8
0
 10
83.704162999999994
 20
47.752743000000002
 30
0.0
 11
93.704162999999994
 21
47.752743000000002
 31
0.0
  0
LINE
  5
2C
  8
0
 10
107.70416299999999
 20
59.752743000000002
 30
0.0
 11
107.70416299999999
 21
75.752743000000009
 31
0.0
  0
LINE
  5
2D
  8
0
 10
94.704162999999994
 20
48.752743000000002
 30
0.0
 11
94.704162999999994
 21
86.752743000000009
 31
0.0
  0
LINE
  5
2E
  8
0
 10
93.704162999999994
 20
47.752743000000002
 30
0.0
 11
93.704162999999994
 21
87.752743000000009
 31
0.0
  0
LINE
  5
2F
  8
0
 10
83.704162999999994
 20
47.752743000000002
 30
0.0
 11
83.704162999999994
 21
87.752743000000009
 31
0.0
  0
ARC
  5
30
  8
0
 10
83.704162999999994
 20
86.752743000000009
 30
0.0
 40
1.0
 50
90.0
 51
180.0
  0
ARC
  5
31
  8
0
 10
93.704162999999994
 20
86.752743000000009
 30
0.0
 40
1.0
 50
0.0
 51
90.0
  0
ARC
  5
32
  8
0
 10
93.704162999999994
 20
48.752743000000002
 30
0.0
 40
1.0
 50
270.0
 51
360.0
  0
ARC
  5
33
  8
0
 10
83.704162999999994
 20
48.752743000000002
 30
0.0
 40
1.0
 50
180.0
 51
270.0
  0
LINE
  5
34
  8
0
 10
106.70416299999999
 20
76.752743000000009
 30
0.0
 11
95.704162999999994
 21
76.752743000000009
 31
0.0
  0
LINE
  5
35
  8
0
 10
106.70416299999999
 20
58.752743000000002
 30
0.0
 11
95.704162999999994
 21
58.752743000000002
 31
0.0
  0
LINE
  5
36
  8
3
 10
83.704162999999994
 20
87.656436999999997
 30
0.0
 11
93.704162999999994
 21
87.656436999999997
 31
0.0
  0
LINE
  5
37
  8
3
 10
83.704162999999994
 20
87.368448000000001
 30
0.0
 11
93.704162999999994
 21
87.368448000000001
 31
0.0
  0
LINE
  5
38
  8
3
 10
83.704162999999994
 20
86.891548999999998
 30
0.0
 11
93.704162999999994
 21
86.891548999999998
 31
0.0
  0
LINE
  5
39
  8
3
 10
83.704162999999994
 20
86.230333000000016
 30
0.0
 11
93.704162999999994
 21
86.230333000000016
 31
0.0
  0
LINE
  5
3A
  8
3
 10
83.704162999999994
 20
85.391167999999993
 30
0.0
 11
93.704162999999994
 21
85.391167999999993
 31
0.0
  0
LINE
  5
3B
  8
3
 10
83.704162999999994
 20
84.382134999999991
 30
0.0
 11
93.704162999999994
 21
84.382134999999991
 31
0.0
  0
LINE
  5
3C
  8
3
 10
83.704162999999994
 20
83.212951999999987
 30
0.0
 11
93.704162999999994
 21
83.212951999999987
 31
0.0
  0
LINE
  5
3D
  8
3
 10
83.704162999999994
 20
81.894878000000006
 30
0.0
 11
93.704162999999994
 21
81.894878000000006
 31
0.0
  0
LINE
  5
3E
  8
3
 10
83.704162999999994
 20
80.440607999999997
 30
0.0
 11
93.704162999999994
 21
80.440607999999997
 31
0.0
  0
LINE
  5
3F
  8
3
 10
83.704162999999994
 20
78.864147000000003
 30
0.0
 11
93.704162999999994
 21
78.864147000000003
 31
0.0
  0
LINE
  5
40
  8
3
 10
83.704162999999994
 20
77.180677000000003
 30
0.0
 11
93.704162999999994
 21
77.180677000000003
 31
0.0
  0
LINE
  5
41
  8
3
 10
83.704162999999994
 20
75.406411000000006
 30
0.0
 11
93.704162999999994
 21
75.406411000000006
 31
0.0
  0
LINE
  5
42
  8
3
 10
83.704162999999994
 20
73.558436
 30
0.0
 11
93.704162999999994
 21
73.558436
 31
0.0
  0
LINE
  5
43
  8
3
 10
83.704162999999994
 20
71.654549000000003
 30
0.0
 11
93.704162999999994
 21
71.654549000000003
 31
0.0
  0
LINE
  5
44
  8
3
 10
83.704162999999994
 20
69.713086000000004
 30
0.0
 11
93.704162999999994
 21
69.713086000000004
 31
0.0
  0
ARC
  5
45
  8
0
 10
95.704162999999994
 20
77.752743000000009
 30
0.0
 40
1.0
 50
180.0
 51
270.0
  0
ARC
  5
46
  8
0
 10
106.70416299999999
 20
75.752743000000009
 30
0.0
 40
1.0
 50
0.0
 51
90.0
  0
ARC
  5
47
  8
0
 10
106.70416299999999
 20
59.752743000000002
 30
0.0
 40
1.0
 50
270.0
 51
0.0
  0
ARC
  5
48
  8
0
 10
95.704162999999994
 20
57.752743000000002
 30
0.0
 40
1.0
 50
90.0
 51
180.0
  0
LINE
  5
49
  8
2
 10
107.20416299999999
 20
65.252743000000009
 30
0.0
 11
107.20416299999999
 21
70.252743000000009
 31
0.0
  0
LINE
  5
4A
  8
2
 10
107.70416299999999
 20
64.964068000000012
 30
0.0
 11
107.20416299999999
 21
65.252743000000009
 31
0.0
  0
LINE
  5
4B
  8
2
 10
97.704162999999994
 20
65.252743000000009
 30
0.0
 11
96.260786999999993
 21
67.752743000000009
 31
0.0
  0
LINE
  5
4C
  8
2
 10
97.704162999999994
 20
65.252743000000009
 30
0.0
 11
107.20416299999999
 21
65.252743000000009
 31
0.0
  0
LINE
  5
4D
  8
2
 10
97.704162999999994
 20
65.252743000000009
 30
0.0
 11
97.704162999999994
 21
70.252743000000009
 31
0.0
  0
CIRCLE
  5
4E
  8
0
 10
38.979627000000001
 20
67.752743000000009
 30
0.0
 40
20.0
  0
LINE
  5
56
  8
1
 10
61.479627000000001
 20
67.752743000000009
 30
0.0
 11
16.479627000000001
 21
67.752743000000009
 31
0.0
  0
LINE
  5
57
  8
1
 10
38.979627000000001
 20
90.252743000000009
 30
0.0
 11
38.979627000000001
 21
45.252743000000002
 31
0.0
  0
LINE
  5
58
  8
1
 10
80.204162999999994
 20
67.752743000000009
 30
0.0
 11
110.20416299999999
 21
67.752743000000009
 31
0.0
  0
LINE
  5
59
  8
2
 10
97.704162999999994
 20
70.252743000000009
 30
0.0
 11
107.20416299999999
 21
70.252743000000009
 31
0.0
  0
LINE
  5
5A
  8
2
 10
97.704162999999994
 20
70.252743000000009
 30
0.0
 11
96.260786999999993
 21
67.752743000000009
 31
0.0
  0
LINE
  5
5B
  8
2
 10
107.70416299999999
 20
70.541417999999993
 30
0.0
 11
107.20416299999999
 21
70.252743000000009
 31
0.0
  0
LINE
  5
5C
  8
3
 10
83.704162999999994
 20
65.792400000000001
 30
0.0
 11
93.704162999999994
 21
65.792400000000001
 31
0.0
  0
LINE
  5
5D
  8
3
 10
83.704162999999994
 20
63.850935999999997
 30
0.0
 11
93.704162999999994
 21
63.850935999999997
 31
0.0
  0
LINE
  5
5E
  8
3
 10
83.704162999999994
 20
61.947049
 30
0.0
 11
93.704162999999994
 21
61.947049
 31
0.0
  0
LINE
  5
5F
  8
3
 10
83.704162999999994
 20
60.099074000000002
 30
0.0
 11
93.704162999999994
 21
60.099074000000002
 31
0.0
  0
LINE
  5
60
  8
3
 10
83.704162999999994
 20
58.32480799999999
 30
0.0
 11
93.704162999999994
 21
58.32480799999999
 31
0.0
  0
LINE
  5
61
  8
3
 10
83.704162999999994
 20
56.641337999999998
 30
0.0
 11
93.704162999999994
 21
56.641337999999998
 31
0.0
  0
LINE
  5
62
  8
3
 10
83.704162999999994
 20
55.064877000000003
 30
0.0
 11
93.704162999999994
 21
55.064877000000003
 31
0.0
  0
LINE
  5
63
  8
3
 10
83.704162999999994
 20
53.610606999999987
 30
0.0
 11
93.704162999999994
 21
53.610606999999987
 31
0.0
  0
LINE
  5
64
  8
3
 10
83.704162999999994
 20
52.292534000000011
 30
0.0
 11
93.704162999999994
 21
52.292534000000011
 31
0.0
  0
LINE
  5
65
  8
3
 10
83.704162999999994
 20
51.123351
 30
0.0
 11
93.704162999999994
 21
51.123351
 31
0.0
  0
LINE
  5
66
  8
3
 10
83.704162999999994
 20
50.114317
 30
0.0
 11
93.704162999999994
 21
50.114317
 31
0.0
  0
LINE
  5
67
  8
3
 10
83.704162999999994
 20
49.275151999999999
 30
0.0
 11
93.704162999999994
 21
49.275151999999999
 31
0.0
  0
LINE
  5
68
  8
3
 10
83.704162999999994
 20
48.613935999999988
 30
0.0
 11
93.704162999999994
 21
48.613935999999988
 31
0.0
  0
LINE
  5
69
  8
3
 10
83.704162999999994
 20
48.137036999999999
 30
0.0
 11
93.704162999999994
 21
48.137036999999999
 31
0.0
  0
LINE
  5
6A
  8
3
 10
83.704162999999994
 20
47.849047999999989
 30
0.0
 11
93.704162999999994
 21
47.849047999999989
 31
0.0
  0
LINE
  5
6B
  8
3
 10
83.704162999999994
 20
67.752743000000009
 30
0.0
 11
93.704162999999994
 21
67.752743000000009
 31
0.0
  0
LINE
  5
6C
  8
1
 10
148.47735900000001
 20
90.252743000000009
 30
0.0
 11
148.47735900000001
 21
45.252743000000002
 31
0.0
  0
LINE
  5
6D
  8
1
 10
170.97735900000001
 20
67.752743000000009
 30
0.0
 11
125.97735900000001
 21
67.752743000000009
 31
0.0
  0
CIRCLE
  5
6E
  8
0
 10
148.47735900000001
 20
67.752743000000009
 30
0.0
 40
20.0
  0
CIRCLE
  5
6F
  8
0
 10
148.47735900000001
 20
67.752743000000009
 30
0.0
 40
9.0
  0
CIRCLE
  5
70
  8
0
 10
148.47735900000001
 20
67.752743000000009
 30
0.0
 40
2.5
  0
LINE
  5
71
  8
3
 10
83.704162999999994
 20
112.28157
 30
0.0
 11
93.704162999999994
 21
112.28157
 31
0.0
  0
LINE
  5
72
  8
3
 10
83.704162999999994
 20
92.377875000000003
 30
0.0
 11
93.704162999999994
 21
92.377875000000003
 31
0.0
  0
LINE
  5
73
  8
3
 10
83.704162999999994
 20
92.665863999999985
 30
0.0
 11
93.704162999999994
 21
92.665863999999985
 31
0.0
  0
LINE
  5
74
  8
3
 10
83.704162999999994
 20
93.142763000000016
 30
0.0
 11
93.704162999999994
 21
93.142763000000016
 31
0.0
  0
LINE
  5
75
  8
3
 10
83.704162999999994
 20
93.803978999999998
 30
0.0
 11
93.704162999999994
 21
93.803978999999998
 31
0.0
  0
LINE
  5
76
  8
3
 10
83.704162999999994
 20
94.643143999999992
 30
0.0
 11
93.704162999999994
 21
94.643143999999992
 31
0.0
  0
LINE
  5
77
  8
3
 10
83.704162999999994
 20
95.652177000000009
 30
0.0
 11
93.704162999999994
 21
95.652177000000009
 31
0.0
  0
LINE
  5
78
  8
3
 10
83.704162999999994
 20
96.82136100000001
 30
0.0
 11
93.704162999999994
 21
96.82136100000001
 31
0.0
  0
LINE
  5
79
  8
3
 10
83.704162999999994
 20
98.139433999999994
 30
0.0
 11
93.704162999999994
 21
98.139433999999994
 31
0.0
  0
LINE
  5
7A
  8
3
 10
83.704162999999994
 20
99.593704000000002
 30
0.0
 11
93.704162999999994
 21
99.593704000000002
 31
0.0
  0
LINE
  5
7B
  8
3
 10
83.704162999999994
 20
101.170165
 30
0.0
 11
93.704162999999994
 21
101.170165
 31
0.0
  0
LINE
  5
7C
  8
3
 10
83.704162999999994
 20
102.853635
 30
0.0
 11
93.704162999999994
 21
102.853635
 31
0.0
  0
LINE
  5
7D
  8
3
 10
83.704162999999994
 20
104.62790099999999
 30
0.0
 11
93.704162999999994
 21
104.62790099999999
 31
0.0
  0
LINE
  5
7E
  8
3
 10
83.704162999999994
 20
106.475876
 30
0.0
 11
93.704162999999994
 21
106.475876
 31
0.0
  0
LINE
  5
7F
  8
3
 10
83.704162999999994
 20
108.379763
 30
0.0
 11
93.704162999999994
 21
108.379763
 31
0.0
  0
LINE
  5
80
  8
3
 10
83.704162999999994
 20
110.32122699999999
 30
0.0
 11
93.704162999999994
 21
110.32122699999999
 31
0.0
  0
LINE
  5
81
  8
2
 10
107.70416299999999
 20
115.070245
 30
0.0
 11
107.20416299999999
 21
114.78157
 31
0.0
  0
LINE
  5
82
  8
2
 10
97.704162999999994
 20
114.78157
 30
0.0
 11
96.260786999999993
 21
112.28157
 31
0.0
  0
LINE
  5
83
  8
2
 10
97.704162999999994
 20
114.78157
 30
0.0
 11
107.20416299999999
 21
114.78157
 31
0.0
  0
LINE
  5
84
  8
1
 10
80.204162999999994
 20
112.28157
 30
0.0
 11
110.20416299999999
 21
112.28157
 31
0.0
  0
LINE
  5
85
  8
2
 10
97.704162999999994
 20
109.78157
 30
0.0
 11
97.704162999999994
 21
114.78157
 31
0.0
  0
LINE
  5
86
  8
2
 10
97.704162999999994
 20
109.78157
 30
0.0
 11
107.20416299999999
 21
109.78157
 31
0.0
  0
LINE
  5
87
  8
2
 10
97.704162999999994
 20
109.78157
 30
0.0
 11
96.260786999999993
 21
112.28157
 31
0.0
  0
LINE
  5
88
  8
2
 10
107.70416299999999
 20
109.492895
 30
0.0
 11
107.20416299999999
 21
109.78157
 31
0.0
  0
LINE
  5
89
  8
2
 10
107.20416299999999
 20
109.78157
 30
0.0
 11
107.20416299999999
 21
114.78157
 31
0.0
  0
ARC
  5
8A
  8
0
 10
95.704162999999994
 20
102.28157
 30
0.0
 40
1.0
 50
90.0
 51
180.0
  0
ARC
  5
8B
  8
0
 10
106.70416299999999
 20
104.28157
 30
0.0
 40
1.0
 50
270.0
 51
0.0
  0
ARC
  5
8C
  8
0
 10
106.70416299999999
 20
120.28157
 30
0.0
 40
1.0
 50
0.0
 51
90.0
  0
ARC
  5
8D
  8
0
 10
95.704162999999994
 20
122.28157
 30
0.0
 40
1.0
 50
180.0
 51
270.0
  0
LINE
  5
8E
  8
3
 10
83.704162999999994
 20
114.241912
 30
0.0
 11
93.704162999999994
 21
114.241912
 31
0.0
  0
LINE
  5
8F
  8
3
 10
83.704162999999994
 20
116.183376
 30
0.0
 11
93.704162999999994
 21
116.183376
 31
0.0
  0
LINE
  5
90
  8
3
 10
83.704162999999994
 20
118.08726299999999
 30
0.0
 11
93.704162999999994
 21
118.08726299999999
 31
0.0
  0
LINE
  5
91
  8
3
 10
83.704162999999994
 20
119.935238
 30
0.0
 11
93.704162999999994
 21
119.935238
 31
0.0
  0
LINE
  5
92
  8
3
 10
83.704162999999994
 20
121.709504
 30
0.0
 11
93.704162999999994
 21
121.709504
 31
0.0
  0
LINE
  5
93
  8
3
 10
83.704162999999994
 20
123.392974
 30
0.0
 11
93.704162999999994
 21
123.392974
 31
0.0
  0
LINE
  5
94
  8
3
 10
83.704162999999994
 20
124.969435
 30
0.0
 11
93.704162999999994
 21
124.969435
 31
0.0
  0
LINE
  5
95
  8
3
 10
83.704162999999994
 20
126.423705
 30
0.0
 11
93.704162999999994
 21
126.423705
 31
0.0
  0
LINE
  5
96
  8
3
 10
83.704162999999994
 20
127.74177899999999
 30
0.0
 11
93.704162999999994
 21
127.74177899999999
 31
0.0
  0
LINE
  5
97
  8
3
 10
83.704162999999994
 20
128.91096200000001
 30
0.0
 11
93.704162999999994
 21
128.91096200000001
 31
0.0
  0
LINE
  5
98
  8
3
 10
83.704162999999994
 20
129.919995
 30
0.0
 11
93.704162999999994
 21
129.919995
 31
0.0
  0
LINE
  5
99
  8
3
 10
83.704162999999994
 20
130.75916000000001
 30
0.0
 11
93.704162999999994
 21
130.75916000000001
 31
0.0
  0
LINE
  5
9A
  8
3
 10
83.704162999999994
 20
131.420376
 30
0.0
 11
93.704162999999994
 21
131.420376
 31
0.0
  0
LINE
  5
9B
  8
3
 10
83.704162999999994
 20
131.89727500000001
 30
0.0
 11
93.704162999999994
 21
131.89727500000001
 31
0.0
  0
LINE
  5
9C
  8
3
 10
83.704162999999994
 20
132.18526399999999
 30
0.0
 11
93.704162999999994
 21
132.18526399999999
 31
0.0
  0
LINE
  5
9D
  8
0
 10
106.70416299999999
 20
103.28157
 30
0.0
 11
95.704162999999994
 21
103.28157
 31
0.0
  0
LINE
  5
9E
  8
0
 10
106.70416299999999
 20
121.28157
 30
0.0
 11
95.704162999999994
 21
121.28157
 31
0.0
  0
ARC
  5
9F
  8
0
 10
83.704162999999994
 20
93.281570000000002
 30
0.0
 40
1.0
 50
180.0
 51
270.0
  0
ARC
  5
A0
  8
0
 10
93.704162999999994
 20
93.281570000000002
 30
0.0
 40
1.0
 50
270.0
 51
360.0
  0
ARC
  5
A1
  8
0
 10
93.704162999999994
 20
131.28156999999999
 30
0.0
 40
1.0
 50
0.0
 51
90.0
  0
ARC
  5
A2
  8
0
 10
83.704162999999994
 20
131.28156999999999
 30
0.0
 40
1.0
 50
90.0
 51
180.0
  0
LINE
  5
A3
  8
0
 10
83.704162999999994
 20
92.281570000000016
 30
0.0
 11
83.704162999999994
 21
132.28156999999999
 31
0.0
  0
LINE
  5
A4
  8
0
 10
93.704162999999994
 20
92.281570000000016
 30
0.0
 11
93.704162999999994
 21
132.28156999999999
 31
0.0
  0
LINE
  5
A5
  8
0
 10
94.704162999999994
 20
93.281570000000002
 30
0.0
 11
94.704162999999994
 21
131.28156999999999
 31
0.0
  0
LINE
  5
A6
  8
0
 10
107.70416299999999
 20
104.28157
 30
0.0
 11
107.70416299999999
 21
120.28157
 31
0.0
  0
LINE
  5
A7
  8
0
 10
83.704162999999994
 20
92.281570000000016
 30
0.0
 11
93.704162999999994
 21
92.281570000000016
 31
0.0
  0
LINE
  5
A8
  8
0
 10
83.704162999999994
 20
132.28156999999999
 30
0.0
 11
93.704162999999994
 21
132.28156999999999
 31
0.0
  0
LINE
  5
A9
  8
0
 10
82.704162999999994
 20
93.281570000000002
 30
0.0
 11
82.704162999999994
 21
131.28156999999999
 31
0.0
  0
LINE
  5
AA
  8
0
 10
82.704162999999994
 20
42.905962000000002
 30
0.0
 11
82.704162999999994
 21
4.9059619999999997
 31
0.0
  0
LINE
  5
AB
  8
0
 10
83.704162999999994
 20
3.9059620000000002
 30
0.0
 11
93.704162999999994
 21
3.9059620000000002
 31
0.0
  0
LINE
  5
AC
  8
0
 10
83.704162999999994
 20
43.905962000000002
 30
0.0
 11
93.704162999999994
 21
43.905962000000002
 31
0.0
  0
LINE
  5
AD
  8
0
 10
107.70416299999999
 20
31.905961999999999
 30
0.0
 11
107.70416299999999
 21
15.905962000000001
 31
0.0
  0
LINE
  5
AE
  8
0
 10
94.704162999999994
 20
42.905962000000002
 30
0.0
 11
94.704162999999994
 21
4.9059619999999997
 31
0.0
  0
LINE
  5
AF
  8
0
 10
93.704162999999994
 20
43.905962000000002
 30
0.0
 11
93.704162999999994
 21
3.9059620000000002
 31
0.0
  0
LINE
  5
B0
  8
0
 10
83.704162999999994
 20
43.905962000000002
 30
0.0
 11
83.704162999999994
 21
3.9059620000000002
 31
0.0
  0
ARC
  5
B1
  8
0
 10
83.704162999999994
 20
4.9059619999999997
 30
0.0
 40
1.0
 50
180.0
 51
270.0
  0
ARC
  5
B2
  8
0
 10
93.704162999999994
 20
4.9059619999999997
 30
0.0
 40
1.0
 50
270.0
 51
360.0
  0
ARC
  5
B3
  8
0
 10
93.704162999999994
 20
42.905962000000002
 30
0.0
 40
1.0
 50
0.0
 51
90.0
  0
ARC
  5
B4
  8
0
 10
83.704162999999994
 20
42.905962000000002
 30
0.0
 40
1.0
 50
90.0
 51
180.0
  0
LINE
  5
B5
  8
0
 10
106.70416299999999
 20
14.905962000000001
 30
0.0
 11
95.704162999999994
 21
14.905962000000001
 31
0.0
  0
LINE
  5
B6
  8
0
 10
106.70416299999999
 20
32.905962000000002
 30
0.0
 11
95.704162999999994
 21
32.905962000000002
 31
0.0
  0
LINE
  5
B7
  8
3
 10
83.704162999999994
 20
4.0022669999999989
 30
0.0
 11
93.704162999999994
 21
4.0022669999999989
 31
0.0
  0
LINE
  5
B8
  8
3
 10
83.704162999999994
 20
4.2902559999999994
 30
0.0
 11
93.704162999999994
 21
4.2902559999999994
 31
0.0
  0
LINE
  5
B9
  8
3
 10
83.704162999999994
 20
4.7671549999999998
 30
0.0
 11
93.704162999999994
 21
4.7671549999999998
 31
0.0
  0
LINE
  5
BA
  8
3
 10
83.704162999999994
 20
5.4283710000000003
 30
0.0
 11
93.704162999999994
 21
5.4283710000000003
 31
0.0
  0
LINE
  5
BB
  8
3
 10
83.704162999999994
 20
6.267536999999999
 30
0.0
 11
93.704162999999994
 21
6.267536999999999
 31
0.0
  0
LINE
  5
BC
  8
3
 10
83.704162999999994
 20
7.2765699999999987
 30
0.0
 11
93.704162999999994
 21
7.2765699999999987
 31
0.0
  0
LINE
  5
BD
  8
3
 10
83.704162999999994
 20
8.4457529999999998
 30
0.0
 11
93.704162999999994
 21
8.4457529999999998
 31
0.0
  0
LINE
  5
BE
  8
3
 10
83.704162999999994
 20
9.7638259999999981
 30
0.0
 11
93.704162999999994
 21
9.7638259999999981
 31
0.0
  0
LINE
  5
BF
  8
3
 10
83.704162999999994
 20
11.218095999999999
 30
0.0
 11
93.704162999999994
 21
11.218095999999999
 31
0.0
  0
LINE
  5
C0
  8
3
 10
83.704162999999994
 20
12.794556999999999
 30
0.0
 11
93.704162999999994
 21
12.794556999999999
 31
0.0
  0
LINE
  5
C1
  8
3
 10
83.704162999999994
 20
14.478027000000001
 30
0.0
 11
93.704162999999994
 21
14.478027000000001
 31
0.0
  0
LINE
  5
C2
  8
3
 10
83.704162999999994
 20
16.252293000000002
 30
0.0
 11
93.704162999999994
 21
16.252293000000002
 31
0.0
  0
LINE
  5
C3
  8
3
 10
83.704162999999994
 20
18.100268
 30
0.0
 11
93.704162999999994
 21
18.100268
 31
0.0
  0
LINE
  5
C4
  8
3
 10
83.704162999999994
 20
20.004155000000001
 30
0.0
 11
93.704162999999994
 21
20.004155000000001
 31
0.0
  0
LINE
  5
C5
  8
3
 10
83.704162999999994
 20
21.945619000000001
 30
0.0
 11
93.704162999999994
 21
21.945619000000001
 31
0.0
  0
ARC
  5
C6
  8
0
 10
95.704162999999994
 20
13.905962000000001
 30
0.0
 40
1.0
 50
90.0
 51
180.0
  0
ARC
  5
C7
  8
0
 10
106.70416299999999
 20
15.905962000000001
 30
0.0
 40
1.0
 50
270.0
 51
360.0
  0
ARC
  5
C8
  8
0
 10
106.70416299999999
 20
31.905961999999999
 30
0.0
 40
1.0
 50
360.0
 51
90.0
  0
ARC
  5
C9
  8
0
 10
95.704162999999994
 20
33.905962000000002
 30
0.0
 40
1.0
 50
180.0
 51
270.0
  0
LINE
  5
CA
  8
2
 10
107.20416299999999
 20
26.405961999999999
 30
0.0
 11
107.20416299999999
 21
21.405961999999999
 31
0.0
  0
LINE
  5
CB
  8
2
 10
107.70416299999999
 20
26.694637
 30
0.0
 11
107.20416299999999
 21
26.405961999999999
 31
0.0
  0
LINE
  5
CC
  8
2
 10
97.704162999999994
 20
26.405961999999999
 30
0.0
 11
96.260786999999993
 21
23.905961999999999
 31
0.0
  0
LINE
  5
CD
  8
2
 10
97.704162999999994
 20
26.405961999999999
 30
0.0
 11
107.20416299999999
 21
26.405961999999999
 31
0.0
  0
LINE
  5
CE
  8
2
 10
97.704162999999994
 20
26.405961999999999
 30
0.0
 11
97.704162999999994
 21
21.405961999999999
 31
0.0
  0
LINE
  5
CF
  8
1
 10
80.204162999999994
 20
23.905961999999999
 30
0.0
 11
110.20416299999999
 21
23.905961999999999
 31
0.0
  0
LINE
  5
D0
  8
2
 10
97.704162999999994
 20
21.405961999999999
 30
0.0
 11
107.20416299999999
 21
21.405961999999999
 31
0.0
  0
LINE
  5
D1
  8
2
 10
97.704162999999994
 20
21.405961999999999
 30
0.0
 11
96.260786999999993
 21
23.905961999999999
 31
0.0
  0
LINE
  5
D2
  8
2
 10
107.70416299999999
 20
21.117287000000001
 30
0.0
 11
107.20416299999999
 21
21.405961999999999
 31
0.0
  0
LINE
  5
D3
  8
3
 10
83.704162999999994
 20
25.866305000000001
 30
0.0
 11
93.704162999999994
 21
25.866305000000001
 31
0.0
  0
LINE
  5
D4
  8
3
 10
83.704162999999994
 20
27.807767999999999
 30
0.0
 11
93.704162999999994
 21
27.807767999999999
 31
0.0
  0
LINE
  5
D5
  8
3
 10
83.704162999999994
 20
29.711655
 30
0.0
 11
93.704162999999994
 21
29.711655
 31
0.0
  0
LINE
  5
D6
  8
3
 10
83.704162999999994
 20
31.559629999999999
 30
0.0
 11
93.704162999999994
 21
31.559629999999999
 31
0.0
  0
LINE
  5
D7
  8
3
 10
83.704162999999994
 20
33.333897
 30
0.0
 11
93.704162999999994
 21
33.333897
 31
0.0
  0
LINE
  5
D8
  8
3
 10
83.704162999999994
 20
35.017367
 30
0.0
 11
93.704162999999994
 21
35.017367
 31
0.0
  0
LINE
  5
D9
  8
3
 10
83.704162999999994
 20
36.593828000000002
 30
0.0
 11
93.704162999999994
 21
36.593828000000002
 31
0.0
  0
LINE
  5
DA
  8
3
 10
83.704162999999994
 20
38.048096999999999
 30
0.0
 11
93.704162999999994
 21
38.048096999999999
 31
0.0
  0
LINE
  5
DB
  8
3
 10
83.704162999999994
 20
39.366171000000001
 30
0.0
 11
93.704162999999994
 21
39.366171000000001
 31
0.0
  0
LINE
  5
DC
  8
3
 10
83.704162999999994
 20
40.535353999999998
 30
0.0
 11
93.704162999999994
 21
40.535353999999998
 31
0.0
  0
LINE
  5
DD
  8
3
 10
83.704162999999994
 20
41.544387
 30
0.0
 11
93.704162999999994
 21
41.544387
 31
0.0
  0
LINE
  5
DE
  8
3
 10
83.704162999999994
 20
42.383551999999987
 30
0.0
 11
93.704162999999994
 21
42.383551999999987
 31
0.0
  0
LINE
  5
DF
  8
3
 10
83.704162999999994
 20
43.044769000000002
 30
0.0
 11
93.704162999999994
 21
43.044769000000002
 31
0.0
  0
LINE
  5
E0
  8
3
 10
83.704162999999994
 20
43.521667000000001
 30
0.0
 11
93.704162999999994
 21
43.521667000000001
 31
0.0
  0
LINE
  5
E1
  8
3
 10
83.704162999999994
 20
43.80965599999999
 30
0.0
 11
93.704162999999994
 21
43.80965599999999
 31
0.0
  0
LINE
  5
E2
  8
3
 10
83.704162999999994
 20
23.905961999999999
 30
0.0
 11
93.704162999999994
 21
23.905961999999999
 31
0.0
  0
TEXT
  5
246
  8
0
 62
     3
 10
0.0
 20
0.0
 30
0.0
 40
10.0
  1
AH40C
  7
STANDARD1
  0
ENDSEC
  0
EOF
