  0
SECTION
  2
HEADER
  9
$ACADVER
  1
AC1009
  9
$INSBASE
 10
0.0
 20
0.0
 30
0.0
  9
$EXTMIN
 10
-0.0204638472032742
 20
-2.960436562073669
 30
0.0
  9
$EXTMAX
 10
336.5
 20
251.5
 30
0.0
  9
$LIMMIN
 10
0.0
 20
0.0
  9
$LIMMAX
 10
375.0
 20
270.0
  9
$ORTHOMODE
 70
     1
  9
$REGENMODE
 70
     1
  9
$FILLMODE
 70
     1
  9
$QTEXTMODE
 70
     0
  9
$MIRRTEXT
 70
     0
  9
$DRAGMODE
 70
     2
  9
$LTSCALE
 40
10.0
  9
$OSMODE
 70
  3071
  9
$ATTMODE
 70
     1
  9
$TEXTSIZE
 40
0.2
  9
$TRACEWID
 40
0.05
  9
$TEXTSTYLE
  7
STANDARD
  9
$CLAYER
  8
0
  9
$CELTYPE
  6
BYLAYER
  9
$CECOLOR
 62
   256
  9
$DIMSCALE
 40
1.0
  9
$DIMASZ
 40
3.0
  9
$DIMEXO
 40
2.0
  9
$DIMDLI
 40
0.38
  9
$DIMRND
 40
0.0
  9
$DIMDLE
 40
0.0
  9
$DIMEXE
 40
2.0
  9
$DIMTP
 40
0.0
  9
$DIMTM
 40
0.0
  9
$DIMTXT
 40
3.2000000000000002
  9
$DIMCEN
 40
0.0
  9
$DIMTSZ
 40
0.0
  9
$DIMTOL
 70
     0
  9
$DIMLIM
 70
     0
  9
$DIMTIH
 70
     0
  9
$DIMTOH
 70
     0
  9
$DIMSE1
 70
     0
  9
$DIMSE2
 70
     0
  9
$DIMTAD
 70
     1
  9
$DIMZIN
 70
     0
  9
$DIMBLK
  1

  9
$DIMASO
 70
     1
  9
$DIMSHO
 70
     0
  9
$DIMPOST
  1

  9
$DIMAPOST
  1

  9
$DIMALT
 70
     0
  9
$DIMALTD
 70
     2
  9
$DIMALTF
 40
25.399999999999999
  9
$DIMLFAC
 40
1.0
  9
$DIMTOFL
 70
     0
  9
$DIMTVP
 40
1.6000000000000001
  9
$DIMTIX
 70
     1
  9
$DIMSOXD
 70
     0
  9
$DIMSAH
 70
     0
  9
$DIMBLK1
  1

  9
$DIMBLK2
  1

  9
$DIMSTYLE
  2
STANDARD
  9
$DIMCLRD
 70
     0
  9
$DIMCLRE
 70
     0
  9
$DIMCLRT
 70
     0
  9
$DIMTFAC
 40
1.0
  9
$DIMGAP
 40
0.09
  9
$LUNITS
 70
     2
  9
$LUPREC
 70
     1
  9
$SKETCHINC
 40
0.1
  9
$FILLETRAD
 40
0.0
  9
$AUNITS
 70
     0
  9
$AUPREC
 70
     0
  9
$MENU
  1
E:\r13\win\SUPPORT\ACAD
  9
$ELEVATION
 40
0.0
  9
$PELEVATION
 40
0.0
  9
$THICKNESS
 40
0.0
  9
$LIMCHECK
 70
     0
  9
$BLIPMODE
 70
     0
  9
$CHAMFERA
 40
0.0
  9
$CHAMFERB
 40
0.0
  9
$SKPOLY
 70
     0
  9
$TDCREATE
 40
2449840.6036921302
  9
$TDUPDATE
 40
2456597.5471642599
  9
$TDINDWG
 40
0.0005333218
  9
$TDUSRTIMER
 40
0.0005333218
  9
$USRTIMER
 70
     1
  9
$ANGBASE
 50
0.0
  9
$ANGDIR
 70
     0
  9
$PDMODE
 70
     0
  9
$PDSIZE
 40
0.0
  9
$PLINEWID
 40
0.0
  9
$COORDS
 70
     1
  9
$SPLFRAME
 70
     0
  9
$SPLINETYPE
 70
     6
  9
$SPLINESEGS
 70
     8
  9
$ATTDIA
 70
     0
  9
$ATTREQ
 70
     1
  9
$HANDLING
 70
     1
  9
$HANDSEED
  5
2C4
  9
$SURFTAB1
 70
     6
  9
$SURFTAB2
 70
     6
  9
$SURFTYPE
 70
     6
  9
$SURFU
 70
     6
  9
$SURFV
 70
     6
  9
$UCSNAME
  2

  9
$UCSORG
 10
0.0
 20
0.0
 30
0.0
  9
$UCSXDIR
 10
1.0
 20
0.0
 30
0.0
  9
$UCSYDIR
 10
0.0
 20
1.0
 30
0.0
  9
$PUCSNAME
  2

  9
$PUCSORG
 10
0.0
 20
0.0
 30
0.0
  9
$PUCSXDIR
 10
1.0
 20
0.0
 30
0.0
  9
$PUCSYDIR
 10
0.0
 20
1.0
 30
0.0
  9
$USERI1
 70
     0
  9
$USERI2
 70
     1
  9
$USERI3
 70
     1
  9
$USERI4
 70
     0
  9
$USERI5
 70
     0
  9
$USERR1
 40
0.0
  9
$USERR2
 40
0.0
  9
$USERR3
 40
0.0
  9
$USERR4
 40
0.0
  9
$USERR5
 40
0.0
  9
$WORLDVIEW
 70
     1
  9
$SHADEDGE
 70
     3
  9
$SHADEDIF
 70
    70
  9
$TILEMODE
 70
     1
  9
$MAXACTVP
 70
    16
  9
$PLIMCHECK
 70
     0
  9
$PEXTMIN
 10
1.0000000000000000E+020
 20
1.0000000000000000E+020
 30
1.0000000000000000E+020
  9
$PEXTMAX
 10
-1.0000000000000000E+020
 20
-1.0000000000000000E+020
 30
-1.0000000000000000E+020
  9
$PLIMMIN
 10
0.0
 20
0.0
  9
$PLIMMAX
 10
12.0
 20
9.0
  9
$UNITMODE
 70
     0
  9
$VISRETAIN
 70
     0
  9
$PLINEGEN
 70
     0
  9
$PSLTSCALE
 70
     0
  0
ENDSEC
  0
SECTION
  2
TABLES
  0
TABLE
  2
VPORT
 70
     1
  0
VPORT
  2
*ACTIVE
 70
     0
 10
0.0
 20
0.0
 11
1.0
 21
1.0
 12
195.04380321732449
 22
133.5127261426681
 13
0.0
 23
0.0
 14
10.0
 24
10.0
 15
10.0
 25
10.0
 16
0.0
 26
0.0
 36
1.0
 17
0.0
 27
0.0
 37
0.0
 40
275.42274993631997
 41
1.831871345029239
 42
50.0
 43
0.0
 44
0.0
 50
0.0
 51
0.0
 71
     0
 72
   100
 73
     1
 74
     0
 75
     0
 76
     0
 77
     0
 78
     2
  0
ENDTAB
  0
TABLE
  2
LTYPE
 70
     4
  0
LTYPE
  2
CONTINUOUS
 70
     0
  3
Solid Line
 72
    65
 73
     0
 40
0.0
  0
LTYPE
  2
CENTER
 70
     0
  3
____ _ ____ _ ____ _ ____ _ ____ _ ____ _ ____
 72
    65
 73
     4
 40
2.0
 49
1.25
 49
-0.25
 49
0.25
 49
-0.25
  0
LTYPE
  2
HIDDEN
 70
     0
  3
_ _ _ _ _ _ _ _ _ _ _ _ _ _ _ _ _ _ _ _ _ _ _
 72
    65
 73
     2
 40
0.375
 49
0.25
 49
-0.125
  0
LTYPE
  2
PHANTOM2
 70
     0
  3
___ _ _ ___ _ _ ___ _ _ ___ _ _
 72
    65
 73
     6
 40
1.25
 49
0.625
 49
-0.125
 49
0.125
 49
-0.125
 49
0.125
 49
-0.125
  0
ENDTAB
  0
TABLE
  2
LAYER
 70
     4
  0
LAYER
  2
0
 70
     0
 62
     7
  6
CONTINUOUS
  0
LAYER
  2
1
 70
     0
 62
     1
  6
CENTER
  0
LAYER
  2
3
 70
     0
 62
     3
  6
CONTINUOUS
  0
LAYER
  2
2
 70
     0
 62
     2
  6
HIDDEN
  0
ENDTAB
  0
TABLE
  2
STYLE
 70
     2
  0
STYLE
  2
STANDARD
 70
     0
 40
0.0
 41
1.0
 50
0.0
 71
     0
 42
0.2
  3
TXT
  4
BIGFONT
  0
STYLE
  2
STANDARD1
 70
     0
 40
0.0
 41
1.0
 50
0.0
 71
     0
 42
3.0
  3
txt
  4

  0
ENDTAB
  0
TABLE
  2
VIEW
 70
     1
  0
VIEW
  2
ALL
 70
     0
 40
270.0
 10
220.99159700000001
 20
135.0
 41
0.0
 11
0.0
 21
0.0
 31
1.0
 12
0.0
 22
0.0
 32
0.0
 42
0.0
 43
0.0
 44
0.0
 50
0.0
 71
     0
  0
ENDTAB
  0
TABLE
  2
UCS
 70
     0
  0
ENDTAB
  0
TABLE
  2
APPID
 70
     3
  0
APPID
  2
ACAD
 70
     0
  0
APPID
  2
ACAD_MLEADERVER
 70
     0
  0
APPID
  2
ACAD_NAV_VCDISPLAY
 70
     0
  0
ENDTAB
  0
TABLE
  2
DIMSTYLE
 70
     1
  0
DIMSTYLE
  2
STANDARD
 70
     0
  3

  4

  5

  6

  7

 40
1.0
 41
0.18
 42
0.0625
 43
0.38
 44
0.18
 45
0.0
 46
0.0
 47
0.0
 48
0.0
140
0.18
141
0.09
142
0.0
143
25.399999999999999
144
1.0
145
0.0
146
1.0
147
0.09
 71
     0
 72
     0
 73
     1
 74
     1
 75
     0
 76
     0
 77
     0
 78
     0
170
     0
171
     2
172
     0
173
     0
174
     0
175
     0
176
     0
177
     0
178
     0
  0
ENDTAB
  0
ENDSEC
  0
SECTION
  2
BLOCKS
  0
BLOCK
  8
0
  2
$MODEL_SPACE
 70
     0
 10
0.0
 20
0.0
 30
0.0
  3
$MODEL_SPACE
  1

  0
ENDBLK
  5
10A
  8
0
  0
BLOCK
 67
     1
  8
0
  2
$PAPER_SPACE
 70
     0
 10
0.0
 20
0.0
 30
0.0
  3
$PAPER_SPACE
  1

  0
ENDBLK
  5
108
 67
     1
  8
0
  0
BLOCK
  8
0
  2
*X0
 70
     1
 10
0.0
 20
0.0
 30
0.0
  3
*X0
  1

  0
LINE
  5
2B
  8
0
 62
     0
 10
91.0
 20
110.0
 30
0.0
 11
103.0
 21
110.0
 31
0.0
  0
LINE
  5
2C
  8
0
 62
     0
 10
91.0
 20
111.0
 30
0.0
 11
103.0
 21
111.0
 31
0.0
  0
LINE
  5
2D
  8
0
 62
     0
 10
91.0
 20
112.0
 30
0.0
 11
103.0
 21
112.0
 31
0.0
  0
LINE
  5
2E
  8
0
 62
     0
 10
91.0
 20
113.0
 30
0.0
 11
103.0
 21
113.0
 31
0.0
  0
LINE
  5
2F
  8
0
 62
     0
 10
91.0
 20
114.0
 30
0.0
 11
103.0
 21
114.0
 31
0.0
  0
LINE
  5
30
  8
0
 62
     0
 10
91.0
 20
115.0
 30
0.0
 11
103.0
 21
115.0
 31
0.0
  0
LINE
  5
31
  8
0
 62
     0
 10
91.0
 20
116.0
 30
0.0
 11
103.0
 21
116.0
 31
0.0
  0
LINE
  5
32
  8
0
 62
     0
 10
91.0
 20
117.0
 30
0.0
 11
103.0
 21
117.0
 31
0.0
  0
LINE
  5
33
  8
0
 62
     0
 10
91.0
 20
118.0
 30
0.0
 11
103.0
 21
118.0
 31
0.0
  0
LINE
  5
34
  8
0
 62
     0
 10
91.0
 20
119.0
 30
0.0
 11
103.0
 21
119.0
 31
0.0
  0
LINE
  5
35
  8
0
 62
     0
 10
91.0
 20
120.0
 30
0.0
 11
103.0
 21
120.0
 31
0.0
  0
LINE
  5
36
  8
0
 62
     0
 10
91.0
 20
121.0
 30
0.0
 11
103.0
 21
121.0
 31
0.0
  0
LINE
  5
37
  8
0
 62
     0
 10
91.0
 20
122.0
 30
0.0
 11
103.0
 21
122.0
 31
0.0
  0
LINE
  5
38
  8
0
 62
     0
 10
91.0
 20
123.0
 30
0.0
 11
103.0
 21
123.0
 31
0.0
  0
LINE
  5
39
  8
0
 62
     0
 10
91.0
 20
124.0
 30
0.0
 11
103.0
 21
124.0
 31
0.0
  0
LINE
  5
3A
  8
0
 62
     0
 10
91.0
 20
125.0
 30
0.0
 11
103.0
 21
125.0
 31
0.0
  0
LINE
  5
3B
  8
0
 62
     0
 10
91.0
 20
126.0
 30
0.0
 11
103.0
 21
126.0
 31
0.0
  0
LINE
  5
3C
  8
0
 62
     0
 10
91.0
 20
127.0
 30
0.0
 11
103.0
 21
127.0
 31
0.0
  0
LINE
  5
3D
  8
0
 62
     0
 10
91.0
 20
128.0
 30
0.0
 11
103.0
 21
128.0
 31
0.0
  0
LINE
  5
3E
  8
0
 62
     0
 10
91.0
 20
129.0
 30
0.0
 11
103.0
 21
129.0
 31
0.0
  0
LINE
  5
3F
  8
0
 62
     0
 10
91.0
 20
130.0
 30
0.0
 11
103.0
 21
130.0
 31
0.0
  0
LINE
  5
40
  8
0
 62
     0
 10
91.0
 20
131.0
 30
0.0
 11
103.0
 21
131.0
 31
0.0
  0
LINE
  5
41
  8
0
 62
     0
 10
91.0
 20
132.0
 30
0.0
 11
103.0
 21
132.0
 31
0.0
  0
LINE
  5
42
  8
0
 62
     0
 10
91.0
 20
133.0
 30
0.0
 11
103.0
 21
133.0
 31
0.0
  0
LINE
  5
43
  8
0
 62
     0
 10
91.0
 20
134.0
 30
0.0
 11
103.0
 21
134.0
 31
0.0
  0
LINE
  5
44
  8
0
 62
     0
 10
91.0
 20
135.0
 30
0.0
 11
103.0
 21
135.0
 31
0.0
  0
LINE
  5
45
  8
0
 62
     0
 10
91.0
 20
136.0
 30
0.0
 11
103.0
 21
136.0
 31
0.0
  0
LINE
  5
46
  8
0
 62
     0
 10
91.0
 20
137.0
 30
0.0
 11
103.0
 21
137.0
 31
0.0
  0
LINE
  5
47
  8
0
 62
     0
 10
91.0
 20
138.0
 30
0.0
 11
103.0
 21
138.0
 31
0.0
  0
LINE
  5
48
  8
0
 62
     0
 10
91.0
 20
139.0
 30
0.0
 11
103.0
 21
139.0
 31
0.0
  0
LINE
  5
49
  8
0
 62
     0
 10
91.0
 20
140.0
 30
0.0
 11
103.0
 21
140.0
 31
0.0
  0
LINE
  5
4A
  8
0
 62
     0
 10
91.0
 20
141.0
 30
0.0
 11
103.0
 21
141.0
 31
0.0
  0
LINE
  5
4B
  8
0
 62
     0
 10
91.0
 20
109.0
 30
0.0
 11
103.0
 21
109.0
 31
0.0
  0
LINE
  5
4C
  8
0
 62
     0
 10
91.0
 20
108.0
 30
0.0
 11
103.0
 21
108.0
 31
0.0
  0
LINE
  5
4D
  8
0
 62
     0
 10
91.0
 20
107.0
 30
0.0
 11
103.0
 21
107.0
 31
0.0
  0
LINE
  5
4E
  8
0
 62
     0
 10
91.0
 20
106.0
 30
0.0
 11
103.0
 21
106.0
 31
0.0
  0
LINE
  5
4F
  8
0
 62
     0
 10
91.0
 20
105.0
 30
0.0
 11
103.0
 21
105.0
 31
0.0
  0
LINE
  5
50
  8
0
 62
     0
 10
91.0
 20
104.0
 30
0.0
 11
103.0
 21
104.0
 31
0.0
  0
LINE
  5
51
  8
0
 62
     0
 10
91.0
 20
103.0
 30
0.0
 11
103.0
 21
103.0
 31
0.0
  0
LINE
  5
52
  8
0
 62
     0
 10
91.0
 20
102.0
 30
0.0
 11
103.0
 21
102.0
 31
0.0
  0
LINE
  5
53
  8
0
 62
     0
 10
91.0
 20
101.0
 30
0.0
 11
103.0
 21
101.0
 31
0.0
  0
LINE
  5
54
  8
0
 62
     0
 10
91.0
 20
100.0
 30
0.0
 11
103.0
 21
100.0
 31
0.0
  0
LINE
  5
55
  8
0
 62
     0
 10
91.0
 20
99.0
 30
0.0
 11
103.0
 21
99.0
 31
0.0
  0
LINE
  5
56
  8
0
 62
     0
 10
91.0
 20
98.0
 30
0.0
 11
103.0
 21
98.0
 31
0.0
  0
LINE
  5
57
  8
0
 62
     0
 10
91.0
 20
97.0
 30
0.0
 11
103.0
 21
97.0
 31
0.0
  0
LINE
  5
58
  8
0
 62
     0
 10
91.0
 20
96.0
 30
0.0
 11
103.0
 21
96.0
 31
0.0
  0
LINE
  5
59
  8
0
 62
     0
 10
91.0
 20
95.0
 30
0.0
 11
103.0
 21
95.0
 31
0.0
  0
LINE
  5
5A
  8
0
 62
     0
 10
91.0
 20
94.0
 30
0.0
 11
103.0
 21
94.0
 31
0.0
  0
LINE
  5
5B
  8
0
 62
     0
 10
91.0
 20
93.0
 30
0.0
 11
103.0
 21
93.0
 31
0.0
  0
LINE
  5
5C
  8
0
 62
     0
 10
91.0
 20
92.0
 30
0.0
 11
103.0
 21
92.0
 31
0.0
  0
LINE
  5
5D
  8
0
 62
     0
 10
91.0
 20
91.0
 30
0.0
 11
103.0
 21
91.0
 31
0.0
  0
LINE
  5
5E
  8
0
 62
     0
 10
91.0
 20
90.0
 30
0.0
 11
103.0
 21
90.0
 31
0.0
  0
LINE
  5
5F
  8
0
 62
     0
 10
91.0
 20
89.0
 30
0.0
 11
103.0
 21
89.0
 31
0.0
  0
LINE
  5
60
  8
0
 62
     0
 10
91.0
 20
88.0
 30
0.0
 11
103.0
 21
88.0
 31
0.0
  0
LINE
  5
61
  8
0
 62
     0
 10
91.0
 20
87.0
 30
0.0
 11
103.0
 21
87.0
 31
0.0
  0
LINE
  5
62
  8
0
 62
     0
 10
91.0
 20
86.0
 30
0.0
 11
103.0
 21
86.0
 31
0.0
  0
LINE
  5
63
  8
0
 62
     0
 10
91.0
 20
85.0
 30
0.0
 11
103.0
 21
85.0
 31
0.0
  0
LINE
  5
64
  8
0
 62
     0
 10
91.0
 20
84.0
 30
0.0
 11
103.0
 21
84.0
 31
0.0
  0
LINE
  5
65
  8
0
 62
     0
 10
91.0
 20
83.0
 30
0.0
 11
103.0
 21
83.0
 31
0.0
  0
LINE
  5
66
  8
0
 62
     0
 10
91.0
 20
82.0
 30
0.0
 11
103.0
 21
82.0
 31
0.0
  0
LINE
  5
67
  8
0
 62
     0
 10
91.0
 20
81.0
 30
0.0
 11
103.0
 21
81.0
 31
0.0
  0
LINE
  5
68
  8
0
 62
     0
 10
91.0
 20
80.0
 30
0.0
 11
103.0
 21
80.0
 31
0.0
  0
LINE
  5
69
  8
0
 62
     0
 10
91.0
 20
79.0
 30
0.0
 11
103.0
 21
79.0
 31
0.0
  0
ENDBLK
  5
6A
  8
0
  0
ENDSEC
  0
SECTION
  2
ENTITIES
  0
LINE
  5
6B
  8
2
 10
211.5
 20
130.0
 30
0.0
 11
211.5
 21
127.5
 31
0.0
  0
LINE
  5
6C
  8
2
 10
197.0
 20
127.5
 30
0.0
 11
211.5
 21
127.5
 31
0.0
  0
LINE
  5
6D
  8
2
 10
197.0
 20
130.0
 30
0.0
 11
197.0
 21
127.5
 31
0.0
  0
LINE
  5
6E
  8
2
 10
211.5
 20
127.5
 30
0.0
 11
212.0
 21
127.0
 31
0.0
  0
LINE
  5
6F
  8
2
 10
197.0
 20
127.5
 30
0.0
 11
195.556624
 21
130.0
 31
0.0
  0
ARC
  5
70
  8
0
 10
193.0
 20
160.5
 30
0.0
 40
1.0
 50
0.0
 51
90.0
  0
ARC
  5
71
  8
0
 10
181.0
 20
160.5
 30
0.0
 40
1.0
 50
90.0
 51
180.0
  0
ARC
  5
72
  8
0
 10
181.0
 20
99.500000000000014
 30
0.0
 40
1.0
 50
180.0
 51
270.0
  0
ARC
  5
73
  8
0
 10
193.0
 20
99.500000000000014
 30
0.0
 40
1.0
 50
270.0
 51
360.0
  0
ARC
  5
74
  8
0
 10
197.0
 20
113.5
 30
0.0
 40
3.0
 50
90.0
 51
180.0
  0
ARC
  5
75
  8
0
 10
197.0
 20
146.5
 30
0.0
 40
3.0
 50
180.0
 51
270.0
  0
ARC
  5
76
  8
0
 10
210.0
 20
118.5
 30
0.0
 40
2.0
 50
270.0
 51
0.0
  0
ARC
  5
77
  8
0
 10
210.0
 20
141.5
 30
0.0
 40
2.0
 50
0.0
 51
90.0
  0
LINE
  5
78
  8
0
 10
197.0
 20
116.5
 30
0.0
 11
210.0
 21
116.5
 31
0.0
  0
LINE
  5
79
  8
0
 10
197.0
 20
143.5
 30
0.0
 11
210.0
 21
143.5
 31
0.0
  0
LINE
  5
7A
  8
0
 10
181.0
 20
161.5
 30
0.0
 11
193.0
 21
161.5
 31
0.0
  0
LINE
  5
7B
  8
0
 10
181.0
 20
98.500000000000014
 30
0.0
 11
193.0
 21
98.500000000000014
 31
0.0
  0
LINE
  5
7C
  8
0
 10
181.0
 20
161.5
 30
0.0
 11
181.0
 21
98.500000000000014
 31
0.0
  0
LINE
  5
7D
  8
0
 10
193.0
 20
161.5
 30
0.0
 11
193.0
 21
98.500000000000014
 31
0.0
  0
LINE
  5
7E
  8
0
 10
212.0
 20
141.5
 30
0.0
 11
212.0
 21
118.5
 31
0.0
  0
LINE
  5
7F
  8
0
 10
194.0
 20
160.5
 30
0.0
 11
194.0
 21
99.499999000000017
 31
0.0
  0
LINE
  5
80
  8
1
 10
175.0
 20
130.0
 30
0.0
 11
217.0
 21
130.0
 31
0.0
  0
LINE
  5
81
  8
0
 10
180.0
 20
160.5
 30
0.0
 11
180.0
 21
99.500000000000014
 31
0.0
  0
LINE
  5
82
  8
2
 10
197.0
 20
132.5
 30
0.0
 11
195.556624
 21
130.0
 31
0.0
  0
LINE
  5
83
  8
2
 10
211.5
 20
132.5
 30
0.0
 11
212.0
 21
133.0
 31
0.0
  0
LINE
  5
84
  8
2
 10
197.0
 20
130.0
 30
0.0
 11
197.0
 21
132.5
 31
0.0
  0
LINE
  5
85
  8
2
 10
197.0
 20
132.5
 30
0.0
 11
211.5
 21
132.5
 31
0.0
  0
LINE
  5
86
  8
2
 10
211.5
 20
130.0
 30
0.0
 11
211.5
 21
132.5
 31
0.0
  0
INSERT
  5
87
  8
3
  2
*X0
 10
90.0
 20
20.0
 30
0.0
  0
INSERT
  5
88
  8
3
  2
*X0
 10
90.0
 20
110.0
 30
0.0
  0
LINE
  5
89
  8
2
 10
211.5
 20
220.0
 30
0.0
 11
211.5
 21
222.5
 31
0.0
  0
LINE
  5
8A
  8
2
 10
197.0
 20
222.5
 30
0.0
 11
211.5
 21
222.5
 31
0.0
  0
LINE
  5
8B
  8
2
 10
197.0
 20
220.0
 30
0.0
 11
197.0
 21
222.5
 31
0.0
  0
LINE
  5
8C
  8
2
 10
211.5
 20
222.5
 30
0.0
 11
212.0
 21
223.0
 31
0.0
  0
LINE
  5
8D
  8
2
 10
197.0
 20
222.5
 30
0.0
 11
195.556624
 21
220.0
 31
0.0
  0
LINE
  5
8E
  8
0
 10
180.0
 20
250.5
 30
0.0
 11
180.0
 21
189.5
 31
0.0
  0
LINE
  5
8F
  8
1
 10
175.0
 20
220.0
 30
0.0
 11
217.0
 21
220.0
 31
0.0
  0
LINE
  5
90
  8
0
 10
194.0
 20
250.5
 30
0.0
 11
194.0
 21
189.499999
 31
0.0
  0
LINE
  5
91
  8
0
 10
212.0
 20
231.5
 30
0.0
 11
212.0
 21
208.5
 31
0.0
  0
LINE
  5
92
  8
0
 10
193.0
 20
251.5
 30
0.0
 11
193.0
 21
188.5
 31
0.0
  0
LINE
  5
93
  8
0
 10
181.0
 20
251.5
 30
0.0
 11
181.0
 21
188.5
 31
0.0
  0
LINE
  5
94
  8
0
 10
181.0
 20
188.5
 30
0.0
 11
193.0
 21
188.5
 31
0.0
  0
LINE
  5
95
  8
0
 10
181.0
 20
251.5
 30
0.0
 11
193.0
 21
251.5
 31
0.0
  0
LINE
  5
96
  8
0
 10
197.0
 20
233.5
 30
0.0
 11
210.0
 21
233.5
 31
0.0
  0
LINE
  5
97
  8
0
 10
197.0
 20
206.5
 30
0.0
 11
210.0
 21
206.5
 31
0.0
  0
ARC
  5
98
  8
0
 10
210.0
 20
231.5
 30
0.0
 40
2.0
 50
0.0
 51
90.0
  0
ARC
  5
99
  8
0
 10
210.0
 20
208.5
 30
0.0
 40
2.0
 50
270.0
 51
0.0
  0
ARC
  5
9A
  8
0
 10
197.0
 20
236.5
 30
0.0
 40
3.0
 50
180.0
 51
270.0
  0
ARC
  5
9B
  8
0
 10
197.0
 20
203.5
 30
0.0
 40
3.0
 50
90.0
 51
180.0
  0
ARC
  5
9C
  8
0
 10
193.0
 20
189.5
 30
0.0
 40
1.0
 50
270.0
 51
360.0
  0
ARC
  5
9D
  8
0
 10
181.0
 20
189.5
 30
0.0
 40
1.0
 50
180.0
 51
270.0
  0
ARC
  5
9E
  8
0
 10
181.0
 20
250.5
 30
0.0
 40
1.0
 50
90.0
 51
180.0
  0
ARC
  5
9F
  8
0
 10
193.0
 20
250.5
 30
0.0
 40
1.0
 50
0.0
 51
90.0
  0
LINE
  5
A0
  8
2
 10
197.0
 20
217.5
 30
0.0
 11
195.556624
 21
220.0
 31
0.0
  0
LINE
  5
A1
  8
2
 10
211.5
 20
217.5
 30
0.0
 11
212.0
 21
217.0
 31
0.0
  0
LINE
  5
A2
  8
2
 10
197.0
 20
220.0
 30
0.0
 11
197.0
 21
217.5
 31
0.0
  0
LINE
  5
A3
  8
2
 10
197.0
 20
217.5
 30
0.0
 11
211.5
 21
217.5
 31
0.0
  0
LINE
  5
A4
  8
2
 10
211.5
 20
220.0
 30
0.0
 11
211.5
 21
217.5
 31
0.0
  0
INSERT
  5
A5
  8
3
  2
*X0
 10
90.0
 20
-70.0
 30
0.0
  0
LINE
  5
A6
  8
2
 10
211.5
 20
40.0
 30
0.0
 11
211.5
 21
42.5
 31
0.0
  0
LINE
  5
A7
  8
2
 10
197.0
 20
42.5
 30
0.0
 11
211.5
 21
42.5
 31
0.0
  0
LINE
  5
A8
  8
2
 10
197.0
 20
40.0
 30
0.0
 11
197.0
 21
42.5
 31
0.0
  0
LINE
  5
A9
  8
2
 10
211.5
 20
42.5
 30
0.0
 11
212.0
 21
43.0
 31
0.0
  0
LINE
  5
AA
  8
2
 10
197.0
 20
42.5
 30
0.0
 11
195.556624
 21
40.0
 31
0.0
  0
LINE
  5
AB
  8
0
 10
180.0
 20
70.5
 30
0.0
 11
180.0
 21
9.5
 31
0.0
  0
LINE
  5
AC
  8
1
 10
175.0
 20
40.0
 30
0.0
 11
217.0
 21
40.0
 31
0.0
  0
LINE
  5
AD
  8
0
 10
194.0
 20
70.5
 30
0.0
 11
194.0
 21
9.4999990000000007
 31
0.0
  0
LINE
  5
AE
  8
0
 10
212.0
 20
51.5
 30
0.0
 11
212.0
 21
28.5
 31
0.0
  0
LINE
  5
AF
  8
0
 10
193.0
 20
71.5
 30
0.0
 11
193.0
 21
8.5
 31
0.0
  0
LINE
  5
B0
  8
0
 10
181.0
 20
71.5
 30
0.0
 11
181.0
 21
8.5
 31
0.0
  0
LINE
  5
B1
  8
0
 10
181.0
 20
8.5
 30
0.0
 11
193.0
 21
8.5
 31
0.0
  0
LINE
  5
B2
  8
0
 10
181.0
 20
71.5
 30
0.0
 11
193.0
 21
71.5
 31
0.0
  0
LINE
  5
B3
  8
0
 10
197.0
 20
53.5
 30
0.0
 11
210.0
 21
53.5
 31
0.0
  0
LINE
  5
B4
  8
0
 10
197.0
 20
26.5
 30
0.0
 11
210.0
 21
26.5
 31
0.0
  0
ARC
  5
B5
  8
0
 10
210.0
 20
51.5
 30
0.0
 40
2.0
 50
0.0
 51
90.0
  0
ARC
  5
B6
  8
0
 10
210.0
 20
28.5
 30
0.0
 40
2.0
 50
270.0
 51
0.0
  0
ARC
  5
B7
  8
0
 10
197.0
 20
56.5
 30
0.0
 40
3.0
 50
180.0
 51
270.0
  0
ARC
  5
B8
  8
0
 10
197.0
 20
23.5
 30
0.0
 40
3.0
 50
90.0
 51
180.0
  0
ARC
  5
B9
  8
0
 10
193.0
 20
9.5
 30
0.0
 40
1.0
 50
270.0
 51
360.0
  0
ARC
  5
BA
  8
0
 10
181.0
 20
9.5
 30
0.0
 40
1.0
 50
180.0
 51
270.0
  0
ARC
  5
BB
  8
0
 10
181.0
 20
70.5
 30
0.0
 40
1.0
 50
90.0
 51
180.0
  0
ARC
  5
BC
  8
0
 10
193.0
 20
70.5
 30
0.0
 40
1.0
 50
0.0
 51
90.0
  0
LINE
  5
BD
  8
2
 10
197.0
 20
37.5
 30
0.0
 11
195.556624
 21
40.0
 31
0.0
  0
LINE
  5
BE
  8
2
 10
211.5
 20
37.5
 30
0.0
 11
212.0
 21
37.0
 31
0.0
  0
LINE
  5
BF
  8
2
 10
197.0
 20
40.0
 30
0.0
 11
197.0
 21
37.5
 31
0.0
  0
LINE
  5
C0
  8
2
 10
197.0
 20
37.5
 30
0.0
 11
211.5
 21
37.5
 31
0.0
  0
LINE
  5
C1
  8
2
 10
211.5
 20
40.0
 30
0.0
 11
211.5
 21
37.5
 31
0.0
  0
CIRCLE
  5
C2
  8
0
 10
300.0
 20
130.0
 30
0.0
 40
31.5
  0
CIRCLE
  5
C3
  8
0
 10
80.0
 20
130.0
 30
0.0
 40
31.5
  0
LINE
  5
C4
  8
1
 10
116.5
 20
130.0
 30
0.0
 11
43.5
 21
130.0
 31
0.0
  0
LINE
  5
C5
  8
1
 10
80.0
 20
166.5
 30
0.0
 11
80.0
 21
93.499999999999986
 31
0.0
  0
LINE
  5
C6
  8
1
 10
336.5
 20
130.0
 30
0.0
 11
263.5
 21
130.0
 31
0.0
  0
LINE
  5
C7
  8
1
 10
300.0
 20
166.5
 30
0.0
 11
300.0
 21
93.499999999999986
 31
0.0
  0
CIRCLE
  5
C8
  8
0
 10
300.0
 20
130.0
 30
0.0
 40
13.5
  0
CIRCLE
  5
C9
  8
0
 10
300.0
 20
130.0
 30
0.0
 40
2.5
  0
TEXT
  5
235
  8
0
 62
     3
 10
0.0
 20
0.0
 30
0.0
 40
10.0
  1
AH63C
  7
STANDARD1
  0
ENDSEC
  0
EOF
