  0
SECTION
  2
HEADER
  9
$ACADVER
  1
AC1009
  9
$INSBASE
 10
0.0
 20
0.0
 30
0.0
  9
$EXTMIN
 10
-0.0204638472032742
 20
-2.960436562073669
 30
0.0
  9
$EXTMAX
 10
243.5623849557272
 20
211.10093177276801
 30
0.0
  9
$LIMMIN
 10
0.0
 20
0.0
  9
$LIMMAX
 10
375.0
 20
270.0
  9
$ORTHOMODE
 70
     0
  9
$REGENMODE
 70
     1
  9
$FILLMODE
 70
     1
  9
$QTEXTMODE
 70
     0
  9
$MIRRTEXT
 70
     0
  9
$DRAGMODE
 70
     2
  9
$LTSCALE
 40
5.0
  9
$OSMODE
 70
  3071
  9
$ATTMODE
 70
     1
  9
$TEXTSIZE
 40
2.0
  9
$TRACEWID
 40
0.05
  9
$TEXTSTYLE
  7
STANDARD
  9
$CLAYER
  8
0
  9
$CELTYPE
  6
BYLAYER
  9
$CECOLOR
 62
   256
  9
$DIMSCALE
 40
1.0
  9
$DIMASZ
 40
2.5
  9
$DIMEXO
 40
2.0
  9
$DIMDLI
 40
0.38
  9
$DIMRND
 40
0.0
  9
$DIMDLE
 40
0.0
  9
$DIMEXE
 40
2.0
  9
$DIMTP
 40
0.0
  9
$DIMTM
 40
0.0
  9
$DIMTXT
 40
3.0
  9
$DIMCEN
 40
0.09
  9
$DIMTSZ
 40
0.0
  9
$DIMTOL
 70
     0
  9
$DIMLIM
 70
     0
  9
$DIMTIH
 70
     0
  9
$DIMTOH
 70
     0
  9
$DIMSE1
 70
     0
  9
$DIMSE2
 70
     0
  9
$DIMTAD
 70
     1
  9
$DIMZIN
 70
     0
  9
$DIMBLK
  1

  9
$DIMASO
 70
     1
  9
$DIMSHO
 70
     0
  9
$DIMPOST
  1

  9
$DIMAPOST
  1

  9
$DIMALT
 70
     0
  9
$DIMALTD
 70
     2
  9
$DIMALTF
 40
25.399999999999999
  9
$DIMLFAC
 40
1.0
  9
$DIMTOFL
 70
     0
  9
$DIMTVP
 40
1.6000000000000001
  9
$DIMTIX
 70
     1
  9
$DIMSOXD
 70
     0
  9
$DIMSAH
 70
     0
  9
$DIMBLK1
  1

  9
$DIMBLK2
  1

  9
$DIMSTYLE
  2
STANDARD
  9
$DIMCLRD
 70
     0
  9
$DIMCLRE
 70
     0
  9
$DIMCLRT
 70
     0
  9
$DIMTFAC
 40
1.0
  9
$DIMGAP
 40
0.09
  9
$LUNITS
 70
     2
  9
$LUPREC
 70
     4
  9
$SKETCHINC
 40
0.1
  9
$FILLETRAD
 40
2.5
  9
$AUNITS
 70
     0
  9
$AUPREC
 70
     0
  9
$MENU
  1
E:\r13\win\SUPPORT\ACAD
  9
$ELEVATION
 40
0.0
  9
$PELEVATION
 40
0.0
  9
$THICKNESS
 40
0.0
  9
$LIMCHECK
 70
     0
  9
$BLIPMODE
 70
     0
  9
$CHAMFERA
 40
0.0
  9
$CHAMFERB
 40
0.0
  9
$SKPOLY
 70
     0
  9
$TDCREATE
 40
2448650.5678784722
  9
$TDUPDATE
 40
2456597.548555139
  9
$TDINDWG
 40
0.0194827083
  9
$TDUSRTIMER
 40
0.0194827083
  9
$USRTIMER
 70
     1
  9
$ANGBASE
 50
0.0
  9
$ANGDIR
 70
     0
  9
$PDMODE
 70
     0
  9
$PDSIZE
 40
0.0
  9
$PLINEWID
 40
0.0
  9
$COORDS
 70
     1
  9
$SPLFRAME
 70
     0
  9
$SPLINETYPE
 70
     6
  9
$SPLINESEGS
 70
     8
  9
$ATTDIA
 70
     0
  9
$ATTREQ
 70
     1
  9
$HANDLING
 70
     1
  9
$HANDSEED
  5
CCA
  9
$SURFTAB1
 70
     6
  9
$SURFTAB2
 70
     6
  9
$SURFTYPE
 70
     6
  9
$SURFU
 70
     6
  9
$SURFV
 70
     6
  9
$UCSNAME
  2

  9
$UCSORG
 10
0.0
 20
0.0
 30
0.0
  9
$UCSXDIR
 10
1.0
 20
0.0
 30
0.0
  9
$UCSYDIR
 10
0.0
 20
1.0
 30
0.0
  9
$PUCSNAME
  2

  9
$PUCSORG
 10
0.0
 20
0.0
 30
0.0
  9
$PUCSXDIR
 10
1.0
 20
0.0
 30
0.0
  9
$PUCSYDIR
 10
0.0
 20
1.0
 30
0.0
  9
$USERI1
 70
     0
  9
$USERI2
 70
     1
  9
$USERI3
 70
     1
  9
$USERI4
 70
     0
  9
$USERI5
 70
     0
  9
$USERR1
 40
0.0
  9
$USERR2
 40
0.0
  9
$USERR3
 40
0.0
  9
$USERR4
 40
0.0
  9
$USERR5
 40
0.0
  9
$WORLDVIEW
 70
     1
  9
$SHADEDGE
 70
     3
  9
$SHADEDIF
 70
    70
  9
$TILEMODE
 70
     1
  9
$MAXACTVP
 70
    16
  9
$PLIMCHECK
 70
     0
  9
$PEXTMIN
 10
1.0000000000000000E+020
 20
1.0000000000000000E+020
 30
1.0000000000000000E+020
  9
$PEXTMAX
 10
-1.0000000000000000E+020
 20
-1.0000000000000000E+020
 30
-1.0000000000000000E+020
  9
$PLIMMIN
 10
0.0
 20
0.0
  9
$PLIMMAX
 10
12.0
 20
9.0
  9
$UNITMODE
 70
     0
  9
$VISRETAIN
 70
     0
  9
$PLINEGEN
 70
     1
  9
$PSLTSCALE
 70
     0
  0
ENDSEC
  0
SECTION
  2
TABLES
  0
TABLE
  2
VPORT
 70
     1
  0
VPORT
  2
*ACTIVE
 70
     0
 10
0.0
 20
0.0
 11
1.0
 21
1.0
 12
195.04380321732449
 22
133.5127261426681
 13
0.0
 23
0.0
 14
10.0
 24
10.0
 15
10.0
 25
10.0
 16
0.0
 26
0.0
 36
1.0
 17
0.0
 27
0.0
 37
0.0
 40
275.42274993631997
 41
1.831871345029239
 42
50.0
 43
0.0
 44
0.0
 50
0.0
 51
0.0
 71
     0
 72
   500
 73
     1
 74
     0
 75
     0
 76
     0
 77
     0
 78
     2
  0
ENDTAB
  0
TABLE
  2
LTYPE
 70
     4
  0
LTYPE
  2
CONTINUOUS
 70
     0
  3
Solid Line
 72
    65
 73
     0
 40
0.0
  0
LTYPE
  2
CENTER
 70
     0
  3
____ _ ____ _ ____ _ ____ _ ____ _ ____ _ ____
 72
    65
 73
     4
 40
2.0
 49
1.25
 49
-0.25
 49
0.25
 49
-0.25
  0
LTYPE
  2
HIDDEN
 70
     0
  3
_ _ _ _ _ _ _ _ _ _ _ _ _ _ _ _ _ _ _ _ _ _ _
 72
    65
 73
     2
 40
0.375
 49
0.25
 49
-0.125
  0
LTYPE
  2
PHANTOM2
 70
     0
  3
___ _ _ ___ _ _ ___ _ _ ___ _ _
 72
    65
 73
     6
 40
1.25
 49
0.625
 49
-0.125
 49
0.125
 49
-0.125
 49
0.125
 49
-0.125
  0
ENDTAB
  0
TABLE
  2
LAYER
 70
     4
  0
LAYER
  2
0
 70
     0
 62
     7
  6
CONTINUOUS
  0
LAYER
  2
1
 70
     0
 62
     1
  6
CENTER
  0
LAYER
  2
3
 70
     0
 62
     3
  6
CONTINUOUS
  0
LAYER
  2
2
 70
     0
 62
     2
  6
HIDDEN
  0
ENDTAB
  0
TABLE
  2
STYLE
 70
     2
  0
STYLE
  2
STANDARD
 70
     0
 40
0.0
 41
1.0
 50
0.0
 71
     0
 42
2.0
  3
TXT
  4
BIGFONT
  0
STYLE
  2
STANDARD1
 70
     0
 40
0.0
 41
1.0
 50
0.0
 71
     0
 42
3.0
  3
txt
  4

  0
ENDTAB
  0
TABLE
  2
VIEW
 70
     1
  0
VIEW
  2
ALL
 70
     0
 40
270.0
 10
220.99159663865549
 20
135.0
 41
0.0
 11
0.0
 21
0.0
 31
1.0
 12
0.0
 22
0.0
 32
0.0
 42
0.0
 43
0.0
 44
0.0
 50
0.0
 71
     0
  0
ENDTAB
  0
TABLE
  2
UCS
 70
     0
  0
ENDTAB
  0
TABLE
  2
APPID
 70
     3
  0
APPID
  2
ACAD
 70
     0
  0
APPID
  2
ACAD_MLEADERVER
 70
     0
  0
APPID
  2
ACAD_NAV_VCDISPLAY
 70
     0
  0
ENDTAB
  0
TABLE
  2
DIMSTYLE
 70
     1
  0
DIMSTYLE
  2
STANDARD
 70
     0
  3

  4

  5

  6

  7

 40
1.0
 41
0.18
 42
0.0625
 43
0.38
 44
0.18
 45
0.0
 46
0.0
 47
0.0
 48
0.0
140
0.18
141
0.09
142
0.0
143
25.399999999999999
144
1.0
145
0.0
146
1.0
147
0.09
 71
     0
 72
     0
 73
     1
 74
     1
 75
     0
 76
     0
 77
     0
 78
     0
170
     0
171
     2
172
     0
173
     0
174
     0
175
     0
176
     0
177
     0
178
     0
  0
ENDTAB
  0
ENDSEC
  0
SECTION
  2
BLOCKS
  0
BLOCK
  8
0
  2
$MODEL_SPACE
 70
     0
 10
0.0
 20
0.0
 30
0.0
  3
$MODEL_SPACE
  1

  0
ENDBLK
  5
217
  8
0
  0
BLOCK
 67
     1
  8
0
  2
$PAPER_SPACE
 70
     0
 10
0.0
 20
0.0
 30
0.0
  3
$PAPER_SPACE
  1

  0
ENDBLK
  5
215
 67
     1
  8
0
  0
ENDSEC
  0
SECTION
  2
ENTITIES
  0
LINE
  5
A5A
  8
1
 10
88.562384955727225
 20
121.10093177276789
 30
0.0
 11
38.562384955727232
 21
121.10093177276789
 31
0.0
  0
ARC
  5
A5B
  8
0
 10
63.562384955727218
 20
121.10093177276789
 30
0.0
 40
20.0
 50
280.60350100392202
 51
259.39649899607809
  0
LINE
  5
A5C
  8
1
 10
63.562384955727218
 20
96.100931772767979
 30
0.0
 11
63.562384955727218
 21
146.10093177276789
 31
0.0
  0
CIRCLE
  5
A5D
  8
0
 10
63.562384955727218
 20
107.10093177276801
 30
0.0
 40
6.75
  0
LINE
  5
A5E
  8
1
 10
54.312384955727218
 20
107.10093177276801
 30
0.0
 11
72.812384955727225
 21
107.10093177276801
 31
0.0
  0
ARC
  5
A5F
  8
0
 10
157.5623849557272
 20
43.100931772767751
 30
0.0
 40
1.0
 50
270.0
 51
0.0
  0
LINE
  5
A60
  8
0
 10
134.56238495572711
 20
71.100931772767979
 30
0.0
 11
134.5623849557272
 21
31.100931772767979
 31
0.0
  0
LINE
  5
A61
  8
0
 10
144.56238495572711
 20
71.100931772767979
 30
0.0
 11
144.56238495572711
 21
31.100931772767979
 31
0.0
  0
LINE
  5
A62
  8
0
 10
145.56238495572711
 20
70.100931772767979
 30
0.0
 11
145.56238495572711
 21
32.100931772767979
 31
0.0
  0
LINE
  5
A63
  8
0
 10
133.5623849557272
 20
70.100931772767979
 30
0.0
 11
133.5623849557272
 21
32.100931772767979
 31
0.0
  0
ARC
  5
A64
  8
0
 10
134.5623849557272
 20
32.100931772767979
 30
0.0
 40
1.0
 50
180.0
 51
270.0
  0
LINE
  5
A65
  8
0
 10
157.5623849557272
 20
42.100931772767751
 30
0.0
 11
146.56238495572711
 21
42.100931772767751
 31
0.0
  0
LINE
  5
A66
  8
3
 10
134.5623849557272
 20
33.46250648580093
 30
0.0
 11
144.56238495572711
 21
33.46250648580093
 31
0.0
  0
LINE
  5
A67
  8
3
 10
134.5623849557272
 20
32.623341122542293
 30
0.0
 11
144.56238495572711
 21
32.623341122542293
 31
0.0
  0
LINE
  5
A68
  8
3
 10
134.5623849557272
 20
31.962125058123721
 30
0.0
 11
144.56238495572711
 21
31.962125058123721
 31
0.0
  0
LINE
  5
A69
  8
3
 10
134.5623849557272
 20
31.48522616470331
 30
0.0
 11
144.56238495572711
 21
31.48522616470331
 31
0.0
  0
LINE
  5
A6A
  8
3
 10
134.5623849557272
 20
31.197237239324011
 30
0.0
 11
144.56238495572711
 21
31.197237239324011
 31
0.0
  0
LINE
  5
A6B
  8
0
 10
134.5623849557272
 20
31.100931772767979
 30
0.0
 11
144.56238495572711
 21
31.100931772767979
 31
0.0
  0
ARC
  5
A6C
  8
0
 10
144.56238495572711
 20
32.100931772767979
 30
0.0
 40
1.0
 50
270.0
 51
0.0
  0
LINE
  5
A6D
  8
3
 10
134.5623849557272
 20
38.413066089495089
 30
0.0
 11
144.56238495572711
 21
38.413066089495089
 31
0.0
  0
LINE
  5
A6E
  8
3
 10
134.5623849557272
 20
36.958796149037028
 30
0.0
 11
144.56238495572711
 21
36.958796149037028
 31
0.0
  0
LINE
  5
A6F
  8
3
 10
134.5623849557272
 20
35.640722705513269
 30
0.0
 11
144.56238495572711
 21
35.640722705513269
 31
0.0
  0
LINE
  5
A70
  8
3
 10
134.5623849557272
 20
34.471539526717102
 30
0.0
 11
144.56238495572711
 21
34.471539526717102
 31
0.0
  0
LINE
  5
A71
  8
3
 10
134.5623849557272
 20
41.672997036247978
 30
0.0
 11
144.56238495572711
 21
41.672997036247978
 31
0.0
  0
LINE
  5
A72
  8
3
 10
134.5623849557272
 20
39.989527112375917
 30
0.0
 11
144.56238495572711
 21
39.989527112375917
 31
0.0
  0
ARC
  5
A73
  8
0
 10
146.56238495572711
 20
41.100931772767751
 30
0.0
 40
1.0
 50
90.0
 51
180.0
  0
ARC
  5
A74
  8
0
 10
134.5623849557272
 20
70.100931772767979
 30
0.0
 40
1.0
 50
90.0
 51
180.0
  0
LINE
  5
A75
  8
1
 10
111.06238497542689
 20
51.100931772767979
 30
0.0
 11
163.5623849557272
 21
51.100931772767979
 31
0.0
  0
LINE
  5
A76
  8
0
  6
CONTINUOUS
 62
     7
 10
115.6732504287979
 20
44.350931772767971
 30
0.0
 11
130.6623849584272
 21
44.350931772767971
 31
0.0
  0
LINE
  5
A77
  8
0
  6
CONTINUOUS
 62
     7
 10
115.6732504287979
 20
57.850931772767979
 30
0.0
 11
130.6623849584272
 21
57.850931772767979
 31
0.0
  0
ARC
  5
A78
  8
0
  6
CONTINUOUS
 62
     7
 10
137.92813709960211
 20
51.100945148888677
 30
0.0
 40
24.365752124178591
 50
180.00003145379151
 51
193.27300364273799
  0
LINE
  5
A79
  8
0
  6
CONTINUOUS
 62
     7
 10
115.7001745355734
 20
51.100931772767979
 30
0.0
 11
115.7001745355734
 21
44.350931772768092
 31
0.0
  0
ARC
  5
A7A
  8
0
  6
CONTINUOUS
 62
     7
 10
115.6732504287979
 20
45.850931772767979
 30
0.0
 40
1.5
 50
193.26364352204769
 51
270.0
  0
ARC
  5
A7B
  8
0
  6
CONTINUOUS
 62
     7
 10
115.6732504287979
 20
56.350931772767979
 30
0.0
 40
1.5
 50
90.0
 51
166.73635647795231
  0
ARC
  5
A7C
  8
0
  6
CONTINUOUS
 62
     7
 10
137.92813709960299
 20
51.10091839664716
 30
0.0
 40
24.365752124179561
 50
166.7269963572619
 51
179.99996854620849
  0
LINE
  5
A7D
  8
0
  6
CONTINUOUS
 62
     7
 10
115.7001745355734
 20
51.100931772767979
 30
0.0
 11
115.7001745355734
 21
57.850931772767858
 31
0.0
  0
LINE
  5
A7E
  8
0
  6
CONTINUOUS
 62
     7
 10
133.5623849557272
 20
47.100931772767979
 30
0.0
 11
133.36238495572721
 21
47.100931772767979
 31
0.0
  0
LINE
  5
A7F
  8
0
  6
CONTINUOUS
 62
     7
 10
133.36238495572721
 20
45.60578081621383
 30
0.0
 11
130.6623849584272
 21
44.350931772767971
 31
0.0
  0
LINE
  5
A80
  8
0
  6
CONTINUOUS
 62
     7
 10
133.36238495572721
 20
45.60578081621383
 30
0.0
 11
133.36238495572721
 21
51.100931772767979
 31
0.0
  0
LINE
  5
A81
  8
0
  6
CONTINUOUS
 62
     7
 10
130.6623849584272
 20
44.350931772767971
 30
0.0
 11
130.6623849584272
 21
51.100931772767979
 31
0.0
  0
LINE
  5
A82
  8
0
  6
CONTINUOUS
 62
     7
 10
133.5623849557272
 20
51.100931772767979
 30
0.0
 11
133.5623849557272
 21
47.100931772767979
 31
0.0
  0
LINE
  5
A83
  8
0
  6
CONTINUOUS
 62
     7
 10
133.36238495572721
 20
56.596082729321999
 30
0.0
 11
130.6623849584272
 21
57.850931772767979
 31
0.0
  0
LINE
  5
A84
  8
0
  6
CONTINUOUS
 62
     7
 10
133.5623849557272
 20
55.100931772767979
 30
0.0
 11
133.36238495572721
 21
55.100931772767979
 31
0.0
  0
LINE
  5
A85
  8
0
  6
CONTINUOUS
 62
     7
 10
133.5623849557272
 20
51.100931772767979
 30
0.0
 11
133.5623849557272
 21
55.100931772767979
 31
0.0
  0
LINE
  5
A86
  8
0
  6
CONTINUOUS
 62
     7
 10
130.6623849584272
 20
57.850931772767979
 30
0.0
 11
130.6623849584272
 21
51.100931772767979
 31
0.0
  0
LINE
  5
A87
  8
0
  6
CONTINUOUS
 62
     7
 10
133.36238495572721
 20
56.596082729321999
 30
0.0
 11
133.36238495572721
 21
51.100931772767979
 31
0.0
  0
LINE
  5
A88
  8
2
 10
157.56238495572731
 20
47.100931772767858
 30
0.0
 11
143.5623849557272
 21
47.100931772767858
 31
0.0
  0
LINE
  5
A89
  8
0
 10
157.5623849557272
 20
60.100931772767979
 30
0.0
 11
146.56238495572711
 21
60.100931772767979
 31
0.0
  0
LINE
  5
A8A
  8
2
 10
157.56238495572731
 20
55.100931772768092
 30
0.0
 11
143.5623849557272
 21
55.100931772768092
 31
0.0
  0
LINE
  5
A8B
  8
3
 10
134.5623849557272
 20
43.447263125466122
 30
0.0
 11
144.56238495572711
 21
43.447263125466229
 31
0.0
  0
LINE
  5
A8C
  8
2
 10
143.5623849557272
 20
47.600931772767979
 30
0.0
 11
140.5623849557272
 21
47.600931772767979
 31
0.0
  0
LINE
  5
A8D
  8
3
 10
134.5623849557272
 20
49.140588966176828
 30
0.0
 11
144.56238495572711
 21
49.140588966176828
 31
0.0
  0
LINE
  5
A8E
  8
3
 10
134.5623849557272
 20
47.199125332445362
 30
0.0
 11
144.56238495572711
 21
47.199125332445362
 31
0.0
  0
LINE
  5
A8F
  8
3
 10
134.5623849557272
 20
45.295238227678681
 30
0.0
 11
144.56238495572711
 21
45.295238227678681
 31
0.0
  0
LINE
  5
A90
  8
2
 10
140.5623849557272
 20
54.600931772767979
 30
0.0
 11
138.5416590135635
 21
51.100931772767979
 31
0.0
  0
LINE
  5
A91
  8
2
 10
143.5623849557272
 20
54.600931772767979
 30
0.0
 11
140.5623849557272
 21
54.600931772767979
 31
0.0
  0
LINE
  5
A92
  8
3
 10
134.5623849557272
 20
51.100931772767979
 30
0.0
 11
144.56238495572711
 21
51.100931772767979
 31
0.0
  0
LINE
  5
A93
  8
3
 10
134.5623849557272
 20
53.061274579359122
 30
0.0
 11
144.56238495572711
 21
53.061274579359122
 31
0.0
  0
LINE
  5
A94
  8
2
 10
140.5623849557272
 20
54.600931772767979
 30
0.0
 11
140.5623849557272
 21
47.600931772767979
 31
0.0
  0
LINE
  5
A95
  8
2
 10
140.5623849557272
 20
47.600931772767979
 30
0.0
 11
138.5416590135635
 21
51.100931772767979
 31
0.0
  0
LINE
  5
A96
  8
3
 10
134.5623849557272
 20
58.754600420069842
 30
0.0
 11
144.56238495572711
 21
58.754600420069721
 31
0.0
  0
LINE
  5
A97
  8
3
 10
134.5623849557272
 20
56.906625317857277
 30
0.0
 11
144.56238495572711
 21
56.906625317857277
 31
0.0
  0
LINE
  5
A98
  8
3
 10
134.5623849557272
 20
55.002738213090588
 30
0.0
 11
144.56238495572711
 21
55.002738213090588
 31
0.0
  0
LINE
  5
A99
  8
3
 10
134.5623849557272
 20
60.528866509287973
 30
0.0
 11
144.56238495572711
 21
60.528866509287973
 31
0.0
  0
ARC
  5
A9A
  8
0
 10
146.56238495572711
 20
61.100931772767979
 30
0.0
 40
1.0
 50
180.0
 51
270.0
  0
LINE
  5
A9B
  8
2
 10
143.5623849557272
 20
55.100931772767979
 30
0.0
 11
143.5623849557272
 21
47.100931772767858
 31
0.0
  0
LINE
  5
A9C
  8
2
 10
157.5623849557272
 20
47.100931772767979
 30
0.0
 11
158.5623849557272
 21
46.100931772767971
 31
0.0
  0
LINE
  5
A9D
  8
2
 10
157.5623849557272
 20
55.100931772767979
 30
0.0
 11
158.5623849557272
 21
56.100931772767979
 31
0.0
  0
ARC
  5
A9E
  8
0
 10
157.5623849557272
 20
59.100931772767979
 30
0.0
 40
1.0
 50
0.0
 51
90.0
  0
LINE
  5
A9F
  8
2
 10
157.56238495572711
 20
47.100931772767858
 30
0.0
 11
157.5623849557272
 21
55.100931772767979
 31
0.0
  0
LINE
  5
AA0
  8
0
 10
158.5623849557272
 20
59.100931772767979
 30
0.0
 11
158.5623849557272
 21
43.100931772767751
 31
0.0
  0
LINE
  5
AA1
  8
3
 10
134.5623849557272
 20
65.24306739649893
 30
0.0
 11
144.56238495572711
 21
65.24306739649893
 31
0.0
  0
LINE
  5
AA2
  8
3
 10
134.5623849557272
 20
63.788797456040868
 30
0.0
 11
144.56238495572711
 21
63.788797456040868
 31
0.0
  0
LINE
  5
AA3
  8
3
 10
134.5623849557272
 20
62.212336433160033
 30
0.0
 11
144.56238495572711
 21
62.212336433160033
 31
0.0
  0
LINE
  5
AA4
  8
3
 10
134.5623849557272
 20
70.239738487412239
 30
0.0
 11
144.56238495572711
 21
70.239738487412239
 31
0.0
  0
LINE
  5
AA5
  8
3
 10
134.5623849557272
 20
69.578522422993672
 30
0.0
 11
144.56238495572711
 21
69.578522422993672
 31
0.0
  0
LINE
  5
AA6
  8
3
 10
134.5623849557272
 20
68.739357059735028
 30
0.0
 11
144.56238495572711
 21
68.739357059735028
 31
0.0
  0
LINE
  5
AA7
  8
3
 10
134.5623849557272
 20
67.730324018818862
 30
0.0
 11
144.56238495572711
 21
67.730324018818862
 31
0.0
  0
LINE
  5
AA8
  8
3
 10
134.5623849557272
 20
66.561140840022674
 30
0.0
 11
144.56238495572711
 21
66.561140840022674
 31
0.0
  0
LINE
  5
AA9
  8
3
 10
134.5623849557272
 20
70.716637380832651
 30
0.0
 11
144.56238495572711
 21
70.716637380832651
 31
0.0
  0
LINE
  5
AAA
  8
3
 10
134.5623849557272
 20
71.004626306211946
 30
0.0
 11
144.56238495572711
 21
71.004626306211946
 31
0.0
  0
LINE
  5
AAB
  8
0
 10
134.5623849557272
 20
71.100931772767979
 30
0.0
 11
144.56238495572711
 21
71.100931772767979
 31
0.0
  0
ARC
  5
AAC
  8
0
 10
144.56238495572711
 20
70.100931772767979
 30
0.0
 40
1.0
 50
0.0
 51
90.0
  0
LINE
  5
AAD
  8
1
 10
227.8123849557272
 20
107.10093177276801
 30
0.0
 11
209.3123849557272
 21
107.10093177276801
 31
0.0
  0
CIRCLE
  5
AAE
  8
0
 10
218.5623849557272
 20
121.10093177276789
 30
0.0
 40
9.0000000000002274
  0
CIRCLE
  5
AAF
  8
0
 10
218.5623849557272
 20
121.10093177276789
 30
0.0
 40
20.0
  0
LINE
  5
AB0
  8
1
 10
193.5623849557272
 20
121.10093177276789
 30
0.0
 11
243.5623849557272
 21
121.10093177276789
 31
0.0
  0
LINE
  5
AB1
  8
2
 10
140.5623849557272
 20
117.60093177276801
 30
0.0
 11
138.5416590135635
 21
121.10093177276789
 31
0.0
  0
LINE
  5
AB2
  8
2
 10
157.56238495572711
 20
125.10093177276811
 30
0.0
 11
157.5623849557272
 21
117.10093177276801
 31
0.0
  0
LINE
  5
AB3
  8
2
 10
140.5623849557272
 20
117.60093177276801
 30
0.0
 11
140.5623849557272
 21
124.60093177276801
 31
0.0
  0
LINE
  5
AB4
  8
2
 10
143.5623849557272
 20
117.10093177276801
 30
0.0
 11
143.5623849557272
 21
125.10093177276811
 31
0.0
  0
LINE
  5
AB5
  8
0
 10
134.56238495572711
 20
101.10093177276789
 30
0.0
 11
134.5623849557272
 21
141.10093177276801
 31
0.0
  0
LINE
  5
AB6
  8
0
 10
144.56238495572711
 20
101.10093177276789
 30
0.0
 11
144.56238495572711
 21
141.10093177276801
 31
0.0
  0
LINE
  5
AB7
  8
0
 10
145.56238495572711
 20
102.10093177276789
 30
0.0
 11
145.56238495572711
 21
140.10093177276801
 31
0.0
  0
LINE
  5
AB8
  8
0
 10
158.5623849557272
 20
113.10093177276801
 30
0.0
 11
158.5623849557272
 21
129.10093177276821
 31
0.0
  0
LINE
  5
AB9
  8
0
 10
133.5623849557272
 20
102.10093177276789
 30
0.0
 11
133.5623849557272
 21
140.10093177276801
 31
0.0
  0
LINE
  5
ABA
  8
0
  6
CENTER
 62
     1
 10
148.0623849557272
 20
107.10093177276811
 30
0.0
 11
111.06238497542689
 21
107.10093177276811
 31
0.0
  0
ARC
  5
ABB
  8
0
 10
134.5623849557272
 20
102.10093177276789
 30
0.0
 40
1.0
 50
180.0
 51
270.0
  0
LINE
  5
ABC
  8
0
  6
CONTINUOUS
 62
     7
 10
115.6732504287979
 20
113.85093177276811
 30
0.0
 11
130.6623849584272
 21
113.85093177276811
 31
0.0
  0
LINE
  5
ABD
  8
0
  6
CONTINUOUS
 62
     7
 10
115.6732504287979
 20
100.35093177276811
 30
0.0
 11
130.6623849584272
 21
100.35093177276811
 31
0.0
  0
ARC
  5
ABE
  8
0
  6
CONTINUOUS
 62
     7
 10
115.6732504287979
 20
112.35093177276811
 30
0.0
 40
1.5
 50
90.0
 51
166.73635647795231
  0
ARC
  5
ABF
  8
0
  6
CONTINUOUS
 62
     7
 10
115.6732504287979
 20
101.85093177276811
 30
0.0
 40
1.5
 50
193.26364352204769
 51
270.0
  0
ARC
  5
AC0
  8
0
  6
CONTINUOUS
 62
     7
 10
137.92813709960299
 20
107.1009451488889
 30
0.0
 40
24.365752124179561
 50
180.00003145379151
 51
193.27300364273799
  0
LINE
  5
AC1
  8
0
  6
CONTINUOUS
 62
     7
 10
115.7001745355734
 20
107.10093177276811
 30
0.0
 11
115.7001745355734
 21
100.35093177276821
 31
0.0
  0
LINE
  5
AC2
  8
0
  6
CONTINUOUS
 62
     7
 10
115.7001745355734
 20
107.10093177276811
 30
0.0
 11
115.7001745355734
 21
113.85093177276789
 31
0.0
  0
ARC
  5
AC3
  8
0
  6
CONTINUOUS
 62
     7
 10
137.92813709960211
 20
107.1009183966474
 30
0.0
 40
24.365752124178591
 50
166.7269963572619
 51
179.99996854620849
  0
LINE
  5
AC4
  8
0
  6
CONTINUOUS
 62
     7
 10
133.36238495572721
 20
112.59608272932221
 30
0.0
 11
130.6623849584272
 21
113.85093177276811
 31
0.0
  0
LINE
  5
AC5
  8
0
  6
CONTINUOUS
 62
     7
 10
133.5623849557272
 20
111.10093177276811
 30
0.0
 11
133.36238495572721
 21
111.10093177276811
 31
0.0
  0
LINE
  5
AC6
  8
0
  6
CONTINUOUS
 62
     7
 10
133.5623849557272
 20
103.10093177276811
 30
0.0
 11
133.36238495572721
 21
103.10093177276811
 31
0.0
  0
LINE
  5
AC7
  8
0
  6
CONTINUOUS
 62
     7
 10
133.5623849557272
 20
107.10093177276811
 30
0.0
 11
133.5623849557272
 21
103.10093177276811
 31
0.0
  0
LINE
  5
AC8
  8
0
  6
CONTINUOUS
 62
     7
 10
133.36238495572721
 20
101.60578081621399
 30
0.0
 11
130.6623849584272
 21
100.35093177276811
 31
0.0
  0
LINE
  5
AC9
  8
0
  6
CONTINUOUS
 62
     7
 10
130.6623849584272
 20
100.35093177276811
 30
0.0
 11
130.6623849584272
 21
107.10093177276811
 31
0.0
  0
LINE
  5
ACA
  8
0
  6
CONTINUOUS
 62
     7
 10
133.36238495572721
 20
101.60578081621399
 30
0.0
 11
133.36238495572721
 21
107.10093177276811
 31
0.0
  0
LINE
  5
ACB
  8
0
  6
CONTINUOUS
 62
     7
 10
133.36238495572721
 20
112.59608272932221
 30
0.0
 11
133.36238495572721
 21
107.10093177276811
 31
0.0
  0
LINE
  5
ACC
  8
0
  6
CONTINUOUS
 62
     7
 10
130.6623849584272
 20
113.85093177276811
 30
0.0
 11
130.6623849584272
 21
107.10093177276811
 31
0.0
  0
LINE
  5
ACD
  8
0
  6
CONTINUOUS
 62
     7
 10
133.5623849557272
 20
107.10093177276811
 30
0.0
 11
133.5623849557272
 21
111.10093177276811
 31
0.0
  0
LINE
  5
ACE
  8
2
 10
157.56238495572731
 20
117.10093177276779
 30
0.0
 11
143.5623849557272
 21
117.10093177276779
 31
0.0
  0
LINE
  5
ACF
  8
0
 10
157.5623849557272
 20
112.10093177276801
 30
0.0
 11
146.56238495572711
 21
112.10093177276801
 31
0.0
  0
LINE
  5
AD0
  8
3
 10
134.5623849557272
 20
101.48522616470331
 30
0.0
 11
144.56238495572711
 21
101.48522616470331
 31
0.0
  0
LINE
  5
AD1
  8
3
 10
134.5623849557272
 20
101.197237239324
 30
0.0
 11
144.56238495572711
 21
101.197237239324
 31
0.0
  0
LINE
  5
AD2
  8
3
 10
134.5623849557272
 20
101.9621250581237
 30
0.0
 11
144.56238495572711
 21
101.9621250581237
 31
0.0
  0
LINE
  5
AD3
  8
3
 10
134.5623849557272
 20
102.6233411225422
 30
0.0
 11
144.56238495572711
 21
102.6233411225422
 31
0.0
  0
LINE
  5
AD4
  8
3
 10
134.5623849557272
 20
103.4625064858009
 30
0.0
 11
144.56238495572711
 21
103.4625064858009
 31
0.0
  0
LINE
  5
AD5
  8
3
 10
134.5623849557272
 20
104.47153952671709
 30
0.0
 11
144.56238495572711
 21
104.47153952671709
 31
0.0
  0
LINE
  5
AD6
  8
3
 10
134.5623849557272
 20
105.6407227055133
 30
0.0
 11
144.56238495572711
 21
105.6407227055133
 31
0.0
  0
LINE
  5
AD7
  8
3
 10
134.5623849557272
 20
106.958796149037
 30
0.0
 11
144.56238495572711
 21
106.958796149037
 31
0.0
  0
LINE
  5
AD8
  8
3
 10
134.5623849557272
 20
108.4130660894951
 30
0.0
 11
144.56238495572711
 21
108.4130660894951
 31
0.0
  0
LINE
  5
AD9
  8
3
 10
134.5623849557272
 20
109.9895271123759
 30
0.0
 11
144.56238495572711
 21
109.9895271123759
 31
0.0
  0
LINE
  5
ADA
  8
3
 10
134.5623849557272
 20
111.67299703624801
 30
0.0
 11
144.56238495572711
 21
111.67299703624801
 31
0.0
  0
LINE
  5
ADB
  8
3
 10
134.5623849557272
 20
113.44726312546609
 30
0.0
 11
144.56238495572711
 21
113.44726312546619
 31
0.0
  0
LINE
  5
ADC
  8
3
 10
134.5623849557272
 20
115.29523822767869
 30
0.0
 11
144.56238495572711
 21
115.29523822767869
 31
0.0
  0
LINE
  5
ADD
  8
3
 10
134.5623849557272
 20
117.19912533244531
 30
0.0
 11
144.56238495572711
 21
117.19912533244531
 31
0.0
  0
LINE
  5
ADE
  8
2
 10
143.5623849557272
 20
117.60093177276801
 30
0.0
 11
140.5623849557272
 21
117.60093177276801
 31
0.0
  0
ARC
  5
ADF
  8
0
 10
146.56238495572711
 20
111.10093177276801
 30
0.0
 40
1.0
 50
90.0
 51
180.0
  0
ARC
  5
AE0
  8
0
 10
144.56238495572711
 20
102.10093177276789
 30
0.0
 40
1.0
 50
270.0
 51
0.0
  0
LINE
  5
AE1
  8
0
 10
134.5623849557272
 20
101.10093177276789
 30
0.0
 11
144.56238495572711
 21
101.10093177276789
 31
0.0
  0
LINE
  5
AE2
  8
2
 10
157.5623849557272
 20
117.10093177276801
 30
0.0
 11
158.5623849557272
 21
116.10093177276801
 31
0.0
  0
ARC
  5
AE3
  8
0
 10
157.5623849557272
 20
113.10093177276801
 30
0.0
 40
1.0
 50
270.0
 51
0.0
  0
LINE
  5
AE4
  8
1
 10
128.5623849557272
 20
121.10093177276789
 30
0.0
 11
163.5623849557272
 21
121.10093177276789
 31
0.0
  0
ARC
  5
AE5
  8
0
 10
134.5623849557272
 20
140.10093177276801
 30
0.0
 40
1.0
 50
90.0
 51
180.0
  0
LINE
  5
AE6
  8
2
 10
157.56238495572731
 20
125.10093177276811
 30
0.0
 11
143.5623849557272
 21
125.10093177276811
 31
0.0
  0
LINE
  5
AE7
  8
0
 10
157.5623849557272
 20
130.10093177276821
 30
0.0
 11
146.56238495572711
 21
130.10093177276821
 31
0.0
  0
LINE
  5
AE8
  8
2
 10
143.5623849557272
 20
124.60093177276801
 30
0.0
 11
140.5623849557272
 21
124.60093177276801
 31
0.0
  0
LINE
  5
AE9
  8
2
 10
140.5623849557272
 20
124.60093177276801
 30
0.0
 11
138.5416590135635
 21
121.10093177276789
 31
0.0
  0
LINE
  5
AEA
  8
3
 10
134.5623849557272
 20
121.10093177276789
 30
0.0
 11
144.56238495572711
 21
121.10093177276789
 31
0.0
  0
LINE
  5
AEB
  8
3
 10
134.5623849557272
 20
119.14058896617679
 30
0.0
 11
144.56238495572711
 21
119.14058896617679
 31
0.0
  0
ARC
  5
AEC
  8
0
 10
146.56238495572711
 20
131.10093177276821
 30
0.0
 40
1.0
 50
180.0
 51
270.0
  0
LINE
  5
AED
  8
3
 10
134.5623849557272
 20
123.06127457935909
 30
0.0
 11
144.56238495572711
 21
123.06127457935909
 31
0.0
  0
LINE
  5
AEE
  8
3
 10
134.5623849557272
 20
125.00273821309059
 30
0.0
 11
144.56238495572711
 21
125.00273821309059
 31
0.0
  0
LINE
  5
AEF
  8
3
 10
134.5623849557272
 20
126.9066253178573
 30
0.0
 11
144.56238495572711
 21
126.9066253178573
 31
0.0
  0
LINE
  5
AF0
  8
3
 10
134.5623849557272
 20
128.75460042006981
 30
0.0
 11
144.56238495572711
 21
128.75460042006969
 31
0.0
  0
LINE
  5
AF1
  8
3
 10
134.5623849557272
 20
130.52886650928801
 30
0.0
 11
144.56238495572711
 21
130.52886650928801
 31
0.0
  0
LINE
  5
AF2
  8
3
 10
134.5623849557272
 20
132.21233643316
 30
0.0
 11
144.56238495572711
 21
132.21233643316
 31
0.0
  0
LINE
  5
AF3
  8
3
 10
134.5623849557272
 20
133.78879745604081
 30
0.0
 11
144.56238495572711
 21
133.78879745604081
 31
0.0
  0
LINE
  5
AF4
  8
3
 10
134.5623849557272
 20
135.2430673964989
 30
0.0
 11
144.56238495572711
 21
135.2430673964989
 31
0.0
  0
LINE
  5
AF5
  8
3
 10
134.5623849557272
 20
136.56114084002269
 30
0.0
 11
144.56238495572711
 21
136.56114084002269
 31
0.0
  0
LINE
  5
AF6
  8
3
 10
134.5623849557272
 20
137.73032401881881
 30
0.0
 11
144.56238495572711
 21
137.73032401881881
 31
0.0
  0
LINE
  5
AF7
  8
2
 10
157.5623849557272
 20
125.10093177276789
 30
0.0
 11
158.5623849557272
 21
126.10093177276789
 31
0.0
  0
ARC
  5
AF8
  8
0
 10
157.5623849557272
 20
129.10093177276821
 30
0.0
 40
1.0
 50
0.0
 51
90.0
  0
LINE
  5
AF9
  8
3
 10
134.5623849557272
 20
138.739357059735
 30
0.0
 11
144.56238495572711
 21
138.739357059735
 31
0.0
  0
LINE
  5
AFA
  8
3
 10
134.5623849557272
 20
139.57852242299359
 30
0.0
 11
144.56238495572711
 21
139.57852242299359
 31
0.0
  0
LINE
  5
AFB
  8
3
 10
134.5623849557272
 20
140.23973848741221
 30
0.0
 11
144.56238495572711
 21
140.23973848741221
 31
0.0
  0
LINE
  5
AFC
  8
3
 10
134.5623849557272
 20
140.71663738083259
 30
0.0
 11
144.56238495572711
 21
140.71663738083259
 31
0.0
  0
LINE
  5
AFD
  8
3
 10
134.5623849557272
 20
141.00462630621189
 30
0.0
 11
144.56238495572711
 21
141.00462630621189
 31
0.0
  0
ARC
  5
AFE
  8
0
 10
144.56238495572711
 20
140.10093177276801
 30
0.0
 40
1.0
 50
0.0
 51
90.0
  0
LINE
  5
AFF
  8
0
 10
134.5623849557272
 20
141.10093177276801
 30
0.0
 11
144.56238495572711
 21
141.10093177276801
 31
0.0
  0
CIRCLE
  5
B00
  8
0
 10
218.5623849557272
 20
121.10093177276789
 30
0.0
 40
4.0000000000001128
  0
LINE
  5
B01
  8
1
 10
218.5623849557272
 20
96.100931772767979
 30
0.0
 11
218.5623849557272
 21
146.10093177276789
 31
0.0
  0
ARC
  5
B02
  8
0
 10
218.5623849557272
 20
107.10093177276801
 30
0.0
 40
6.75
 50
236.9603695884777
 51
303.0396304115223
  0
LINE
  5
B03
  8
0
  6
CONTINUOUS
 62
     7
 10
133.36238495572721
 20
196.59608272932209
 30
0.0
 11
133.36238495572721
 21
191.10093177276801
 31
0.0
  0
LINE
  5
B04
  8
0
  6
CONTINUOUS
 62
     7
 10
133.5623849557272
 20
191.10093177276801
 30
0.0
 11
133.5623849557272
 21
195.10093177276801
 31
0.0
  0
LINE
  5
B05
  8
0
  6
CONTINUOUS
 62
     7
 10
130.6623849584272
 20
197.85093177276789
 30
0.0
 11
130.6623849584272
 21
191.10093177276801
 31
0.0
  0
LINE
  5
B06
  8
0
 10
158.5623849557272
 20
183.10093177276801
 30
0.0
 11
158.5623849557272
 21
199.10093177276821
 31
0.0
  0
LINE
  5
B07
  8
2
 10
157.56238495572711
 20
195.10093177276809
 30
0.0
 11
157.5623849557272
 21
187.10093177276789
 31
0.0
  0
LINE
  5
B08
  8
2
 10
143.5623849557272
 20
187.10093177276789
 30
0.0
 11
143.5623849557272
 21
195.10093177276809
 31
0.0
  0
LINE
  5
B09
  8
0
 10
133.5623849557272
 20
172.10093177276789
 30
0.0
 11
133.5623849557272
 21
210.10093177276801
 31
0.0
  0
LINE
  5
B0A
  8
0
 10
145.56238495572711
 20
172.10093177276789
 30
0.0
 11
145.56238495572711
 21
210.10093177276801
 31
0.0
  0
LINE
  5
B0B
  8
0
 10
144.56238495572711
 20
171.10093177276789
 30
0.0
 11
144.56238495572711
 21
211.10093177276801
 31
0.0
  0
LINE
  5
B0C
  8
0
 10
134.56238495572711
 20
171.10093177276789
 30
0.0
 11
134.5623849557272
 21
211.10093177276801
 31
0.0
  0
ARC
  5
B0D
  8
0
  6
CONTINUOUS
 62
     7
 10
137.92813709960211
 20
191.10091839664719
 30
0.0
 40
24.365752124178591
 50
166.7269963572619
 51
179.99996854620849
  0
LINE
  5
B0E
  8
0
  6
CONTINUOUS
 62
     7
 10
115.7001745355734
 20
191.10093177276801
 30
0.0
 11
115.7001745355734
 21
197.85093177276781
 31
0.0
  0
ARC
  5
B0F
  8
0
 10
134.5623849557272
 20
172.10093177276789
 30
0.0
 40
1.0
 50
180.0
 51
270.0
  0
LINE
  5
B10
  8
1
 10
111.06238497542689
 20
191.10093177276801
 30
0.0
 11
163.5623849557272
 21
191.10093177276801
 31
0.0
  0
LINE
  5
B11
  8
0
  6
CONTINUOUS
 62
     7
 10
115.6732504287979
 20
184.35093177276789
 30
0.0
 11
130.6623849584272
 21
184.35093177276789
 31
0.0
  0
ARC
  5
B12
  8
0
  6
CONTINUOUS
 62
     7
 10
115.6732504287979
 20
185.85093177276801
 30
0.0
 40
1.5
 50
193.26364352204769
 51
270.0
  0
ARC
  5
B13
  8
0
  6
CONTINUOUS
 62
     7
 10
137.92813709960299
 20
191.1009451488888
 30
0.0
 40
24.365752124179561
 50
180.00003145379151
 51
193.27300364273799
  0
LINE
  5
B14
  8
0
  6
CONTINUOUS
 62
     7
 10
115.7001745355734
 20
191.10093177276801
 30
0.0
 11
115.7001745355734
 21
184.35093177276809
 31
0.0
  0
LINE
  5
B15
  8
0
  6
CONTINUOUS
 62
     7
 10
133.5623849557272
 20
187.10093177276789
 30
0.0
 11
133.36238495572721
 21
187.10093177276789
 31
0.0
  0
LINE
  5
B16
  8
0
  6
CONTINUOUS
 62
     7
 10
133.5623849557272
 20
191.10093177276801
 30
0.0
 11
133.5623849557272
 21
187.10093177276789
 31
0.0
  0
LINE
  5
B17
  8
0
  6
CONTINUOUS
 62
     7
 10
133.36238495572721
 20
185.60578081621389
 30
0.0
 11
130.6623849584272
 21
184.35093177276789
 31
0.0
  0
LINE
  5
B18
  8
0
  6
CONTINUOUS
 62
     7
 10
130.6623849584272
 20
184.35093177276789
 30
0.0
 11
130.6623849584272
 21
191.10093177276801
 31
0.0
  0
LINE
  5
B19
  8
0
  6
CONTINUOUS
 62
     7
 10
133.36238495572721
 20
185.60578081621389
 30
0.0
 11
133.36238495572721
 21
191.10093177276801
 31
0.0
  0
LINE
  5
B1A
  8
3
 10
134.5623849557272
 20
175.6407227055133
 30
0.0
 11
144.56238495572711
 21
175.6407227055133
 31
0.0
  0
LINE
  5
B1B
  8
3
 10
134.5623849557272
 20
174.47153952671709
 30
0.0
 11
144.56238495572711
 21
174.47153952671709
 31
0.0
  0
LINE
  5
B1C
  8
3
 10
134.5623849557272
 20
173.4625064858009
 30
0.0
 11
144.56238495572711
 21
173.4625064858009
 31
0.0
  0
LINE
  5
B1D
  8
0
 10
134.5623849557272
 20
171.10093177276789
 30
0.0
 11
144.56238495572711
 21
171.10093177276789
 31
0.0
  0
LINE
  5
B1E
  8
3
 10
134.5623849557272
 20
172.62334112254231
 30
0.0
 11
144.56238495572711
 21
172.62334112254231
 31
0.0
  0
LINE
  5
B1F
  8
3
 10
134.5623849557272
 20
171.96212505812369
 30
0.0
 11
144.56238495572711
 21
171.96212505812369
 31
0.0
  0
LINE
  5
B20
  8
3
 10
134.5623849557272
 20
171.19723723932401
 30
0.0
 11
144.56238495572711
 21
171.19723723932401
 31
0.0
  0
LINE
  5
B21
  8
3
 10
134.5623849557272
 20
171.48522616470331
 30
0.0
 11
144.56238495572711
 21
171.48522616470331
 31
0.0
  0
ARC
  5
B22
  8
0
 10
144.56238495572711
 20
172.10093177276789
 30
0.0
 40
1.0
 50
270.0
 51
0.0
  0
LINE
  5
B23
  8
2
 10
157.56238495572731
 20
187.10093177276781
 30
0.0
 11
143.5623849557272
 21
187.10093177276781
 31
0.0
  0
LINE
  5
B24
  8
0
 10
157.5623849557272
 20
182.10093177276789
 30
0.0
 11
146.56238495572711
 21
182.10093177276789
 31
0.0
  0
LINE
  5
B25
  8
2
 10
143.5623849557272
 20
194.60093177276789
 30
0.0
 11
140.5623849557272
 21
194.60093177276789
 31
0.0
  0
LINE
  5
B26
  8
3
 10
134.5623849557272
 20
193.06127457935909
 30
0.0
 11
144.56238495572711
 21
193.06127457935909
 31
0.0
  0
LINE
  5
B27
  8
3
 10
134.5623849557272
 20
189.14058896617681
 30
0.0
 11
144.56238495572711
 21
189.14058896617681
 31
0.0
  0
LINE
  5
B28
  8
3
 10
134.5623849557272
 20
191.10093177276801
 30
0.0
 11
144.56238495572711
 21
191.10093177276801
 31
0.0
  0
LINE
  5
B29
  8
2
 10
143.5623849557272
 20
187.60093177276801
 30
0.0
 11
140.5623849557272
 21
187.60093177276801
 31
0.0
  0
LINE
  5
B2A
  8
3
 10
134.5623849557272
 20
187.19912533244531
 30
0.0
 11
144.56238495572711
 21
187.19912533244531
 31
0.0
  0
LINE
  5
B2B
  8
3
 10
134.5623849557272
 20
185.29523822767871
 30
0.0
 11
144.56238495572711
 21
185.29523822767871
 31
0.0
  0
LINE
  5
B2C
  8
2
 10
140.5623849557272
 20
187.60093177276801
 30
0.0
 11
138.5416590135635
 21
191.10093177276801
 31
0.0
  0
LINE
  5
B2D
  8
3
 10
134.5623849557272
 20
183.44726312546609
 30
0.0
 11
144.56238495572711
 21
183.44726312546621
 31
0.0
  0
LINE
  5
B2E
  8
3
 10
134.5623849557272
 20
181.67299703624789
 30
0.0
 11
144.56238495572711
 21
181.67299703624789
 31
0.0
  0
LINE
  5
B2F
  8
3
 10
134.5623849557272
 20
179.9895271123759
 30
0.0
 11
144.56238495572711
 21
179.9895271123759
 31
0.0
  0
LINE
  5
B30
  8
3
 10
134.5623849557272
 20
178.41306608949509
 30
0.0
 11
144.56238495572711
 21
178.41306608949509
 31
0.0
  0
LINE
  5
B31
  8
3
 10
134.5623849557272
 20
176.958796149037
 30
0.0
 11
144.56238495572711
 21
176.958796149037
 31
0.0
  0
ARC
  5
B32
  8
0
 10
146.56238495572711
 20
181.10093177276801
 30
0.0
 40
1.0
 50
90.0
 51
180.0
  0
LINE
  5
B33
  8
2
 10
140.5623849557272
 20
194.60093177276789
 30
0.0
 11
138.5416590135635
 21
191.10093177276801
 31
0.0
  0
LINE
  5
B34
  8
2
 10
140.5623849557272
 20
187.60093177276801
 30
0.0
 11
140.5623849557272
 21
194.60093177276789
 31
0.0
  0
LINE
  5
B35
  8
2
 10
157.5623849557272
 20
187.10093177276789
 30
0.0
 11
158.5623849557272
 21
186.10093177276801
 31
0.0
  0
ARC
  5
B36
  8
0
 10
157.5623849557272
 20
183.10093177276801
 30
0.0
 40
1.0
 50
270.0
 51
0.0
  0
ARC
  5
B37
  8
0
 10
134.5623849557272
 20
210.10093177276801
 30
0.0
 40
1.0
 50
90.0
 51
180.0
  0
LINE
  5
B38
  8
0
  6
CONTINUOUS
 62
     7
 10
115.6732504287979
 20
197.85093177276789
 30
0.0
 11
130.6623849584272
 21
197.85093177276789
 31
0.0
  0
ARC
  5
B39
  8
0
  6
CONTINUOUS
 62
     7
 10
115.6732504287979
 20
196.35093177276801
 30
0.0
 40
1.5
 50
90.0
 51
166.73635647795231
  0
LINE
  5
B3A
  8
0
  6
CONTINUOUS
 62
     7
 10
133.5623849557272
 20
195.10093177276801
 30
0.0
 11
133.36238495572721
 21
195.10093177276801
 31
0.0
  0
LINE
  5
B3B
  8
0
  6
CONTINUOUS
 62
     7
 10
133.36238495572721
 20
196.59608272932209
 30
0.0
 11
130.6623849584272
 21
197.85093177276789
 31
0.0
  0
LINE
  5
B3C
  8
0
 10
157.5623849557272
 20
200.10093177276821
 30
0.0
 11
146.56238495572711
 21
200.10093177276821
 31
0.0
  0
LINE
  5
B3D
  8
2
 10
157.56238495572731
 20
195.10093177276809
 30
0.0
 11
143.5623849557272
 21
195.10093177276809
 31
0.0
  0
LINE
  5
B3E
  8
0
 10
134.5623849557272
 20
211.10093177276801
 30
0.0
 11
144.56238495572711
 21
211.10093177276801
 31
0.0
  0
LINE
  5
B3F
  8
3
 10
134.5623849557272
 20
211.00462630621189
 30
0.0
 11
144.56238495572711
 21
211.00462630621189
 31
0.0
  0
LINE
  5
B40
  8
3
 10
134.5623849557272
 20
210.71663738083259
 30
0.0
 11
144.56238495572711
 21
210.71663738083259
 31
0.0
  0
LINE
  5
B41
  8
3
 10
134.5623849557272
 20
210.2397384874123
 30
0.0
 11
144.56238495572711
 21
210.2397384874123
 31
0.0
  0
LINE
  5
B42
  8
3
 10
134.5623849557272
 20
209.5785224229937
 30
0.0
 11
144.56238495572711
 21
209.5785224229937
 31
0.0
  0
LINE
  5
B43
  8
3
 10
134.5623849557272
 20
208.739357059735
 30
0.0
 11
144.56238495572711
 21
208.739357059735
 31
0.0
  0
LINE
  5
B44
  8
3
 10
134.5623849557272
 20
207.73032401881889
 30
0.0
 11
144.56238495572711
 21
207.73032401881889
 31
0.0
  0
LINE
  5
B45
  8
3
 10
134.5623849557272
 20
206.56114084002269
 30
0.0
 11
144.56238495572711
 21
206.56114084002269
 31
0.0
  0
LINE
  5
B46
  8
3
 10
134.5623849557272
 20
205.2430673964989
 30
0.0
 11
144.56238495572711
 21
205.2430673964989
 31
0.0
  0
ARC
  5
B47
  8
0
 10
144.56238495572711
 20
210.10093177276801
 30
0.0
 40
1.0
 50
0.0
 51
90.0
  0
LINE
  5
B48
  8
3
 10
134.5623849557272
 20
203.7887974560409
 30
0.0
 11
144.56238495572711
 21
203.7887974560409
 31
0.0
  0
LINE
  5
B49
  8
3
 10
134.5623849557272
 20
202.21233643316009
 30
0.0
 11
144.56238495572711
 21
202.21233643316009
 31
0.0
  0
LINE
  5
B4A
  8
3
 10
134.5623849557272
 20
200.52886650928801
 30
0.0
 11
144.56238495572711
 21
200.52886650928801
 31
0.0
  0
LINE
  5
B4B
  8
3
 10
134.5623849557272
 20
198.75460042006981
 30
0.0
 11
144.56238495572711
 21
198.75460042006969
 31
0.0
  0
LINE
  5
B4C
  8
3
 10
134.5623849557272
 20
196.90662531785719
 30
0.0
 11
144.56238495572711
 21
196.90662531785719
 31
0.0
  0
LINE
  5
B4D
  8
3
 10
134.5623849557272
 20
195.00273821309059
 30
0.0
 11
144.56238495572711
 21
195.00273821309059
 31
0.0
  0
ARC
  5
B4E
  8
0
 10
146.56238495572711
 20
201.10093177276821
 30
0.0
 40
1.0
 50
180.0
 51
270.0
  0
LINE
  5
B4F
  8
2
 10
157.5623849557272
 20
195.10093177276801
 30
0.0
 11
158.5623849557272
 21
196.10093177276789
 31
0.0
  0
ARC
  5
B50
  8
0
 10
157.5623849557272
 20
199.10093177276821
 30
0.0
 40
1.0
 50
0.0
 51
90.0
  0
TEXT
  5
C3B
  8
0
 62
     3
 10
0.0
 20
0.0
 30
0.0
 40
10.0
  1
AHRS40R
  7
STANDARD1
  0
ENDSEC
  0
EOF
