  0
SECTION
  2
HEADER
  9
$ACADVER
  1
AC1009
  9
$INSBASE
 10
0.0
 20
0.0
 30
0.0
  9
$EXTMIN
 10
-0.0204638472032742
 20
-2.960436562073669
 30
0.0
  9
$EXTMAX
 10
315.78009492365049
 20
310.35999995427738
 30
0.0
  9
$LIMMIN
 10
0.0
 20
0.0
  9
$LIMMAX
 10
375.0
 20
270.0
  9
$ORTHOMODE
 70
     0
  9
$REGENMODE
 70
     1
  9
$FILLMODE
 70
     1
  9
$QTEXTMODE
 70
     0
  9
$MIRRTEXT
 70
     0
  9
$DRAGMODE
 70
     2
  9
$LTSCALE
 40
10.0
  9
$OSMODE
 70
  3071
  9
$ATTMODE
 70
     1
  9
$TEXTSIZE
 40
2.0
  9
$TRACEWID
 40
0.05
  9
$TEXTSTYLE
  7
STANDARD
  9
$CLAYER
  8
0
  9
$CELTYPE
  6
BYLAYER
  9
$CECOLOR
 62
   256
  9
$DIMSCALE
 40
1.0
  9
$DIMASZ
 40
2.5
  9
$DIMEXO
 40
2.0
  9
$DIMDLI
 40
0.38
  9
$DIMRND
 40
0.0
  9
$DIMDLE
 40
0.0
  9
$DIMEXE
 40
2.0
  9
$DIMTP
 40
0.0
  9
$DIMTM
 40
0.0
  9
$DIMTXT
 40
3.0
  9
$DIMCEN
 40
0.09
  9
$DIMTSZ
 40
0.0
  9
$DIMTOL
 70
     0
  9
$DIMLIM
 70
     0
  9
$DIMTIH
 70
     0
  9
$DIMTOH
 70
     0
  9
$DIMSE1
 70
     0
  9
$DIMSE2
 70
     0
  9
$DIMTAD
 70
     1
  9
$DIMZIN
 70
     0
  9
$DIMBLK
  1

  9
$DIMASO
 70
     1
  9
$DIMSHO
 70
     0
  9
$DIMPOST
  1

  9
$DIMAPOST
  1

  9
$DIMALT
 70
     0
  9
$DIMALTD
 70
     2
  9
$DIMALTF
 40
25.399999999999999
  9
$DIMLFAC
 40
1.0
  9
$DIMTOFL
 70
     0
  9
$DIMTVP
 40
1.6000000000000001
  9
$DIMTIX
 70
     1
  9
$DIMSOXD
 70
     0
  9
$DIMSAH
 70
     0
  9
$DIMBLK1
  1

  9
$DIMBLK2
  1

  9
$DIMSTYLE
  2
STANDARD
  9
$DIMCLRD
 70
     0
  9
$DIMCLRE
 70
     0
  9
$DIMCLRT
 70
     0
  9
$DIMTFAC
 40
1.0
  9
$DIMGAP
 40
0.09
  9
$LUNITS
 70
     2
  9
$LUPREC
 70
     4
  9
$SKETCHINC
 40
0.1
  9
$FILLETRAD
 40
2.5
  9
$AUNITS
 70
     0
  9
$AUPREC
 70
     0
  9
$MENU
  1
E:\r13\win\SUPPORT\ACAD
  9
$ELEVATION
 40
0.0
  9
$PELEVATION
 40
0.0
  9
$THICKNESS
 40
0.0
  9
$LIMCHECK
 70
     0
  9
$BLIPMODE
 70
     0
  9
$CHAMFERA
 40
0.0
  9
$CHAMFERB
 40
0.0
  9
$SKPOLY
 70
     0
  9
$TDCREATE
 40
2448650.5678784722
  9
$TDUPDATE
 40
2456597.5486848149
  9
$TDINDWG
 40
0.0208523495
  9
$TDUSRTIMER
 40
0.0208523495
  9
$USRTIMER
 70
     1
  9
$ANGBASE
 50
0.0
  9
$ANGDIR
 70
     0
  9
$PDMODE
 70
     0
  9
$PDSIZE
 40
0.0
  9
$PLINEWID
 40
0.0
  9
$COORDS
 70
     1
  9
$SPLFRAME
 70
     0
  9
$SPLINETYPE
 70
     6
  9
$SPLINESEGS
 70
     8
  9
$ATTDIA
 70
     0
  9
$ATTREQ
 70
     1
  9
$HANDLING
 70
     1
  9
$HANDSEED
  5
109E
  9
$SURFTAB1
 70
     6
  9
$SURFTAB2
 70
     6
  9
$SURFTYPE
 70
     6
  9
$SURFU
 70
     6
  9
$SURFV
 70
     6
  9
$UCSNAME
  2

  9
$UCSORG
 10
0.0
 20
0.0
 30
0.0
  9
$UCSXDIR
 10
1.0
 20
0.0
 30
0.0
  9
$UCSYDIR
 10
0.0
 20
1.0
 30
0.0
  9
$PUCSNAME
  2

  9
$PUCSORG
 10
0.0
 20
0.0
 30
0.0
  9
$PUCSXDIR
 10
1.0
 20
0.0
 30
0.0
  9
$PUCSYDIR
 10
0.0
 20
1.0
 30
0.0
  9
$USERI1
 70
     0
  9
$USERI2
 70
     1
  9
$USERI3
 70
     1
  9
$USERI4
 70
     0
  9
$USERI5
 70
     0
  9
$USERR1
 40
0.0
  9
$USERR2
 40
0.0
  9
$USERR3
 40
0.0
  9
$USERR4
 40
0.0
  9
$USERR5
 40
0.0
  9
$WORLDVIEW
 70
     1
  9
$SHADEDGE
 70
     3
  9
$SHADEDIF
 70
    70
  9
$TILEMODE
 70
     1
  9
$MAXACTVP
 70
    16
  9
$PLIMCHECK
 70
     0
  9
$PEXTMIN
 10
1.0000000000000000E+020
 20
1.0000000000000000E+020
 30
1.0000000000000000E+020
  9
$PEXTMAX
 10
-1.0000000000000000E+020
 20
-1.0000000000000000E+020
 30
-1.0000000000000000E+020
  9
$PLIMMIN
 10
0.0
 20
0.0
  9
$PLIMMAX
 10
12.0
 20
9.0
  9
$UNITMODE
 70
     0
  9
$VISRETAIN
 70
     0
  9
$PLINEGEN
 70
     1
  9
$PSLTSCALE
 70
     0
  0
ENDSEC
  0
SECTION
  2
TABLES
  0
TABLE
  2
VPORT
 70
     1
  0
VPORT
  2
*ACTIVE
 70
     0
 10
0.0
 20
0.0
 11
1.0
 21
1.0
 12
196.16225213019629
 22
153.70008889404801
 13
0.0
 23
0.0
 14
10.0
 24
10.0
 15
10.0
 25
10.0
 16
0.0
 26
0.0
 36
1.0
 17
0.0
 27
0.0
 37
0.0
 40
316.14897958869818
 41
1.831871345029239
 42
50.0
 43
0.0
 44
0.0
 50
0.0
 51
0.0
 71
     0
 72
   500
 73
     1
 74
     0
 75
     0
 76
     0
 77
     0
 78
     2
  0
ENDTAB
  0
TABLE
  2
LTYPE
 70
     4
  0
LTYPE
  2
CONTINUOUS
 70
     0
  3
Solid Line
 72
    65
 73
     0
 40
0.0
  0
LTYPE
  2
CENTER
 70
     0
  3
____ _ ____ _ ____ _ ____ _ ____ _ ____ _ ____
 72
    65
 73
     4
 40
2.0
 49
1.25
 49
-0.25
 49
0.25
 49
-0.25
  0
LTYPE
  2
HIDDEN
 70
     0
  3
_ _ _ _ _ _ _ _ _ _ _ _ _ _ _ _ _ _ _ _ _ _ _
 72
    65
 73
     2
 40
0.375
 49
0.25
 49
-0.125
  0
LTYPE
  2
PHANTOM2
 70
     0
  3
___ _ _ ___ _ _ ___ _ _ ___ _ _
 72
    65
 73
     6
 40
1.25
 49
0.625
 49
-0.125
 49
0.125
 49
-0.125
 49
0.125
 49
-0.125
  0
ENDTAB
  0
TABLE
  2
LAYER
 70
     4
  0
LAYER
  2
0
 70
     0
 62
     7
  6
CONTINUOUS
  0
LAYER
  2
1
 70
     0
 62
     1
  6
CENTER
  0
LAYER
  2
3
 70
     0
 62
     3
  6
CONTINUOUS
  0
LAYER
  2
2
 70
     0
 62
     2
  6
HIDDEN
  0
ENDTAB
  0
TABLE
  2
STYLE
 70
     2
  0
STYLE
  2
STANDARD
 70
     0
 40
0.0
 41
1.0
 50
0.0
 71
     0
 42
2.0
  3
TXT
  4
BIGFONT
  0
STYLE
  2
STANDARD1
 70
     0
 40
0.0
 41
1.0
 50
0.0
 71
     0
 42
3.0
  3
txt
  4

  0
ENDTAB
  0
TABLE
  2
VIEW
 70
     1
  0
VIEW
  2
ALL
 70
     0
 40
270.0
 10
220.99159663865549
 20
135.0
 41
0.0
 11
0.0
 21
0.0
 31
1.0
 12
0.0
 22
0.0
 32
0.0
 42
0.0
 43
0.0
 44
0.0
 50
0.0
 71
     0
  0
ENDTAB
  0
TABLE
  2
UCS
 70
     0
  0
ENDTAB
  0
TABLE
  2
APPID
 70
     3
  0
APPID
  2
ACAD
 70
     0
  0
APPID
  2
ACAD_MLEADERVER
 70
     0
  0
APPID
  2
ACAD_NAV_VCDISPLAY
 70
     0
  0
ENDTAB
  0
TABLE
  2
DIMSTYLE
 70
     1
  0
DIMSTYLE
  2
STANDARD
 70
     0
  3

  4

  5

  6

  7

 40
1.0
 41
0.18
 42
0.0625
 43
0.38
 44
0.18
 45
0.0
 46
0.0
 47
0.0
 48
0.0
140
0.18
141
0.09
142
0.0
143
25.399999999999999
144
1.0
145
0.0
146
1.0
147
0.09
 71
     0
 72
     0
 73
     1
 74
     1
 75
     0
 76
     0
 77
     0
 78
     0
170
     0
171
     2
172
     0
173
     0
174
     0
175
     0
176
     0
177
     0
178
     0
  0
ENDTAB
  0
ENDSEC
  0
SECTION
  2
BLOCKS
  0
BLOCK
  8
0
  2
$MODEL_SPACE
 70
     0
 10
0.0
 20
0.0
 30
0.0
  3
$MODEL_SPACE
  1

  0
ENDBLK
  5
217
  8
0
  0
BLOCK
 67
     1
  8
0
  2
$PAPER_SPACE
 70
     0
 10
0.0
 20
0.0
 30
0.0
  3
$PAPER_SPACE
  1

  0
ENDBLK
  5
215
 67
     1
  8
0
  0
BLOCK
  8
0
  2
*X0
 70
     1
 10
0.0
 20
0.0
 30
0.0
  3
*X0
  1

  0
LINE
  5
CA9
  8
0
 62
     0
 10
239.0
 20
140.0
 30
0.0
 11
251.0
 21
140.0
 31
0.0
  0
LINE
  5
CAA
  8
0
 62
     0
 10
239.0
 20
141.0
 30
0.0
 11
251.0
 21
141.0
 31
0.0
  0
LINE
  5
CAB
  8
0
 62
     0
 10
239.0
 20
142.0
 30
0.0
 11
251.0
 21
142.0
 31
0.0
  0
LINE
  5
CAC
  8
0
 62
     0
 10
239.0
 20
143.0
 30
0.0
 11
251.0
 21
143.0
 31
0.0
  0
LINE
  5
CAD
  8
0
 62
     0
 10
239.0
 20
144.0
 30
0.0
 11
251.0
 21
144.0
 31
0.0
  0
LINE
  5
CAE
  8
0
 62
     0
 10
239.0
 20
145.0
 30
0.0
 11
251.0
 21
145.0
 31
0.0
  0
LINE
  5
CAF
  8
0
 62
     0
 10
239.0
 20
146.0
 30
0.0
 11
251.0
 21
146.0
 31
0.0
  0
LINE
  5
CB0
  8
0
 62
     0
 10
239.0
 20
147.0
 30
0.0
 11
251.0
 21
147.0
 31
0.0
  0
LINE
  5
CB1
  8
0
 62
     0
 10
239.0
 20
148.0
 30
0.0
 11
251.0
 21
148.0
 31
0.0
  0
LINE
  5
CB2
  8
0
 62
     0
 10
239.0
 20
149.0
 30
0.0
 11
251.0
 21
149.0
 31
0.0
  0
LINE
  5
CB3
  8
0
 62
     0
 10
239.0
 20
150.0
 30
0.0
 11
251.0
 21
150.0
 31
0.0
  0
LINE
  5
CB4
  8
0
 62
     0
 10
239.0
 20
151.0
 30
0.0
 11
251.0
 21
151.0
 31
0.0
  0
LINE
  5
CB5
  8
0
 62
     0
 10
239.0
 20
152.0
 30
0.0
 11
251.0
 21
152.0
 31
0.0
  0
LINE
  5
CB6
  8
0
 62
     0
 10
239.0
 20
153.0
 30
0.0
 11
251.0
 21
153.0
 31
0.0
  0
LINE
  5
CB7
  8
0
 62
     0
 10
239.0
 20
154.0
 30
0.0
 11
251.0
 21
154.0
 31
0.0
  0
LINE
  5
CB8
  8
0
 62
     0
 10
239.0
 20
155.0
 30
0.0
 11
251.0
 21
155.0
 31
0.0
  0
LINE
  5
CB9
  8
0
 62
     0
 10
239.0
 20
156.0
 30
0.0
 11
251.0
 21
156.0
 31
0.0
  0
LINE
  5
CBA
  8
0
 62
     0
 10
239.0
 20
157.0
 30
0.0
 11
251.0
 21
157.0
 31
0.0
  0
LINE
  5
CBB
  8
0
 62
     0
 10
239.0
 20
158.0
 30
0.0
 11
251.0
 21
158.0
 31
0.0
  0
LINE
  5
CBC
  8
0
 62
     0
 10
239.0
 20
159.0
 30
0.0
 11
251.0
 21
159.0
 31
0.0
  0
LINE
  5
CBD
  8
0
 62
     0
 10
239.0
 20
160.0
 30
0.0
 11
251.0
 21
160.0
 31
0.0
  0
LINE
  5
CBE
  8
0
 62
     0
 10
239.0
 20
161.0
 30
0.0
 11
251.0
 21
161.0
 31
0.0
  0
LINE
  5
CBF
  8
0
 62
     0
 10
239.0
 20
162.0
 30
0.0
 11
251.0
 21
162.0
 31
0.0
  0
LINE
  5
CC0
  8
0
 62
     0
 10
239.0
 20
163.0
 30
0.0
 11
251.0
 21
163.0
 31
0.0
  0
LINE
  5
CC1
  8
0
 62
     0
 10
239.0
 20
164.0
 30
0.0
 11
251.0
 21
164.0
 31
0.0
  0
LINE
  5
CC2
  8
0
 62
     0
 10
239.0
 20
165.0
 30
0.0
 11
251.0
 21
165.0
 31
0.0
  0
LINE
  5
CC3
  8
0
 62
     0
 10
239.0
 20
166.0
 30
0.0
 11
251.0
 21
166.0
 31
0.0
  0
LINE
  5
CC4
  8
0
 62
     0
 10
239.0
 20
167.0
 30
0.0
 11
251.0
 21
167.0
 31
0.0
  0
LINE
  5
CC5
  8
0
 62
     0
 10
239.0
 20
168.0
 30
0.0
 11
251.0
 21
168.0
 31
0.0
  0
LINE
  5
CC6
  8
0
 62
     0
 10
239.0
 20
169.0
 30
0.0
 11
251.0
 21
169.0
 31
0.0
  0
LINE
  5
CC7
  8
0
 62
     0
 10
239.0
 20
170.0
 30
0.0
 11
251.0
 21
170.0
 31
0.0
  0
LINE
  5
CC8
  8
0
 62
     0
 10
239.0
 20
171.0
 30
0.0
 11
251.0
 21
171.0
 31
0.0
  0
LINE
  5
CC9
  8
0
 62
     0
 10
239.0
 20
139.0
 30
0.0
 11
251.0
 21
139.0
 31
0.0
  0
LINE
  5
CCA
  8
0
 62
     0
 10
239.0
 20
138.0
 30
0.0
 11
251.0
 21
138.0
 31
0.0
  0
LINE
  5
CCB
  8
0
 62
     0
 10
239.0
 20
137.0
 30
0.0
 11
251.0
 21
137.0
 31
0.0
  0
LINE
  5
CCC
  8
0
 62
     0
 10
239.0
 20
136.0
 30
0.0
 11
251.0
 21
136.0
 31
0.0
  0
LINE
  5
CCD
  8
0
 62
     0
 10
239.0
 20
135.0
 30
0.0
 11
251.0
 21
135.0
 31
0.0
  0
LINE
  5
CCE
  8
0
 62
     0
 10
239.0
 20
134.0
 30
0.0
 11
251.0
 21
134.0
 31
0.0
  0
LINE
  5
CCF
  8
0
 62
     0
 10
239.0
 20
133.0
 30
0.0
 11
251.0
 21
133.0
 31
0.0
  0
LINE
  5
CD0
  8
0
 62
     0
 10
239.0
 20
132.0
 30
0.0
 11
251.0
 21
132.0
 31
0.0
  0
LINE
  5
CD1
  8
0
 62
     0
 10
239.0
 20
131.0
 30
0.0
 11
251.0
 21
131.0
 31
0.0
  0
LINE
  5
CD2
  8
0
 62
     0
 10
239.0
 20
130.0
 30
0.0
 11
251.0
 21
130.0
 31
0.0
  0
LINE
  5
CD3
  8
0
 62
     0
 10
239.0
 20
129.0
 30
0.0
 11
251.0
 21
129.0
 31
0.0
  0
LINE
  5
CD4
  8
0
 62
     0
 10
239.0
 20
128.0
 30
0.0
 11
251.0
 21
128.0
 31
0.0
  0
LINE
  5
CD5
  8
0
 62
     0
 10
239.0
 20
127.0
 30
0.0
 11
251.0
 21
127.0
 31
0.0
  0
LINE
  5
CD6
  8
0
 62
     0
 10
239.0
 20
126.0
 30
0.0
 11
251.0
 21
126.0
 31
0.0
  0
LINE
  5
CD7
  8
0
 62
     0
 10
239.0
 20
125.0
 30
0.0
 11
251.0
 21
125.0
 31
0.0
  0
LINE
  5
CD8
  8
0
 62
     0
 10
239.0
 20
124.0
 30
0.0
 11
251.0
 21
124.0
 31
0.0
  0
LINE
  5
CD9
  8
0
 62
     0
 10
239.0
 20
123.0
 30
0.0
 11
251.0
 21
123.0
 31
0.0
  0
LINE
  5
CDA
  8
0
 62
     0
 10
239.0
 20
122.0
 30
0.0
 11
251.0
 21
122.0
 31
0.0
  0
LINE
  5
CDB
  8
0
 62
     0
 10
239.0
 20
121.0
 30
0.0
 11
251.0
 21
121.0
 31
0.0
  0
LINE
  5
CDC
  8
0
 62
     0
 10
239.0
 20
120.0
 30
0.0
 11
251.0
 21
120.0
 31
0.0
  0
LINE
  5
CDD
  8
0
 62
     0
 10
239.0
 20
119.0
 30
0.0
 11
251.0
 21
119.0
 31
0.0
  0
LINE
  5
CDE
  8
0
 62
     0
 10
239.0
 20
118.0
 30
0.0
 11
251.0
 21
118.0
 31
0.0
  0
LINE
  5
CDF
  8
0
 62
     0
 10
239.0
 20
117.0
 30
0.0
 11
251.0
 21
117.0
 31
0.0
  0
LINE
  5
CE0
  8
0
 62
     0
 10
239.0
 20
116.0
 30
0.0
 11
251.0
 21
116.0
 31
0.0
  0
LINE
  5
CE1
  8
0
 62
     0
 10
239.0
 20
115.0
 30
0.0
 11
251.0
 21
115.0
 31
0.0
  0
LINE
  5
CE2
  8
0
 62
     0
 10
239.0
 20
114.0
 30
0.0
 11
251.0
 21
114.0
 31
0.0
  0
LINE
  5
CE3
  8
0
 62
     0
 10
239.0
 20
113.0
 30
0.0
 11
251.0
 21
113.0
 31
0.0
  0
LINE
  5
CE4
  8
0
 62
     0
 10
239.0
 20
112.0
 30
0.0
 11
251.0
 21
112.0
 31
0.0
  0
LINE
  5
CE5
  8
0
 62
     0
 10
239.0
 20
111.0
 30
0.0
 11
251.0
 21
111.0
 31
0.0
  0
LINE
  5
CE6
  8
0
 62
     0
 10
239.0
 20
110.0
 30
0.0
 11
251.0
 21
110.0
 31
0.0
  0
LINE
  5
CE7
  8
0
 62
     0
 10
239.0
 20
109.0
 30
0.0
 11
251.0
 21
109.0
 31
0.0
  0
ENDBLK
  5
CE8
  8
0
  0
ENDSEC
  0
SECTION
  2
ENTITIES
  0
CIRCLE
  5
E93
  8
0
 10
279.28009492365049
 20
178.85999995427741
 30
0.0
 40
13.5
  0
LINE
  5
E94
  8
1
 10
279.28009492365049
 20
142.35999995427741
 30
0.0
 11
279.28009492365049
 21
215.3599999542775
 31
0.0
  0
CIRCLE
  5
E95
  8
0
 10
279.28009492365049
 20
178.85999995427741
 30
0.0
 40
31.5
  0
LINE
  5
E96
  8
0
 10
197.78009492365121
 20
190.35999995427741
 30
0.0
 11
197.78009492365121
 21
167.35999995427741
 31
0.0
  0
LINE
  5
E97
  8
1
 10
70.280094923651845
 20
142.35999995427741
 30
0.0
 11
70.280094923651845
 21
215.3599999542775
 31
0.0
  0
INSERT
  5
E98
  8
3
  2
*X0
 10
-72.219905076348823
 20
38.859999954277441
 30
0.0
  0
LINE
  5
E99
  8
0
 10
165.78009492365121
 20
209.35999995427741
 30
0.0
 11
165.78009492365121
 21
148.35999995427741
 31
0.0
  0
LINE
  5
E9A
  8
0
 10
179.78009492365121
 20
209.35999995427741
 30
0.0
 11
179.78009492365121
 21
148.35999995427741
 31
0.0
  0
LINE
  5
E9B
  8
0
 10
178.78009492365121
 20
210.35999995427741
 30
0.0
 11
178.78009492365121
 21
147.35999995427741
 31
0.0
  0
LINE
  5
E9C
  8
0
 10
166.78009492365121
 20
210.35999995427741
 30
0.0
 11
166.78009492365121
 21
147.35999995427741
 31
0.0
  0
CIRCLE
  5
E9D
  8
0
 10
70.280094923651845
 20
178.85999995427741
 30
0.0
 40
31.5
  0
LINE
  5
E9E
  8
1
 10
242.78009492365049
 20
178.85999995427741
 30
0.0
 11
315.78009492365049
 21
178.85999995427741
 31
0.0
  0
CIRCLE
  5
E9F
  8
0
 10
70.280094923651845
 20
155.85999995427761
 30
0.0
 40
6.75
  0
LINE
  5
EA0
  8
0
  6
CENTER
 62
     1
 10
82.030094923651859
 20
155.85999995427761
 30
0.0
 11
58.530094923651859
 21
155.85999995427761
 31
0.0
  0
LINE
  5
EA1
  8
1
 10
106.7800949236518
 20
178.85999995427741
 30
0.0
 11
33.780094923651859
 21
178.85999995427741
 31
0.0
  0
ARC
  5
EA2
  8
0
 10
178.78009492365121
 20
109.3599999542774
 30
0.0
 40
1.0
 50
0.0
 51
90.0
  0
ARC
  5
EA3
  8
0
 10
166.78009492365121
 20
109.3599999542774
 30
0.0
 40
1.0
 50
90.0
 51
180.0
  0
INSERT
  5
EA4
  8
3
  2
*X0
 10
-72.219905076348823
 20
218.85999995427741
 30
0.0
 41
-1.0
 50
180.0
  0
LINE
  5
EA5
  8
0
 10
178.78009492365121
 20
47.359999954277441
 30
0.0
 11
178.78009492365121
 21
110.3599999542774
 31
0.0
  0
LINE
  5
EA6
  8
0
 10
166.78009492365121
 20
47.359999954277441
 30
0.0
 11
166.78009492365121
 21
110.3599999542774
 31
0.0
  0
LINE
  5
EA7
  8
2
 10
175.78009492365121
 20
84.859999954277313
 30
0.0
 11
196.78009492365121
 21
84.859999954277214
 31
0.0
  0
LINE
  5
EA8
  8
2
 10
175.78009492365121
 20
72.859999954277441
 30
0.0
 11
196.78009492365121
 21
72.859999954277555
 31
0.0
  0
LINE
  5
EA9
  8
0
 10
182.78009492365109
 20
92.359999954277455
 30
0.0
 11
195.78009492365121
 21
92.359999954277455
 31
0.0
  0
LINE
  5
EAA
  8
0
 10
182.78009492365109
 20
65.359999954277441
 30
0.0
 11
195.78009492365121
 21
65.359999954277441
 31
0.0
  0
LINE
  5
EAB
  8
1
 10
143.28009494335069
 20
78.859999954277441
 30
0.0
 11
202.78009492365049
 21
78.859999954277441
 31
0.0
  0
LINE
  5
EAC
  8
0
 10
165.78009492365121
 20
48.359999954277441
 30
0.0
 11
165.78009492365121
 21
109.3599999542774
 31
0.0
  0
LINE
  5
EAD
  8
0
 10
179.78009492365121
 20
48.359999954277441
 30
0.0
 11
179.78009492365121
 21
109.3599999542774
 31
0.0
  0
LINE
  5
EAE
  8
0
 10
166.78009492365121
 20
47.359999954277441
 30
0.0
 11
178.78009492365121
 21
47.359999954277441
 31
0.0
  0
ARC
  5
EAF
  8
0
 10
166.78009492365121
 20
48.359999954277441
 30
0.0
 40
1.0
 50
180.0
 51
270.0
  0
ARC
  5
EB0
  8
0
 10
178.78009492365121
 20
48.359999954277441
 30
0.0
 40
1.0
 50
270.0
 51
0.0
  0
ARC
  5
EB1
  8
0
 10
182.78009492365109
 20
62.359999954277441
 30
0.0
 40
3.0
 50
90.0
 51
180.0
  0
LINE
  5
EB2
  8
0
  6
CONTINUOUS
 62
     7
 10
147.89096039672171
 20
72.109999954277441
 30
0.0
 11
162.88009492635109
 21
72.109999954277441
 31
0.0
  0
LINE
  5
EB3
  8
0
  6
CONTINUOUS
 62
     7
 10
147.89096039672171
 20
85.609999954277441
 30
0.0
 11
162.88009492635109
 21
85.609999954277441
 31
0.0
  0
ARC
  5
EB4
  8
0
  6
CONTINUOUS
 62
     7
 10
170.14584706752601
 20
78.860013330398147
 30
0.0
 40
24.365752124178591
 50
180.0000314537931
 51
193.273003642742
  0
LINE
  5
EB5
  8
0
  6
CONTINUOUS
 62
     7
 10
147.91788450349731
 20
72.109999954277441
 30
0.0
 11
147.91788450349731
 21
85.609999954277328
 31
0.0
  0
ARC
  5
EB6
  8
0
  6
CONTINUOUS
 62
     7
 10
147.89096039672171
 20
73.609999954277441
 30
0.0
 40
1.5
 50
193.2636435220457
 51
270.0
  0
ARC
  5
EB7
  8
0
  6
CONTINUOUS
 62
     7
 10
170.145847067527
 20
78.859986578156622
 30
0.0
 40
24.365752124179561
 50
166.72699635726431
 51
179.9999685462069
  0
ARC
  5
EB8
  8
0
  6
CONTINUOUS
 62
     7
 10
147.89096039672171
 20
84.109999954277441
 30
0.0
 40
1.5
 50
90.0
 51
166.7363564779543
  0
LINE
  5
EB9
  8
2
 10
172.78009492365121
 20
84.759999954277305
 30
0.0
 11
175.78009492365121
 21
84.759999954277305
 31
0.0
  0
LINE
  5
EBA
  8
2
 10
172.78009492365121
 20
72.959999954277464
 30
0.0
 11
175.78009492365121
 21
72.959999954277464
 31
0.0
  0
LINE
  5
EBB
  8
2
 10
172.78009492365121
 20
72.959999954277464
 30
0.0
 11
172.78009492365121
 21
84.759999954277305
 31
0.0
  0
LINE
  5
EBC
  8
2
 10
172.78009492365121
 20
84.759999954277305
 30
0.0
 11
169.3737283354323
 21
78.859999954277328
 31
0.0
  0
LINE
  5
EBD
  8
2
 10
172.78009492365121
 20
72.959999954277464
 30
0.0
 11
169.3737283354323
 21
78.859999954277441
 31
0.0
  0
LINE
  5
EBE
  8
0
  6
CONTINUOUS
 62
     7
 10
165.5800949236511
 20
73.364848997723243
 30
0.0
 11
162.88009492635109
 21
72.109999954277441
 31
0.0
  0
LINE
  5
EBF
  8
0
  6
CONTINUOUS
 62
     7
 10
165.5800949236511
 20
84.355150910831412
 30
0.0
 11
162.88009492635109
 21
85.609999954277441
 31
0.0
  0
LINE
  5
EC0
  8
0
  6
CONTINUOUS
 62
     7
 10
162.88009492635109
 20
85.609999954277441
 30
0.0
 11
162.88009492635109
 21
72.109999954277441
 31
0.0
  0
LINE
  5
EC1
  8
0
  6
CONTINUOUS
 62
     7
 10
165.78009492365121
 20
78.859999954277441
 30
0.0
 11
165.78009492365121
 21
74.859999954277441
 31
0.0
  0
LINE
  5
EC2
  8
0
  6
CONTINUOUS
 62
     7
 10
165.5800949236511
 20
84.355150910831412
 30
0.0
 11
165.5800949236511
 21
73.364848997723243
 31
0.0
  0
LINE
  5
EC3
  8
0
  6
CONTINUOUS
 62
     7
 10
165.78009492365121
 20
74.859999954277441
 30
0.0
 11
165.5800949236511
 21
74.859999954277441
 31
0.0
  0
LINE
  5
EC4
  8
0
  6
CONTINUOUS
 62
     7
 10
165.78009492365121
 20
78.859999954277441
 30
0.0
 11
165.78009492365121
 21
82.859999954277441
 31
0.0
  0
LINE
  5
EC5
  8
0
  6
CONTINUOUS
 62
     7
 10
165.78009492365121
 20
82.859999954277441
 30
0.0
 11
165.5800949236511
 21
82.859999954277441
 31
0.0
  0
LINE
  5
EC6
  8
2
 10
175.78009492365109
 20
84.859999954277313
 30
0.0
 11
175.78009492365121
 21
72.859999954277441
 31
0.0
  0
ARC
  5
EC7
  8
0
 10
182.78009492365109
 20
95.359999954277441
 30
0.0
 40
3.0
 50
180.0
 51
270.0
  0
LINE
  5
EC8
  8
0
 10
197.78009492365121
 20
67.359999954277441
 30
0.0
 11
197.78009492365121
 21
90.359999954277441
 31
0.0
  0
ARC
  5
EC9
  8
0
 10
195.78009492365121
 20
67.359999954277441
 30
0.0
 40
2.0
 50
270.0
 51
0.0
  0
ARC
  5
ECA
  8
0
 10
195.78009492365121
 20
90.359999954277441
 30
0.0
 40
2.0
 50
0.0
 51
90.0
  0
LINE
  5
ECB
  8
2
 10
196.78009492365101
 20
84.859999954277214
 30
0.0
 11
196.78009492365121
 21
72.859999954277441
 31
0.0
  0
LINE
  5
ECC
  8
2
 10
196.78009492365121
 20
72.859999954277555
 30
0.0
 11
197.78009492365121
 21
71.859999954277669
 31
0.0
  0
LINE
  5
ECD
  8
2
 10
196.78009492365121
 20
84.859999954277214
 30
0.0
 11
197.78009492365121
 21
85.859999954277114
 31
0.0
  0
LINE
  5
ECE
  8
2
 10
175.78009492365121
 20
184.8599999542773
 30
0.0
 11
196.78009492365121
 21
184.85999995427721
 31
0.0
  0
LINE
  5
ECF
  8
2
 10
175.78009492365121
 20
172.85999995427741
 30
0.0
 11
196.78009492365121
 21
172.8599999542775
 31
0.0
  0
LINE
  5
ED0
  8
0
 10
182.78009492365109
 20
165.35999995427741
 30
0.0
 11
195.78009492365121
 21
165.35999995427741
 31
0.0
  0
LINE
  5
ED1
  8
1
 10
160.78009492365069
 20
178.85999995427741
 30
0.0
 11
202.78009492365049
 21
178.85999995427741
 31
0.0
  0
ARC
  5
ED2
  8
0
 10
178.78009492365121
 20
148.35999995427741
 30
0.0
 40
1.0
 50
270.0
 51
0.0
  0
ARC
  5
ED3
  8
0
 10
166.78009492365121
 20
148.35999995427741
 30
0.0
 40
1.0
 50
180.0
 51
270.0
  0
LINE
  5
ED4
  8
0
 10
166.78009492365121
 20
110.3599999542774
 30
0.0
 11
178.78009492365121
 21
110.3599999542774
 31
0.0
  0
LINE
  5
ED5
  8
0
 10
166.78009492365121
 20
147.35999995427741
 30
0.0
 11
178.78009492365121
 21
147.35999995427741
 31
0.0
  0
LINE
  5
ED6
  8
0
  6
CONTINUOUS
 62
     7
 10
147.89096039672171
 20
149.10999995427761
 30
0.0
 11
162.88009492635109
 21
149.10999995427761
 31
0.0
  0
LINE
  5
ED7
  8
0
  6
CENTER
 62
     1
 10
182.28009492365121
 20
155.85999995427761
 30
0.0
 11
143.28009494335069
 21
155.85999995427761
 31
0.0
  0
LINE
  5
ED8
  8
0
  6
CONTINUOUS
 62
     7
 10
147.89096039672171
 20
162.60999995427761
 30
0.0
 11
162.88009492635109
 21
162.60999995427761
 31
0.0
  0
ARC
  5
ED9
  8
0
  6
CONTINUOUS
 62
     7
 10
170.145847067527
 20
155.86001333039849
 30
0.0
 40
24.365752124179561
 50
180.0000314537931
 51
193.27300364273569
  0
LINE
  5
EDA
  8
0
  6
CONTINUOUS
 62
     7
 10
147.91788450349731
 20
162.60999995427761
 30
0.0
 11
147.91788450349731
 21
149.10999995427781
 31
0.0
  0
ARC
  5
EDB
  8
0
  6
CONTINUOUS
 62
     7
 10
147.89096039672171
 20
150.60999995427761
 30
0.0
 40
1.5
 50
193.2636435220457
 51
270.0
  0
ARC
  5
EDC
  8
0
  6
CONTINUOUS
 62
     7
 10
147.89096039672171
 20
161.1099999542777
 30
0.0
 40
1.5
 50
89.999999999996746
 51
166.7363564779543
  0
ARC
  5
EDD
  8
0
  6
CONTINUOUS
 62
     7
 10
170.14584706752601
 20
155.85998657815691
 30
0.0
 40
24.365752124178591
 50
166.726996357258
 51
179.9999685462069
  0
LINE
  5
EDE
  8
0
  6
CONTINUOUS
 62
     7
 10
162.88009492635109
 20
149.10999995427761
 30
0.0
 11
162.88009492635109
 21
162.60999995427761
 31
0.0
  0
LINE
  5
EDF
  8
0
  6
CONTINUOUS
 62
     7
 10
165.5800949236511
 20
150.3648489977237
 30
0.0
 11
165.5800949236511
 21
161.3551509108319
 31
0.0
  0
LINE
  5
EE0
  8
0
  6
CONTINUOUS
 62
     7
 10
165.5800949236511
 20
150.3648489977237
 30
0.0
 11
162.88009492635109
 21
149.10999995427761
 31
0.0
  0
LINE
  5
EE1
  8
0
  6
CONTINUOUS
 62
     7
 10
165.5800949236511
 20
161.3551509108319
 30
0.0
 11
162.88009492635109
 21
162.60999995427761
 31
0.0
  0
LINE
  5
EE2
  8
0
  6
CONTINUOUS
 62
     7
 10
165.78009492365121
 20
159.85999995427761
 30
0.0
 11
165.5800949236511
 21
159.85999995427761
 31
0.0
  0
LINE
  5
EE3
  8
0
  6
CONTINUOUS
 62
     7
 10
165.78009492365121
 20
151.8599999542777
 30
0.0
 11
165.5800949236511
 21
151.8599999542777
 31
0.0
  0
LINE
  5
EE4
  8
0
  6
CONTINUOUS
 62
     7
 10
165.78009492365121
 20
155.85999995427761
 30
0.0
 11
165.78009492365121
 21
151.8599999542777
 31
0.0
  0
LINE
  5
EE5
  8
0
  6
CONTINUOUS
 62
     7
 10
165.78009492365121
 20
155.85999995427761
 30
0.0
 11
165.78009492365121
 21
159.85999995427761
 31
0.0
  0
ARC
  5
EE6
  8
0
 10
182.78009492365109
 20
162.35999995427741
 30
0.0
 40
3.0
 50
90.0
 51
180.0
  0
LINE
  5
EE7
  8
2
 10
172.78009492365121
 20
184.7599999542773
 30
0.0
 11
175.78009492365121
 21
184.7599999542773
 31
0.0
  0
LINE
  5
EE8
  8
2
 10
172.78009492365121
 20
172.95999995427741
 30
0.0
 11
175.78009492365121
 21
172.95999995427741
 31
0.0
  0
LINE
  5
EE9
  8
2
 10
172.78009492365121
 20
184.7599999542773
 30
0.0
 11
169.3737283354323
 21
178.8599999542773
 31
0.0
  0
LINE
  5
EEA
  8
2
 10
172.78009492365121
 20
172.95999995427741
 30
0.0
 11
172.78009492365121
 21
184.7599999542773
 31
0.0
  0
LINE
  5
EEB
  8
2
 10
172.78009492365121
 20
172.95999995427741
 30
0.0
 11
169.3737283354323
 21
178.85999995427741
 31
0.0
  0
LINE
  5
EEC
  8
2
 10
175.78009492365109
 20
184.8599999542773
 30
0.0
 11
175.78009492365121
 21
172.85999995427741
 31
0.0
  0
ARC
  5
EED
  8
0
 10
195.78009492365121
 20
167.35999995427741
 30
0.0
 40
2.0
 50
270.0
 51
0.0
  0
LINE
  5
EEE
  8
2
 10
196.78009492365121
 20
184.85999995427721
 30
0.0
 11
197.78009492365121
 21
185.8599999542771
 31
0.0
  0
LINE
  5
EEF
  8
2
 10
196.78009492365121
 20
172.8599999542775
 30
0.0
 11
197.78009492365121
 21
171.85999995427761
 31
0.0
  0
LINE
  5
EF0
  8
2
 10
196.78009492365101
 20
184.85999995427721
 30
0.0
 11
196.78009492365121
 21
172.85999995427741
 31
0.0
  0
CIRCLE
  5
EF1
  8
0
 10
279.28009492365049
 20
178.85999995427741
 30
0.0
 40
5.9999999999997717
  0
LINE
  5
EF2
  8
0
 10
166.78009492365121
 20
310.35999995427738
 30
0.0
 11
166.78009492365121
 21
247.3599999542775
 31
0.0
  0
LINE
  5
EF3
  8
0
 10
178.78009492365121
 20
310.35999995427738
 30
0.0
 11
178.78009492365121
 21
247.3599999542775
 31
0.0
  0
LINE
  5
EF4
  8
0
 10
179.78009492365121
 20
309.35999995427738
 30
0.0
 11
179.78009492365121
 21
248.3599999542775
 31
0.0
  0
LINE
  5
EF5
  8
0
 10
165.78009492365121
 20
309.35999995427738
 30
0.0
 11
165.78009492365121
 21
248.3599999542775
 31
0.0
  0
INSERT
  5
EF6
  8
3
  2
*X0
 10
-72.219905076348823
 20
138.85999995427741
 30
0.0
  0
LINE
  5
EF7
  8
0
 10
182.78009492365109
 20
192.35999995427741
 30
0.0
 11
195.78009492365121
 21
192.35999995427741
 31
0.0
  0
ARC
  5
EF8
  8
0
 10
182.78009492365109
 20
195.35999995427741
 30
0.0
 40
3.0
 50
180.0
 51
270.0
  0
LINE
  5
EF9
  8
0
 10
166.78009492365121
 20
210.35999995427741
 30
0.0
 11
178.78009492365121
 21
210.35999995427741
 31
0.0
  0
ARC
  5
EFA
  8
0
 10
166.78009492365121
 20
209.35999995427741
 30
0.0
 40
1.0
 50
90.0
 51
180.0
  0
ARC
  5
EFB
  8
0
 10
178.78009492365121
 20
209.35999995427741
 30
0.0
 40
1.0
 50
0.0
 51
90.0
  0
LINE
  5
EFC
  8
0
 10
166.78009492365121
 20
247.35999995427741
 30
0.0
 11
178.78009492365121
 21
247.35999995427741
 31
0.0
  0
ARC
  5
EFD
  8
0
 10
166.78009492365121
 20
248.3599999542775
 30
0.0
 40
1.0
 50
180.0
 51
270.0
  0
ARC
  5
EFE
  8
0
 10
178.78009492365121
 20
248.3599999542775
 30
0.0
 40
1.0
 50
270.0
 51
0.0
  0
ARC
  5
EFF
  8
0
 10
195.78009492365121
 20
190.35999995427741
 30
0.0
 40
2.0
 50
0.0
 51
90.0
  0
LINE
  5
F00
  8
2
 10
175.78009492365121
 20
272.85999995427738
 30
0.0
 11
196.78009492365121
 21
272.85999995427761
 31
0.0
  0
LINE
  5
F01
  8
2
 10
175.78009492365121
 20
284.85999995427733
 30
0.0
 11
196.78009492365121
 21
284.85999995427721
 31
0.0
  0
LINE
  5
F02
  8
0
 10
182.78009492365109
 20
292.3599999542775
 30
0.0
 11
195.78009492365121
 21
292.3599999542775
 31
0.0
  0
LINE
  5
F03
  8
0
 10
182.78009492365109
 20
265.3599999542775
 30
0.0
 11
195.78009492365121
 21
265.3599999542775
 31
0.0
  0
LINE
  5
F04
  8
1
 10
143.28009494335069
 20
278.8599999542775
 30
0.0
 11
202.78009492365049
 21
278.85999995427738
 31
0.0
  0
LINE
  5
F05
  8
0
  6
CONTINUOUS
 62
     7
 10
147.89096039672171
 20
272.10999995427738
 30
0.0
 11
162.88009492635109
 21
272.10999995427738
 31
0.0
  0
LINE
  5
F06
  8
0
  6
CONTINUOUS
 62
     7
 10
147.89096039672171
 20
285.60999995427738
 30
0.0
 11
162.88009492635109
 21
285.60999995427738
 31
0.0
  0
ARC
  5
F07
  8
0
  6
CONTINUOUS
 62
     7
 10
170.14584706752601
 20
278.85998657815668
 30
0.0
 40
24.365752124178591
 50
166.726996357258
 51
179.9999685462069
  0
LINE
  5
F08
  8
0
  6
CONTINUOUS
 62
     7
 10
147.91788450349731
 20
285.6099999542775
 30
0.0
 11
147.91788450349731
 21
272.10999995427761
 31
0.0
  0
ARC
  5
F09
  8
0
  6
CONTINUOUS
 62
     7
 10
147.89096039672171
 20
273.6099999542775
 30
0.0
 40
1.5
 50
193.2636435220457
 51
270.0
  0
ARC
  5
F0A
  8
0
  6
CONTINUOUS
 62
     7
 10
170.145847067527
 20
278.86001333039832
 30
0.0
 40
24.365752124179561
 50
180.0000314537931
 51
193.27300364273569
  0
ARC
  5
F0B
  8
0
  6
CONTINUOUS
 62
     7
 10
147.89096039672171
 20
284.1099999542775
 30
0.0
 40
1.5
 50
89.999999999996746
 51
166.7363564779543
  0
LINE
  5
F0C
  8
2
 10
175.78009492365109
 20
284.85999995427733
 30
0.0
 11
175.78009492365121
 21
272.85999995427738
 31
0.0
  0
LINE
  5
F0D
  8
2
 10
172.78009492365121
 20
272.95999995427752
 30
0.0
 11
172.78009492365121
 21
284.7599999542773
 31
0.0
  0
LINE
  5
F0E
  8
2
 10
172.78009492365121
 20
284.7599999542773
 30
0.0
 11
169.3737283354323
 21
278.85999995427733
 31
0.0
  0
LINE
  5
F0F
  8
0
  6
CONTINUOUS
 62
     7
 10
165.5800949236511
 20
273.36484899772353
 30
0.0
 11
165.5800949236511
 21
284.35515091083158
 31
0.0
  0
LINE
  5
F10
  8
0
  6
CONTINUOUS
 62
     7
 10
165.78009492365121
 20
278.85999995427738
 30
0.0
 11
165.78009492365121
 21
282.85999995427738
 31
0.0
  0
LINE
  5
F11
  8
0
  6
CONTINUOUS
 62
     7
 10
162.88009492635109
 20
272.10999995427738
 30
0.0
 11
162.88009492635109
 21
285.60999995427738
 31
0.0
  0
LINE
  5
F12
  8
2
 10
172.78009492365121
 20
272.95999995427752
 30
0.0
 11
175.78009492365121
 21
272.95999995427752
 31
0.0
  0
LINE
  5
F13
  8
2
 10
172.78009492365121
 20
272.95999995427752
 30
0.0
 11
169.3737283354323
 21
278.85999995427738
 31
0.0
  0
LINE
  5
F14
  8
0
  6
CONTINUOUS
 62
     7
 10
165.5800949236511
 20
273.36484899772353
 30
0.0
 11
162.88009492635109
 21
272.10999995427738
 31
0.0
  0
LINE
  5
F15
  8
0
  6
CONTINUOUS
 62
     7
 10
165.78009492365121
 20
274.85999995427738
 30
0.0
 11
165.5800949236511
 21
274.85999995427738
 31
0.0
  0
LINE
  5
F16
  8
0
  6
CONTINUOUS
 62
     7
 10
165.78009492365121
 20
278.85999995427738
 30
0.0
 11
165.78009492365121
 21
274.85999995427738
 31
0.0
  0
ARC
  5
F17
  8
0
 10
182.78009492365109
 20
262.35999995427738
 30
0.0
 40
3.0
 50
90.0
 51
180.0
  0
LINE
  5
F18
  8
2
 10
172.78009492365121
 20
284.7599999542773
 30
0.0
 11
175.78009492365121
 21
284.7599999542773
 31
0.0
  0
LINE
  5
F19
  8
0
  6
CONTINUOUS
 62
     7
 10
165.78009492365121
 20
282.85999995427738
 30
0.0
 11
165.5800949236511
 21
282.85999995427738
 31
0.0
  0
LINE
  5
F1A
  8
0
  6
CONTINUOUS
 62
     7
 10
165.5800949236511
 20
284.35515091083158
 30
0.0
 11
162.88009492635109
 21
285.60999995427738
 31
0.0
  0
ARC
  5
F1B
  8
0
 10
182.78009492365109
 20
295.35999995427738
 30
0.0
 40
3.0
 50
180.0
 51
270.0
  0
LINE
  5
F1C
  8
0
 10
166.78009492365121
 20
310.35999995427738
 30
0.0
 11
178.78009492365121
 21
310.35999995427738
 31
0.0
  0
ARC
  5
F1D
  8
0
 10
166.78009492365121
 20
309.35999995427738
 30
0.0
 40
1.0
 50
90.0
 51
180.0
  0
ARC
  5
F1E
  8
0
 10
178.78009492365121
 20
309.35999995427738
 30
0.0
 40
1.0
 50
0.0
 51
90.0
  0
LINE
  5
F1F
  8
2
 10
196.78009492365101
 20
284.85999995427721
 30
0.0
 11
196.78009492365121
 21
272.85999995427738
 31
0.0
  0
LINE
  5
F20
  8
0
 10
197.78009492365121
 20
290.3599999542775
 30
0.0
 11
197.78009492365121
 21
267.3599999542775
 31
0.0
  0
LINE
  5
F21
  8
2
 10
196.78009492365121
 20
272.85999995427761
 30
0.0
 11
197.78009492365121
 21
271.85999995427773
 31
0.0
  0
ARC
  5
F22
  8
0
 10
195.78009492365121
 20
267.3599999542775
 30
0.0
 40
2.0
 50
270.0
 51
0.0
  0
LINE
  5
F23
  8
2
 10
196.78009492365121
 20
284.85999995427721
 30
0.0
 11
197.78009492365121
 21
285.8599999542771
 31
0.0
  0
ARC
  5
F24
  8
0
 10
195.78009492365121
 20
290.3599999542775
 30
0.0
 40
2.0
 50
0.0
 51
90.0
  0
TEXT
  5
100F
  8
0
 62
     3
 10
0.0
 20
0.0
 30
0.0
 40
10.0
  1
AHRS63R
  7
STANDARD1
  0
ENDSEC
  0
EOF
