  0
SECTION
  2
HEADER
  9
$ACADVER
  1
AC1009
  9
$INSBASE
 10
0.0
 20
0.0
 30
0.0
  9
$EXTMIN
 10
-0.0204638472032742
 20
-2.960436562073669
 30
0.0
  9
$EXTMAX
 10
194.0
 20
155.0
 30
0.0
  9
$LIMMIN
 10
0.0
 20
0.0
  9
$LIMMAX
 10
375.0
 20
270.0
  9
$ORTHOMODE
 70
     1
  9
$REGENMODE
 70
     1
  9
$FILLMODE
 70
     1
  9
$QTEXTMODE
 70
     0
  9
$MIRRTEXT
 70
     0
  9
$DRAGMODE
 70
     2
  9
$LTSCALE
 40
8.0
  9
$OSMODE
 70
    37
  9
$ATTMODE
 70
     1
  9
$TEXTSIZE
 40
0.2
  9
$TRACEWID
 40
0.05
  9
$TEXTSTYLE
  7
STANDARD
  9
$CLAYER
  8
0
  9
$CELTYPE
  6
BYLAYER
  9
$CECOLOR
 62
   256
  9
$DIMSCALE
 40
1.0
  9
$DIMASZ
 40
3.0
  9
$DIMEXO
 40
2.0
  9
$DIMDLI
 40
0.38
  9
$DIMRND
 40
0.0
  9
$DIMDLE
 40
0.0
  9
$DIMEXE
 40
2.0
  9
$DIMTP
 40
0.0
  9
$DIMTM
 40
0.0
  9
$DIMTXT
 40
3.2000000000000002
  9
$DIMCEN
 40
0.0
  9
$DIMTSZ
 40
0.0
  9
$DIMTOL
 70
     0
  9
$DIMLIM
 70
     0
  9
$DIMTIH
 70
     0
  9
$DIMTOH
 70
     0
  9
$DIMSE1
 70
     0
  9
$DIMSE2
 70
     0
  9
$DIMTAD
 70
     1
  9
$DIMZIN
 70
     8
  9
$DIMBLK
  1

  9
$DIMASO
 70
     1
  9
$DIMSHO
 70
     0
  9
$DIMPOST
  1

  9
$DIMAPOST
  1

  9
$DIMALT
 70
     0
  9
$DIMALTD
 70
     2
  9
$DIMALTF
 40
25.399999999999999
  9
$DIMLFAC
 40
1.0
  9
$DIMTOFL
 70
     1
  9
$DIMTVP
 40
1.6000000000000001
  9
$DIMTIX
 70
     1
  9
$DIMSOXD
 70
     0
  9
$DIMSAH
 70
     0
  9
$DIMBLK1
  1

  9
$DIMBLK2
  1

  9
$DIMSTYLE
  2
STANDARD
  9
$DIMCLRD
 70
     0
  9
$DIMCLRE
 70
     0
  9
$DIMCLRT
 70
     0
  9
$DIMTFAC
 40
1.0
  9
$DIMGAP
 40
0.09
  9
$LUNITS
 70
     2
  9
$LUPREC
 70
     1
  9
$SKETCHINC
 40
0.1
  9
$FILLETRAD
 40
0.0
  9
$AUNITS
 70
     0
  9
$AUPREC
 70
     1
  9
$MENU
  1
E:\r13\win\SUPPORT\ACAD
  9
$ELEVATION
 40
0.0
  9
$PELEVATION
 40
0.0
  9
$THICKNESS
 40
0.0
  9
$LIMCHECK
 70
     0
  9
$BLIPMODE
 70
     0
  9
$CHAMFERA
 40
0.0
  9
$CHAMFERB
 40
0.0
  9
$SKPOLY
 70
     0
  9
$TDCREATE
 40
2448439.4652310191
  9
$TDUPDATE
 40
2458837.7113456372
  9
$TDINDWG
 40
0.093130463
  9
$TDUSRTIMER
 40
0.093130463
  9
$USRTIMER
 70
     1
  9
$ANGBASE
 50
0.0
  9
$ANGDIR
 70
     0
  9
$PDMODE
 70
     0
  9
$PDSIZE
 40
0.0
  9
$PLINEWID
 40
0.0
  9
$COORDS
 70
     1
  9
$SPLFRAME
 70
     0
  9
$SPLINETYPE
 70
     6
  9
$SPLINESEGS
 70
     8
  9
$ATTDIA
 70
     0
  9
$ATTREQ
 70
     1
  9
$HANDLING
 70
     1
  9
$HANDSEED
  5
F92
  9
$SURFTAB1
 70
     6
  9
$SURFTAB2
 70
     6
  9
$SURFTYPE
 70
     6
  9
$SURFU
 70
     6
  9
$SURFV
 70
     6
  9
$UCSNAME
  2

  9
$UCSORG
 10
0.0
 20
0.0
 30
0.0
  9
$UCSXDIR
 10
1.0
 20
0.0
 30
0.0
  9
$UCSYDIR
 10
0.0
 20
1.0
 30
0.0
  9
$PUCSNAME
  2

  9
$PUCSORG
 10
0.0
 20
0.0
 30
0.0
  9
$PUCSXDIR
 10
1.0
 20
0.0
 30
0.0
  9
$PUCSYDIR
 10
0.0
 20
1.0
 30
0.0
  9
$USERI1
 70
     0
  9
$USERI2
 70
     1
  9
$USERI3
 70
     1
  9
$USERI4
 70
     0
  9
$USERI5
 70
     0
  9
$USERR1
 40
0.0
  9
$USERR2
 40
0.0
  9
$USERR3
 40
0.0
  9
$USERR4
 40
0.0
  9
$USERR5
 40
0.0
  9
$WORLDVIEW
 70
     1
  9
$SHADEDGE
 70
     3
  9
$SHADEDIF
 70
    70
  9
$TILEMODE
 70
     1
  9
$MAXACTVP
 70
    16
  9
$PLIMCHECK
 70
     0
  9
$PEXTMIN
 10
1.0000000000000000E+020
 20
1.0000000000000000E+020
 30
1.0000000000000000E+020
  9
$PEXTMAX
 10
-1.0000000000000000E+020
 20
-1.0000000000000000E+020
 30
-1.0000000000000000E+020
  9
$PLIMMIN
 10
0.0
 20
0.0
  9
$PLIMMAX
 10
12.0
 20
9.0
  9
$UNITMODE
 70
     0
  9
$VISRETAIN
 70
     0
  9
$PLINEGEN
 70
     1
  9
$PSLTSCALE
 70
     0
  0
ENDSEC
  0
SECTION
  2
TABLES
  0
TABLE
  2
VPORT
 70
     1
  0
VPORT
  2
*ACTIVE
 70
     0
 10
0.0
 20
0.0
 11
1.0
 21
1.0
 12
291.2853224835016
 22
125.0
 13
0.0
 23
0.0
 14
10.0
 24
10.0
 15
10.0
 25
10.0
 16
0.0
 26
0.0
 36
1.0
 17
0.0
 27
0.0
 37
0.0
 40
241.1764705882353
 41
2.415644171779141
 42
50.0
 43
0.0
 44
0.0
 50
0.0
 51
0.0
 71
     0
 72
   500
 73
     1
 74
     0
 75
     0
 76
     0
 77
     0
 78
     2
  0
ENDTAB
  0
TABLE
  2
LTYPE
 70
     4
  0
LTYPE
  2
CONTINUOUS
 70
     0
  3
Solid Line
 72
    65
 73
     0
 40
0.0
  0
LTYPE
  2
CENTER
 70
     0
  3
____ _ ____ _ ____ _ ____ _ ____ _ ____ _ ____
 72
    65
 73
     4
 40
2.0
 49
1.25
 49
-0.25
 49
0.25
 49
-0.25
  0
LTYPE
  2
HIDDEN
 70
     0
  3
_ _ _ _ _ _ _ _ _ _ _ _ _ _ _ _ _ _ _ _ _ _ _
 72
    65
 73
     2
 40
0.375
 49
0.25
 49
-0.125
  0
LTYPE
  2
PHANTOM2
 70
     0
  3
___ _ _ ___ _ _ ___ _ _ ___ _ _
 72
    65
 73
     6
 40
1.25
 49
0.625
 49
-0.125
 49
0.125
 49
-0.125
 49
0.125
 49
-0.125
  0
ENDTAB
  0
TABLE
  2
LAYER
 70
     5
  0
LAYER
  2
0
 70
     0
 62
     7
  6
CONTINUOUS
  0
LAYER
  2
1
 70
     0
 62
     1
  6
CENTER
  0
LAYER
  2
2
 70
     0
 62
     2
  6
HIDDEN
  0
LAYER
  2
3
 70
     0
 62
     3
  6
CONTINUOUS
  0
LAYER
  2
DEFPOINTS
 70
     0
 62
     7
  6
CONTINUOUS
  0
ENDTAB
  0
TABLE
  2
STYLE
 70
     2
  0
STYLE
  2
STANDARD
 70
     0
 40
0.0
 41
1.0
 50
0.0
 71
     0
 42
0.2
  3
TXT
  4
BIGFONT
  0
STYLE
  2
STANDARD1
 70
     0
 40
0.0
 41
1.0
 50
0.0
 71
     0
 42
3.0
  3
txt
  4

  0
ENDTAB
  0
TABLE
  2
VIEW
 70
     1
  0
VIEW
  2
ALL
 70
     0
 40
270.35373846766328
 10
221.28112711554971
 20
134.8231307661683
 41
0.0
 11
0.0
 21
0.0
 31
1.0
 12
0.0
 22
0.0
 32
0.0
 42
0.0
 43
0.0
 44
0.0
 50
0.0
 71
     0
  0
ENDTAB
  0
TABLE
  2
UCS
 70
     0
  0
ENDTAB
  0
TABLE
  2
APPID
 70
     6
  0
APPID
  2
ACAD
 70
     0
  0
APPID
  2
ACAD_MLEADERVER
 70
     0
  0
APPID
  2
ACAD_NAV_VCDISPLAY
 70
     0
  0
APPID
  2
ACAD_EXEMPT_FROM_CAD_STANDARDS
 70
     0
  0
APPID
  2
ACAD_DSTYLE_DIMJAG
 70
     0
  0
APPID
  2
ACAD_DSTYLE_DIMTALN
 70
     0
  0
ENDTAB
  0
TABLE
  2
DIMSTYLE
 70
     1
  0
DIMSTYLE
  2
STANDARD
 70
     0
  3

  4

  5

  6

  7

 40
1.0
 41
0.18
 42
0.0625
 43
0.38
 44
0.18
 45
0.0
 46
0.0
 47
0.0
 48
0.0
140
0.18
141
0.09
142
0.0
143
25.399999999999999
144
1.0
145
0.0
146
1.0
147
0.09
 71
     0
 72
     0
 73
     1
 74
     1
 75
     0
 76
     0
 77
     0
 78
     0
170
     0
171
     2
172
     0
173
     0
174
     0
175
     0
176
     0
177
     0
178
     0
  0
ENDTAB
  0
ENDSEC
  0
SECTION
  2
BLOCKS
  0
BLOCK
  8
0
  2
$MODEL_SPACE
 70
     0
 10
0.0
 20
0.0
 30
0.0
  3
$MODEL_SPACE
  1

  0
ENDBLK
  5
164
  8
0
  0
BLOCK
 67
     1
  8
0
  2
$PAPER_SPACE
 70
     0
 10
0.0
 20
0.0
 30
0.0
  3
$PAPER_SPACE
  1

  0
ENDBLK
  5
162
 67
     1
  8
0
  0
ENDSEC
  0
SECTION
  2
ENTITIES
  0
TEXT
  5
256
  8
0
 62
     3
 10
0.0
 20
0.0
 30
0.0
 40
10.0
  1
AHT70N
  7
STANDARD1
  0
LINE
  5
645
  8
0
 10
41.0
 20
104.0
 30
0.0
 11
41.0
 21
105.0
 31
0.0
  0
LINE
  5
646
  8
0
 10
41.0
 20
125.0
 30
0.0
 11
41.0
 21
126.0
 31
0.0
  0
LINE
  5
647
  8
0
 10
33.0
 20
126.0
 30
0.0
 11
33.0
 21
125.0
 31
0.0
  0
LINE
  5
648
  8
0
 10
33.0
 20
105.0
 30
0.0
 11
33.0
 21
104.0
 31
0.0
  0
LINE
  5
64A
  8
0
 10
30.0
 20
125.0
 30
0.0
 11
44.0
 21
125.0
 31
0.0
  0
LINE
  5
64C
  8
0
 10
44.0
 20
105.0
 30
0.0
 11
30.0
 21
105.0
 31
0.0
  0
LINE
  5
64D
  8
0
 10
30.0
 20
150.0
 30
0.0
 11
30.0
 21
79.999999999999986
 31
0.0
  0
LINE
  5
64E
  8
0
 10
44.0
 20
104.0
 30
0.0
 11
44.0
 21
126.0
 31
0.0
  0
LINE
  5
658
  8
0
 10
30.00000000000006
 20
104.0
 30
0.0
 11
44.0
 21
104.0
 31
0.0
  0
ARC
  5
659
  8
0
 10
44.000000000000171
 20
104.9999999999998
 30
0.0
 40
0.9999999999998294
 50
269.99999999999022
 51
0.0000000000105849
  0
LINE
  5
65A
  8
0
 10
45.0
 20
105.0
 30
0.0
 11
45.0
 21
125.0
 31
0.0
  0
ARC
  5
65B
  8
0
 10
44.00000000000022
 20
125.0000000000002
 30
0.0
 40
0.9999999999997584
 50
359.99999999998778
 51
90.000000000013017
  0
LINE
  5
65C
  8
0
 10
44.0
 20
126.0
 30
0.0
 11
30.0
 21
126.0
 31
0.0
  0
LINE
  5
661
  8
0
 10
71.5
 20
80.0
 30
0.0
 11
71.5
 21
150.0
 31
0.0
  0
LINE
  5
662
  8
0
 10
71.5
 20
80.0
 30
0.0
 11
30.0
 21
80.000000000000014
 31
0.0
  0
LINE
  5
663
  8
0
 10
71.5
 20
150.0
 30
0.0
 11
30.0
 21
150.0
 31
0.0
  0
LINE
  5
6A1
  8
0
 10
41.550000000000011
 20
30.0
 30
0.0
 11
44.0
 21
30.0
 31
0.0
  0
LINE
  5
6A2
  8
0
 10
41.25
 20
30.300000000000001
 30
0.0
 11
41.550000000000011
 21
30.0
 31
0.0
  0
LINE
  5
6A3
  8
0
 10
32.75
 20
30.300000000000001
 30
0.0
 11
41.25
 21
30.300000000000001
 31
0.0
  0
LINE
  5
6A4
  8
0
 10
32.449999999999989
 20
30.0
 30
0.0
 11
32.75
 21
30.300000000000001
 31
0.0
  0
LINE
  5
6A5
  8
0
 10
30.0
 20
30.0
 30
0.0
 11
32.449999999999989
 21
30.0
 31
0.0
  0
LINE
  5
6A6
  8
0
 10
30.0
 20
35.0
 30
0.0
 11
44.0
 21
35.0
 31
0.0
  0
LINE
  5
6A7
  8
0
 10
44.0
 20
30.0
 30
0.0
 11
44.0
 21
36.0
 31
0.0
  0
LINE
  5
6AB
  8
0
 10
30.0
 20
43.000000000000007
 30
0.0
 11
30.00000000000006
 21
30.0
 31
0.0
  0
LINE
  5
6AC
  8
0
 10
55.0
 20
30.300000000000001
 30
0.0
 11
63.5
 21
30.300000000000001
 31
0.0
  0
LINE
  5
6AD
  8
0
 10
47.0
 20
30.0
 30
0.0
 11
54.699999999999982
 21
30.0
 31
0.0
  0
LINE
  5
6AE
  8
0
 10
37.0
 20
36.0
 30
0.0
 11
45.0
 21
36.0
 31
0.0
  0
CIRCLE
  5
6AF
  8
0
 10
37.0
 20
43.000000000000007
 30
0.0
 40
4.0000000000000142
  0
ARC
  5
6B0
  8
0
 10
37.0
 20
43.000000000000007
 30
0.0
 40
7.0000000000000071
 50
90.0
 51
270.0
  0
ARC
  5
6B1
  8
0
 10
64.5
 20
34.180000000000007
 30
0.0
 40
7.0000000000000133
 50
0.0
 51
53.538270974050818
  0
ARC
  5
6B2
  8
0
 10
40.141946812120409
 20
5.0000000000000098
 30
0.0
 40
45.000000000000007
 50
50.673811100550608
 51
90.0
  0
LINE
  5
6B3
  8
0
 10
71.5
 20
30.0
 30
0.0
 11
71.5
 21
34.180000000000007
 31
0.0
  0
LINE
  5
6B4
  8
0
 10
63.5
 20
30.300000000000001
 30
0.0
 11
63.799999999999947
 21
30.0
 31
0.0
  0
ARC
  5
6B5
  8
0
 10
45.0
 20
34.0
 30
0.0
 40
2.0
 50
0.0
 51
90.0
  0
LINE
  5
6B6
  8
0
 10
54.699999999999982
 20
30.0
 30
0.0
 11
55.0
 21
30.300000000000001
 31
0.0
  0
LINE
  5
6B7
  8
0
 10
40.141946812120409
 20
50.000000000000007
 30
0.0
 11
37.0
 21
50.000000000000007
 31
0.0
  0
LINE
  5
6B8
  8
0
 10
63.799999999999947
 20
30.0
 30
0.0
 11
71.5
 21
30.0
 31
0.0
  0
LINE
  5
6B9
  8
0
 10
47.0
 20
34.0
 30
0.0
 11
47.0
 21
30.0
 31
0.0
  0
LINE
  5
6C3
  8
2
 10
63.067000000000057
 20
41.5
 30
0.0
 11
58.93300000000005
 21
41.5
 31
0.0
  0
LINE
  5
6C8
  8
2
 10
58.5
 20
40.0
 30
0.0
 11
63.5
 21
40.0
 31
0.0
  0
LINE
  5
6CC
  8
2
 10
63.067000000000057
 20
41.5
 30
0.0
 11
61.00000000000005
 21
42.693383006414948
 31
0.0
  0
LINE
  5
6CD
  8
2
 10
61.00000000000005
 20
42.693383006414948
 30
0.0
 11
58.93300000000005
 21
41.5
 31
0.0
  0
LINE
  5
6CE
  8
2
 10
63.067000000000007
 20
30.300000000000001
 30
0.0
 11
63.067000000000057
 21
41.5
 31
0.0
  0
LINE
  5
6CF
  8
2
 10
58.93300000000005
 20
41.5
 30
0.0
 11
58.932999999999993
 21
30.300000000000001
 31
0.0
  0
LINE
  5
6D0
  8
2
 10
58.5
 20
40.0
 30
0.0
 11
58.5
 21
30.300000000000001
 31
0.0
  0
LINE
  5
6D1
  8
2
 10
63.5
 20
30.300000000000001
 30
0.0
 11
63.5
 21
40.0
 31
0.0
  0
LINE
  5
6D2
  8
2
 10
63.5
 20
40.0
 30
0.0
 11
63.067000000000071
 21
40.43299999999995
 31
0.0
  0
LINE
  5
6D3
  8
2
 10
58.933000000000042
 20
40.433000000000042
 30
0.0
 11
58.5
 21
40.0
 31
0.0
  0
LINE
  5
6D4
  8
0
 10
101.5
 20
125.0
 30
0.0
 11
101.5
 21
105.0
 31
0.0
  0
LINE
  5
6E9
  8
0
 10
101.7629983210348
 20
105.0
 30
0.0
 11
101.5
 21
105.0
 31
0.0
  0
LINE
  5
6EA
  8
0
 10
101.5
 20
125.0
 30
0.0
 11
101.7629983210348
 21
125.0
 31
0.0
  0
LINE
  5
6EE
  8
0
 10
121.5
 20
79.999999999999986
 30
0.0
 11
121.5
 21
150.0
 31
0.0
  0
LINE
  5
6F3
  8
0
 10
101.5
 20
126.0
 30
0.0
 11
101.5
 21
150.0
 31
0.0
  0
LINE
  5
6F4
  8
0
 10
101.5
 20
79.999999999999986
 30
0.0
 11
101.5
 21
104.0
 31
0.0
  0
LINE
  5
6F5
  8
0
 10
101.5
 20
104.0
 30
0.0
 11
101.66568919232181
 21
104.0
 31
0.0
  0
ARC
  5
6F6
  8
0
 10
98.980457644147805
 20
104.76603207561089
 30
0.0
 40
2.792359863659033
 50
344.07782424818407
 51
4.8063682683609636
  0
LINE
  5
6F7
  8
0
 10
101.7629983210348
 20
105.0
 30
0.0
 11
101.7629983210348
 21
125.0
 31
0.0
  0
ARC
  5
6F8
  8
0
 10
98.990680971421511
 20
125.2349627474586
 30
0.0
 40
2.7822564546893158
 50
355.15557693529001
 51
15.960230548166381
  0
LINE
  5
6F9
  8
0
 10
101.66568919232181
 20
126.0
 30
0.0
 11
101.5
 21
126.0
 31
0.0
  0
LINE
  5
6FA
  8
0
 10
121.5
 20
79.999999999999986
 30
0.0
 11
101.5
 21
79.999999999999986
 31
0.0
  0
LINE
  5
6FB
  8
0
 10
121.5
 20
150.0
 30
0.0
 11
101.5
 21
150.0
 31
0.0
  0
LINE
  5
74A
  8
0
 10
192.99999999999989
 20
79.999999999999986
 30
0.0
 11
192.99999999999989
 21
150.0
 31
0.0
  0
LINE
  5
74B
  8
0
 10
190.5499999999999
 20
79.999999999999986
 30
0.0
 11
190.5499999999999
 21
87.926958755836964
 31
0.0
  0
LINE
  5
74C
  8
0
 10
192.99999999999989
 20
150.0
 30
0.0
 11
151.5
 21
150.0
 31
0.0
  0
LINE
  5
74D
  8
0
 10
192.99999999999989
 20
79.999999999999986
 30
0.0
 11
151.5
 21
79.999999999999986
 31
0.0
  0
LINE
  5
74E
  8
0
 10
190.24999999999989
 20
79.999999999999986
 30
0.0
 11
190.24999999999989
 21
87.366086561786574
 31
0.0
  0
LINE
  5
751
  8
0
 10
181.74999999999989
 20
79.999999999999986
 30
0.0
 11
181.74999999999989
 21
87.366086561787014
 31
0.0
  0
LINE
  5
752
  8
0
 10
181.4499999999999
 20
79.999999999999986
 30
0.0
 11
181.4499999999999
 21
87.926958755837475
 31
0.0
  0
LINE
  5
755
  8
0
 10
179.0
 20
79.999999999999986
 30
0.0
 11
179.0
 21
150.0
 31
0.0
  0
LINE
  5
75A
  8
0
 10
176.0
 20
80.0
 30
0.0
 11
176.0
 21
150.0
 31
0.0
  0
LINE
  5
75B
  8
0
 10
168.2999999999999
 20
80.0
 30
0.0
 11
168.2999999999999
 21
150.0
 31
0.0
  0
LINE
  5
75E
  8
0
 10
167.99999999999989
 20
80.0
 30
0.0
 11
167.99999999999989
 21
150.0
 31
0.0
  0
LINE
  5
763
  8
0
 10
159.50000000000099
 20
79.999999999999986
 30
0.0
 11
159.49999999999989
 21
150.0
 31
0.0
  0
LINE
  5
766
  8
0
 10
159.19999999999979
 20
79.999999999999986
 30
0.0
 11
159.1999999999999
 21
150.0
 31
0.0
  0
LINE
  5
769
  8
0
 10
151.5
 20
80.0
 30
0.0
 11
151.5
 21
150.0
 31
0.0
  0
LINE
  5
76E
  8
0
 10
178.0
 20
105.0
 30
0.0
 11
178.0
 21
125.0
 31
0.0
  0
ARC
  5
771
  8
0
 10
179.0
 20
105.0
 30
0.0
 40
1.0
 50
180.0
 51
270.0
  0
ARC
  5
773
  8
0
 10
179.0
 20
125.0
 30
0.0
 40
1.0
 50
90.0
 51
180.0
  0
LINE
  5
A9A
  8
2
 10
34.599999999999973
 20
30.300000000000001
 30
0.0
 11
34.599999999999973
 21
31.5
 31
0.0
  0
LINE
  5
A9B
  8
2
 10
39.399999999999977
 20
30.300000000000001
 30
0.0
 11
39.399999999999977
 21
31.5
 31
0.0
  0
LINE
  5
AA6
  8
2
 10
34.60000000000003
 20
31.501110699893019
 30
0.0
 11
39.39999999999992
 21
31.501110699893069
 31
0.0
  0
LINE
  5
AA7
  8
1
 10
37.0
 20
50.000000000000028
 30
0.0
 11
37.0
 21
27.000000000000011
 31
0.0
  0
LINE
  5
AA9
  8
1
 10
61.00000000000005
 20
27.000000000000011
 30
0.0
 11
61.00000000000005
 21
45.69338300641494
 31
0.0
  0
LINE
  5
AAA
  8
1
 10
44.0
 20
43.000000000000007
 30
0.0
 11
30.0
 21
43.000000000000007
 31
0.0
  0
LINE
  5
AB6
  8
1
 10
37.0
 20
155.0
 30
0.0
 11
37.0
 21
75.000000000000028
 31
0.0
  0
LINE
  5
ACF
  8
1
 10
124.5
 20
140.0
 30
0.0
 11
105.806616993585
 21
140.0
 31
0.0
  0
LINE
  5
AD0
  8
1
 10
124.5
 20
89.999999999999986
 30
0.0
 11
105.806616993585
 21
89.999999999999986
 31
0.0
  0
CIRCLE
  5
AFC
  8
0
 10
161.99999999999989
 20
89.999999999999986
 30
0.0
 40
2.0670000000000641
  0
CIRCLE
  5
AFD
  8
3
 10
161.99999999999989
 20
89.999999999999986
 30
0.0
 40
2.500000000000056
  0
LINE
  5
AFE
  8
1
 10
161.99999999999989
 20
145.5
 30
0.0
 11
161.99999999999989
 21
134.49999999999989
 31
0.0
  0
LINE
  5
AFF
  8
1
 10
167.5
 20
89.999999999999986
 30
0.0
 11
156.49999999999989
 21
89.999999999999986
 31
0.0
  0
LINE
  5
B00
  8
1
 10
167.5
 20
140.0
 30
0.0
 11
156.4999999999998
 21
140.0
 31
0.0
  0
LINE
  5
B01
  8
1
 10
186.0
 20
81.999999999999986
 30
0.0
 11
186.0
 21
97.999999999999986
 31
0.0
  0
CIRCLE
  5
B02
  8
0
 10
161.99999999999989
 20
140.0
 30
0.0
 40
2.0670000000000641
  0
CIRCLE
  5
B03
  8
3
 10
161.99999999999989
 20
140.0
 30
0.0
 40
2.500000000000056
  0
LINE
  5
B06
  8
1
 10
161.99999999999989
 20
95.500000000000043
 30
0.0
 11
161.99999999999989
 21
84.499999999999929
 31
0.0
  0
CIRCLE
  5
B0E
  8
0
 10
186.0
 20
140.0
 30
0.0
 40
5.0
  0
CIRCLE
  5
B0F
  8
0
 10
186.0
 20
140.0
 30
0.0
 40
2.399999999999999
  0
LINE
  5
B10
  8
1
 10
178.0
 20
140.0
 30
0.0
 11
194.0
 21
140.0
 31
0.0
  0
LINE
  5
B11
  8
1
 10
178.0
 20
89.999999999999986
 30
0.0
 11
194.0
 21
89.999999999999986
 31
0.0
  0
CIRCLE
  5
B12
  8
0
 10
186.0
 20
89.999999999999986
 30
0.0
 40
5.0
  0
CIRCLE
  5
B13
  8
0
 10
186.0
 20
89.999999999999986
 30
0.0
 40
2.399999999999999
  0
LINE
  5
B16
  8
1
 10
186.0
 20
132.0
 30
0.0
 11
186.0
 21
148.0
 31
0.0
  0
LINE
  5
C04
  8
2
 10
32.0
 20
34.101110699893177
 30
0.0
 11
34.60000000000008
 21
31.501110699893019
 31
0.0
  0
LINE
  5
C06
  8
2
 10
42.000000071215943
 20
34.101110771109113
 30
0.0
 11
39.400000000000027
 21
31.501110699893079
 31
0.0
  0
LINE
  5
C0F
  8
2
 10
32.0
 20
34.101110699893177
 30
0.0
 11
32.0
 21
35.0
 31
0.0
  0
LINE
  5
C10
  8
2
 10
32.0
 20
34.101110699893177
 30
0.0
 11
42.000000071215943
 21
34.101110771109113
 31
0.0
  0
LINE
  5
C11
  8
2
 10
42.0
 20
34.101110699893177
 30
0.0
 11
42.0
 21
35.0
 31
0.0
  0
LINE
  5
F0D
  8
0
 10
190.5499999999999
 20
92.073041244163008
 30
0.0
 11
190.5499999999999
 21
137.92695875583701
 31
0.0
  0
LINE
  5
F0E
  8
0
 10
190.24999999999989
 20
92.633913438213369
 30
0.0
 11
190.24999999999989
 21
137.3660865617866
 31
0.0
  0
LINE
  5
F0F
  8
0
 10
181.74999999999989
 20
92.633913438212943
 30
0.0
 11
181.74999999999989
 21
137.36608656178689
 31
0.0
  0
LINE
  5
F10
  8
0
 10
181.4499999999999
 20
92.073041244162496
 30
0.0
 11
181.4499999999999
 21
137.9269587558374
 31
0.0
  0
LINE
  5
F11
  8
0
 10
190.5499999999999
 20
142.07304124416299
 30
0.0
 11
190.5499999999999
 21
150.0
 31
0.0
  0
LINE
  5
F12
  8
0
 10
190.24999999999989
 20
142.63391343821331
 30
0.0
 11
190.24999999999989
 21
150.0
 31
0.0
  0
LINE
  5
F13
  8
0
 10
181.74999999999989
 20
142.633913438213
 30
0.0
 11
181.74999999999989
 21
150.0
 31
0.0
  0
LINE
  5
F14
  8
0
 10
181.4499999999999
 20
142.0730412441626
 30
0.0
 11
181.4499999999999
 21
150.0
 31
0.0
  0
ENDSEC
  0
EOF
