  0
SECTION
  2
HEADER
  9
$ACADVER
  1
AC1009
  9
$INSBASE
 10
0.0
 20
0.0
 30
0.0
  9
$EXTMIN
 10
-0.0204638472032742
 20
-2.960436562073669
 30
0.0
  9
$EXTMAX
 10
91.9129130398787169
 20
85.438976858048477
 30
0.0
  9
$LIMMIN
 10
0.0
 20
0.0
  9
$LIMMAX
 10
192.5
 20
135.0
  9
$ORTHOMODE
 70
     1
  9
$REGENMODE
 70
     1
  9
$FILLMODE
 70
     1
  9
$QTEXTMODE
 70
     0
  9
$MIRRTEXT
 70
     0
  9
$DRAGMODE
 70
     2
  9
$LTSCALE
 40
3.0
  9
$OSMODE
 70
    37
  9
$ATTMODE
 70
     1
  9
$TEXTSIZE
 40
0.2
  9
$TRACEWID
 40
0.05
  9
$TEXTSTYLE
  7
STANDARD
  9
$CLAYER
  8
0
  9
$CELTYPE
  6
BYLAYER
  9
$CECOLOR
 62
   256
  9
$DIMSCALE
 40
0.5
  9
$DIMASZ
 40
3.0
  9
$DIMEXO
 40
1.0
  9
$DIMDLI
 40
6.0
  9
$DIMRND
 40
0.0
  9
$DIMDLE
 40
0.0
  9
$DIMEXE
 40
1.0
  9
$DIMTP
 40
495.0
  9
$DIMTM
 40
0.0
  9
$DIMTXT
 40
3.0
  9
$DIMCEN
 40
0.0
  9
$DIMTSZ
 40
0.0
  9
$DIMTOL
 70
     0
  9
$DIMLIM
 70
     0
  9
$DIMTIH
 70
     0
  9
$DIMTOH
 70
     0
  9
$DIMSE1
 70
     0
  9
$DIMSE2
 70
     0
  9
$DIMTAD
 70
     1
  9
$DIMZIN
 70
     0
  9
$DIMBLK
  1

  9
$DIMASO
 70
     0
  9
$DIMSHO
 70
     0
  9
$DIMPOST
  1

  9
$DIMAPOST
  1

  9
$DIMALT
 70
     0
  9
$DIMALTD
 70
     2
  9
$DIMALTF
 40
25.3999999999999986
  9
$DIMLFAC
 40
1.0
  9
$DIMTOFL
 70
     1
  9
$DIMTVP
 40
0.0
  9
$DIMTIX
 70
     1
  9
$DIMSOXD
 70
     0
  9
$DIMSAH
 70
     0
  9
$DIMBLK1
  1

  9
$DIMBLK2
  1

  9
$DIMSTYLE
  2
STANDARD
  9
$DIMCLRD
 70
     0
  9
$DIMCLRE
 70
     0
  9
$DIMCLRT
 70
     4
  9
$DIMTFAC
 40
1.0
  9
$DIMGAP
 40
1.0
  9
$LUNITS
 70
     2
  9
$LUPREC
 70
     1
  9
$SKETCHINC
 40
0.1
  9
$FILLETRAD
 40
0.5
  9
$AUNITS
 70
     0
  9
$AUPREC
 70
     1
  9
$MENU
  1
C:\R13\WIN\SUPPORT\ACAD-I
  9
$ELEVATION
 40
0.0
  9
$PELEVATION
 40
0.0
  9
$THICKNESS
 40
0.0
  9
$LIMCHECK
 70
     0
  9
$BLIPMODE
 70
     0
  9
$CHAMFERA
 40
0.2
  9
$CHAMFERB
 40
0.2
  9
$SKPOLY
 70
     0
  9
$TDCREATE
 40
2450647.4584953710436821
  9
$TDUPDATE
 40
2460571.6583680561743677
  9
$TDINDWG
 40
0.150906331
  9
$TDUSRTIMER
 40
0.150906331
  9
$USRTIMER
 70
     1
  9
$ANGBASE
 50
0.0
  9
$ANGDIR
 70
     0
  9
$PDMODE
 70
     0
  9
$PDSIZE
 40
0.0
  9
$PLINEWID
 40
0.0
  9
$COORDS
 70
     1
  9
$SPLFRAME
 70
     0
  9
$SPLINETYPE
 70
     6
  9
$SPLINESEGS
 70
     8
  9
$ATTDIA
 70
     1
  9
$ATTREQ
 70
     1
  9
$HANDLING
 70
     1
  9
$HANDSEED
  5
EC8
  9
$SURFTAB1
 70
     6
  9
$SURFTAB2
 70
     6
  9
$SURFTYPE
 70
     6
  9
$SURFU
 70
     6
  9
$SURFV
 70
     6
  9
$UCSNAME
  2

  9
$UCSORG
 10
0.0
 20
0.0
 30
0.0
  9
$UCSXDIR
 10
1.0
 20
0.0
 30
0.0
  9
$UCSYDIR
 10
0.0
 20
1.0
 30
0.0
  9
$PUCSNAME
  2

  9
$PUCSORG
 10
0.0
 20
0.0
 30
0.0
  9
$PUCSXDIR
 10
1.0
 20
0.0
 30
0.0
  9
$PUCSYDIR
 10
0.0
 20
1.0
 30
0.0
  9
$USERI1
 70
     3
  9
$USERI2
 70
     1
  9
$USERI3
 70
     0
  9
$USERI4
 70
     0
  9
$USERI5
 70
     0
  9
$USERR1
 40
0.5
  9
$USERR2
 40
3.0
  9
$USERR3
 40
3.0
  9
$USERR4
 40
3.0
  9
$USERR5
 40
10.0
  9
$WORLDVIEW
 70
     1
  9
$SHADEDGE
 70
     3
  9
$SHADEDIF
 70
    70
  9
$TILEMODE
 70
     1
  9
$MAXACTVP
 70
    16
  9
$PLIMCHECK
 70
     0
  9
$PEXTMIN
 10
1.0000000000000000E+20
 20
1.0000000000000000E+20
 30
1.0000000000000000E+20
  9
$PEXTMAX
 10
-1.0000000000000000E+20
 20
-1.0000000000000000E+20
 30
-1.0000000000000000E+20
  9
$PLIMMIN
 10
0.0
 20
0.0
  9
$PLIMMAX
 10
12.0
 20
9.0
  9
$UNITMODE
 70
     0
  9
$VISRETAIN
 70
     0
  9
$PLINEGEN
 70
     0
  9
$PSLTSCALE
 70
     0
  0
ENDSEC
  0
SECTION
  2
TABLES
  0
TABLE
  2
VPORT
 70
     1
  0
VPORT
  2
*ACTIVE
 70
     0
 10
0.0
 20
0.0
 11
1.0
 21
1.0
 12
234.8522167487685124
 22
100.0
 13
0.0
 23
0.0
 14
2.5
 24
2.5
 15
10.0
 25
10.0
 16
0.0
 26
0.0
 36
1.0
 17
0.0
 27
0.0
 37
0.0
 40
200.0
 41
2.3485221674876842
 42
50.0
 43
0.0
 44
0.0
 50
0.0
 51
0.0
 71
     0
 72
   100
 73
     1
 74
     0
 75
     0
 76
     0
 77
     0
 78
     0
  0
ENDTAB
  0
TABLE
  2
LTYPE
 70
     3
  0
LTYPE
  2
CONTINUOUS
 70
     0
  3
Solid Line
 72
    65
 73
     0
 40
0.0
  0
LTYPE
  2
CENTER
 70
     0
  3
____ _ ____ _ ____ _ ____ _ ____ _ ____ _ ____
 72
    65
 73
     4
 40
2.0
 49
1.25
 49
-0.25
 49
0.25
 49
-0.25
  0
LTYPE
  2
PHANTOM
 70
     0
  3
_____ _ _ _____ _ _ _____ _ _ _____ _ _ ____
 72
    65
 73
     6
 40
2.5
 49
1.25
 49
-0.25
 49
0.25
 49
-0.25
 49
0.25
 49
-0.25
  0
ENDTAB
  0
TABLE
  2
LAYER
 70
     3
  0
LAYER
  2
0
 70
     0
 62
     7
  6
CONTINUOUS
  0
LAYER
  2
1
 70
     0
 62
     1
  6
CENTER
  0
LAYER
  2
5
 70
     0
 62
     3
  6
PHANTOM
  0
ENDTAB
  0
TABLE
  2
STYLE
 70
     2
  0
STYLE
  2
STANDARD
 70
     0
 40
0.0
 41
1.0
 50
0.0
 71
     0
 42
0.2
  3
SIMPLEX
  4
BIGFONT
  0
STYLE
  2
STANDARD1
 70
     0
 40
0.0
 41
1.0
 50
0.0
 71
     0
 42
3.0
  3
txt
  4

  0
ENDTAB
  0
TABLE
  2
VIEW
 70
     0
  0
ENDTAB
  0
TABLE
  2
UCS
 70
     0
  0
ENDTAB
  0
TABLE
  2
APPID
 70
     6
  0
APPID
  2
ACAD
 70
     0
  0
APPID
  2
ACAD_MLEADERVER
 70
     0
  0
APPID
  2
ACAD_EXEMPT_FROM_CAD_STANDARDS
 70
     0
  0
APPID
  2
ACAD_NAV_VCDISPLAY
 70
     0
  0
APPID
  2
ACAD_DSTYLE_DIMJAG
 70
     0
  0
APPID
  2
ACAD_DSTYLE_DIMTALN
 70
     0
  0
ENDTAB
  0
TABLE
  2
DIMSTYLE
 70
     1
  0
DIMSTYLE
  2
STANDARD
 70
     0
  3

  4

  5

  6

  7

 40
1.0
 41
0.18
 42
0.0625
 43
0.38
 44
0.18
 45
0.0
 46
0.0
 47
0.0
 48
0.0
140
0.18
141
0.09
142
0.0
143
25.3999999999999986
144
1.0
145
0.0
146
1.0
147
0.09
 71
     0
 72
     0
 73
     1
 74
     1
 75
     0
 76
     0
 77
     0
 78
     0
170
     0
171
     2
172
     0
173
     0
174
     0
175
     0
176
     0
177
     0
178
     0
  0
ENDTAB
  0
ENDSEC
  0
SECTION
  2
BLOCKS
  0
BLOCK
  8
0
  2
$MODEL_SPACE
 70
     0
 10
0.0
 20
0.0
 30
0.0
  3
$MODEL_SPACE
  1

  0
ENDBLK
  5
793
  8
0
  0
BLOCK
 67
     1
  8
0
  2
$PAPER_SPACE
 70
     0
 10
0.0
 20
0.0
 30
0.0
  3
$PAPER_SPACE
  1

  0
ENDBLK
  5
791
 67
     1
  8
0
  0
ENDSEC
  0
SECTION
  2
ENTITIES
  0
LINE
  5
B49
  8
0
 10
40.4129130398787311
 20
64.4389768580484628
 30
0.0
 11
21.4129130398787311
 21
64.4389768580484912
 31
0.0
  0
LINE
  5
B4A
  8
0
 10
40.4129130398787311
 20
79.4389768580484343
 30
0.0
 11
21.4129130398787311
 21
79.4389768580484628
 31
0.0
  0
LINE
  5
B4B
  8
1
 10
45.9129130398787524
 20
71.938976858048477
 30
0.0
 11
15.9129130398787293
 21
71.938976858048477
 31
0.0
  0
LINE
  5
B4C
  8
1
 10
30.9129130398787311
 20
58.4389768580484699
 30
0.0
 11
30.9129130398787311
 21
85.438976858048477
 31
0.0
  0
LINE
  5
B4D
  8
0
 10
40.9129130398787311
 20
64.9389768580484628
 30
0.0
 11
40.9129130398787311
 21
78.9389768580484343
 31
0.0
  0
LINE
  5
B4E
  8
0
 10
20.9129130398787311
 20
64.9389768580484912
 30
0.0
 11
20.9129130398787311
 21
78.9389768580484628
 31
0.0
  0
ARC
  5
B53
  8
0
 10
40.4129130398787311
 20
78.9389768580484343
 30
0.0
 40
0.5
 50
0.0
 51
89.9999999999999147
  0
ARC
  5
B54
  8
0
 10
21.4129130398787311
 20
78.9389768580484628
 30
0.0
 40
0.5
 50
89.9999999999998721
 51
179.9999999999998863
  0
ARC
  5
B55
  8
0
 10
21.4129130398787311
 20
64.9389768580484912
 30
0.0
 40
0.5
 50
179.9999999999998863
 51
269.9999999999998863
  0
ARC
  5
B56
  8
0
 10
40.4129130398787311
 20
64.9389768580484628
 30
0.0
 40
0.5
 50
269.9999999999998863
 51
0.0
  0
ARC
  5
B59
  8
5
 10
18.9129130398787311
 20
64.9389768580485054
 30
0.0
 40
0.5
 50
179.9999999999998863
 51
269.9999999999998863
  0
LINE
  5
B5A
  8
5
 10
18.4129130398787311
 20
64.9389768580485054
 30
0.0
 11
18.4129130398787311
 21
78.938976858048477
 31
0.0
  0
LINE
  5
B5B
  8
5
 10
20.9129130398787311
 20
64.4389768580485196
 30
0.0
 11
18.9129130398787311
 21
64.4389768580485054
 31
0.0
  0
ARC
  5
B5C
  8
5
 10
18.9129130398787311
 20
78.938976858048477
 30
0.0
 40
0.5
 50
89.9999999999998721
 51
179.9999999999998863
  0
LINE
  5
B5D
  8
5
 10
20.9129130398787595
 20
79.4389768580484912
 30
0.0
 11
18.9129130398787311
 21
79.438976858048477
 31
0.0
  0
LINE
  5
B5E
  8
5
 10
40.9129130398787026
 20
79.4389768580484912
 30
0.0
 11
42.9129130398787311
 21
79.438976858048477
 31
0.0
  0
ARC
  5
B5F
  8
5
 10
42.9129130398787311
 20
78.938976858048477
 30
0.0
 40
0.5
 50
0.0000000000000579
 51
90.0000000000001137
  0
LINE
  5
B60
  8
5
 10
43.4129130398787311
 20
64.9389768580485054
 30
0.0
 11
43.4129130398787311
 21
78.938976858048477
 31
0.0
  0
LINE
  5
B61
  8
5
 10
40.9129130398787311
 20
64.4389768580485196
 30
0.0
 11
42.9129130398787311
 21
64.4389768580485054
 31
0.0
  0
ARC
  5
B62
  8
5
 10
42.9129130398787311
 20
64.9389768580485054
 30
0.0
 40
0.5
 50
270.0000000000001137
 51
0.0000000000000579
  0
LINE
  5
B67
  8
0
 10
40.4129130398787311
 20
70.438976858048477
 30
0.0
 11
40.4129130398787311
 21
73.438976858048477
 31
0.0
  0
LINE
  5
B68
  8
0
 10
21.4129130398787311
 20
70.438976858048477
 30
0.0
 11
21.4129130398787311
 21
73.438976858048477
 31
0.0
  0
LINE
  5
B6E
  8
0
 10
24.9129130398787311
 20
79.4389768580484628
 30
0.0
 11
21.4129130398787311
 21
73.438976858048477
 31
0.0
  0
LINE
  5
B6F
  8
0
 10
36.9129130398787311
 20
79.4389768580484628
 30
0.0
 11
40.4129130398787311
 21
73.438976858048477
 31
0.0
  0
LINE
  5
B70
  8
0
 10
36.9129130398787311
 20
64.4389768580484912
 30
0.0
 11
40.4129130398787311
 21
70.438976858048477
 31
0.0
  0
LINE
  5
B71
  8
0
 10
24.9129130398787311
 20
64.4389768580484912
 30
0.0
 11
21.4129130398787311
 21
70.438976858048477
 31
0.0
  0
LINE
  5
B72
  8
0
 10
31.4129130398787311
 20
76.438976858048477
 30
0.0
 11
30.4129130398787311
 21
76.438976858048477
 31
0.0
  0
LINE
  5
B73
  8
0
 10
31.4129130398787311
 20
67.438976858048477
 30
0.0
 11
30.4129130398787311
 21
67.438976858048477
 31
0.0
  0
ARC
  5
B76
  8
0
 10
31.4129130398787311
 20
71.9389768580484628
 30
0.0
 40
4.5
 50
270.0
 51
90.0
  0
ARC
  5
B77
  8
0
 10
30.4129130398787311
 20
71.9389768580484628
 30
0.0
 40
4.5
 50
90.0
 51
270.0
  0
LINE
  5
B7C
  8
0
 10
31.4129130398787311
 20
74.688976858048477
 30
0.0
 11
30.4129130398787311
 21
74.688976858048477
 31
0.0
  0
LINE
  5
B7D
  8
0
 10
31.4129130398787311
 20
69.188976858048477
 30
0.0
 11
30.4129130398787311
 21
69.188976858048477
 31
0.0
  0
ARC
  5
B80
  8
0
 10
30.4129130398787311
 20
71.9389768580484628
 30
0.0
 40
2.7500000000000142
 50
90.0
 51
270.0
  0
ARC
  5
B81
  8
0
 10
31.4129130398787311
 20
71.9389768580484628
 30
0.0
 40
2.7500000000000142
 50
270.0
 51
90.0
  0
LINE
  5
BC0
  8
1
 10
31.4129130398787311
 20
64.9389768580484628
 30
0.0
 11
31.4129130398787311
 21
78.9389768580484628
 31
0.0
  0
LINE
  5
BC1
  8
1
 10
30.4129130398787311
 20
64.9389768580484628
 30
0.0
 11
30.4129130398787311
 21
78.9389768580484628
 31
0.0
  0
TEXT
  5
BD4
  8
0
 10
26.3271987541644492
 20
76.938976858048477
 30
0.0
 40
2.0
  1
OK-AV
 41
0.9
 72
     1
 11
30.9129130398787311
 21
76.938976858048477
 31
0.0
  0
LINE
  5
BD5
  8
0
 10
30.9129130398787311
 20
76.438976858048477
 30
0.0
 11
30.9129130398787311
 21
76.438976858048477
 31
0.0
  0
LINE
  5
BDA
  8
0
 10
38.7129130398788277
 20
60.9389768580484699
 30
0.0
 11
35.9129130398787879
 21
60.9389768580484699
 31
0.0
  0
LINE
  5
BDB
  8
0
 10
40.9129130398787311
 20
31.538976858048489
 30
0.0
 11
40.9129130398787311
 21
20.9389768580484912
 31
0.0
  0
LINE
  5
BDD
  8
0
 10
20.9129130398786991
 20
31.538976858048489
 30
0.0
 11
20.9129130398787311
 21
20.9389768580484912
 31
0.0
  0
LINE
  5
BDF
  8
0
 10
21.1129130398787197
 20
20.7389768580484812
 30
0.0
 11
40.7129130398787424
 21
20.7389768580484812
 31
0.0
  0
LINE
  5
BE0
  8
0
 10
21.1129130398786913
 20
31.7389768580484883
 30
0.0
 11
26.4415880642689594
 21
31.7389768580484812
 31
0.0
  0
LINE
  5
BE1
  8
0
 10
40.9129130398787311
 20
20.9389768580484912
 30
0.0
 11
40.7129130398787424
 21
20.7389768580484812
 31
0.0
  0
LINE
  5
BE2
  8
0
 10
21.1129130398787197
 20
20.7389768580484812
 30
0.0
 11
20.9129130398787311
 21
20.9389768580484912
 31
0.0
  0
LINE
  5
BE3
  8
0
 10
21.1129130398786913
 20
31.7389768580484883
 30
0.0
 11
20.9129130398786991
 21
31.538976858048489
 31
0.0
  0
LINE
  5
BE4
  8
0
 10
40.7129130398787424
 20
31.7389768580484883
 30
0.0
 11
40.9129130398787311
 21
31.538976858048489
 31
0.0
  0
LINE
  5
BE5
  8
0
 10
38.8842390398787572
 20
31.7389768580484883
 30
0.0
 11
40.4129130398787311
 21
35.9389768580484912
 31
0.0
  0
LINE
  5
BE6
  8
0
 10
35.2022528935372918
 20
31.2389768580484883
 30
0.0
 11
36.9129130398787311
 21
35.9389768580484912
 31
0.0
  0
LINE
  5
BEA
  8
1
 10
30.9129130398787311
 20
38.438976858048477
 30
0.0
 11
30.9129130398787595
 21
18.2389768580484883
 31
0.0
  0
LINE
  5
BEB
  8
0
 10
21.4129130398788199
 20
35.938976858048477
 30
0.0
 11
40.4129130398787311
 21
35.938976858048477
 31
0.0
  0
LINE
  5
BEE
  8
0
 10
26.6235731862201703
 20
31.2389768580484883
 30
0.0
 11
24.9129130398787595
 21
35.9389768580484912
 31
0.0
  0
LINE
  5
BEF
  8
0
 10
22.9415870398787298
 20
31.7389768580484883
 30
0.0
 11
21.4129130398787595
 21
35.9389768580484912
 31
0.0
  0
LINE
  5
BF2
  8
5
 10
43.2129130398787424
 20
31.738976858048499
 30
0.0
 11
43.4129130398787311
 21
31.5389768580484997
 31
0.0
  0
LINE
  5
BF3
  8
5
 10
43.4129130398787311
 20
20.9389768580484983
 30
0.0
 11
43.2129130398787424
 21
20.7389768580484883
 31
0.0
  0
LINE
  5
BF4
  8
5
 10
43.4129130398787311
 20
31.5389768580484997
 30
0.0
 11
43.4129130398787311
 21
20.9389768580484983
 31
0.0
  0
LINE
  5
BF5
  8
5
 10
40.9129130398787026
 20
20.738976858048499
 30
0.0
 11
43.2129130398787424
 21
20.7389768580484883
 31
0.0
  0
LINE
  5
BF6
  8
5
 10
40.9129130398787026
 20
31.738976858048499
 30
0.0
 11
43.2129130398787424
 21
31.738976858048499
 31
0.0
  0
LINE
  5
BF7
  8
5
 10
20.9129130398787595
 20
31.738976858048499
 30
0.0
 11
18.6129130398787197
 21
31.738976858048499
 31
0.0
  0
LINE
  5
BF8
  8
5
 10
20.9129130398787595
 20
20.738976858048499
 30
0.0
 11
18.6129130398787197
 21
20.7389768580484883
 31
0.0
  0
LINE
  5
BF9
  8
5
 10
18.4129130398787311
 20
31.5389768580484997
 30
0.0
 11
18.4129130398787311
 21
20.9389768580484983
 31
0.0
  0
LINE
  5
BFA
  8
5
 10
18.4129130398787311
 20
20.9389768580484983
 30
0.0
 11
18.6129130398787197
 21
20.7389768580484883
 31
0.0
  0
LINE
  5
BFB
  8
5
 10
18.6129130398787197
 20
31.738976858048499
 30
0.0
 11
18.4129130398787311
 21
31.5389768580484997
 31
0.0
  0
LINE
  5
BFF
  8
0
 10
25.9129130398787915
 20
22.738976858048499
 30
0.0
 11
35.9129130398787879
 21
22.7389768580484883
 31
0.0
  0
LINE
  5
C00
  8
0
 10
25.9129130398787595
 20
31.2389768580484883
 30
0.0
 11
35.9129130398787595
 21
31.2389768580484883
 31
0.0
  0
LINE
  5
C01
  8
0
 10
35.9129130398787595
 20
31.2389768580484883
 30
0.0
 11
35.9129130398787595
 21
30.038976858048489
 31
0.0
  0
LINE
  5
C02
  8
0
 10
25.9129130398787595
 20
31.2389768580484706
 30
0.0
 11
25.9129130398787595
 21
30.038976858048489
 31
0.0
  0
LINE
  5
C04
  8
0
 10
35.3842380154885419
 20
31.7389768580484812
 30
0.0
 11
40.7129130398787424
 21
31.7389768580484883
 31
0.0
  0
LINE
  5
C05
  8
0
 10
25.9129130398787595
 20
30.038976858048489
 30
0.0
 11
35.9129130398787595
 21
30.038976858048489
 31
0.0
  0
LINE
  5
C06
  8
0
 10
25.9129130398787915
 20
23.9389768580485089
 30
0.0
 11
35.9129130398787879
 21
23.9389768580484912
 31
0.0
  0
LINE
  5
C2F
  8
0
 10
73.4129130398787311
 20
31.7389768580485203
 30
0.0
 11
73.4129130398787311
 21
20.738976858048531
 31
0.0
  0
LINE
  5
C30
  8
0
 10
88.4129130398787595
 20
31.7389768580485203
 30
0.0
 11
88.4129130398787311
 21
20.738976858048531
 31
0.0
  0
LINE
  5
C31
  8
0
 10
73.4129130398787311
 20
20.7389768580485203
 30
0.0
 11
88.4129130398787311
 21
20.7389768580485203
 31
0.0
  0
LINE
  5
C32
  8
0
 10
73.4129130398787311
 20
31.7389768580485203
 30
0.0
 11
88.4129130398787169
 21
31.7389768580485203
 31
0.0
  0
LINE
  5
C33
  8
1
 10
80.9129130398787311
 20
38.4389768580484912
 30
0.0
 11
80.9129130398787595
 21
18.2389768580485097
 31
0.0
  0
LINE
  5
C34
  8
0
 10
73.4129130398787311
 20
35.9389768580485125
 30
0.0
 11
88.4129130398787311
 21
35.9389768580484912
 31
0.0
  0
LINE
  5
C35
  8
0
 10
88.4129130398787737
 20
35.9389768580485125
 30
0.0
 11
88.4129130398787595
 21
31.7389768580485203
 31
0.0
  0
LINE
  5
C36
  8
0
 10
73.4129130398787311
 20
35.9389768580485125
 30
0.0
 11
73.4129130398787311
 21
31.7389768580485203
 31
0.0
  0
LINE
  5
C37
  8
0
 10
82.4129130398787737
 20
35.9389768580485125
 30
0.0
 11
82.4129130398786884
 21
31.738976858048499
 31
0.0
  0
LINE
  5
C38
  8
0
 10
79.4129130398787595
 20
35.9389768580485125
 30
0.0
 11
79.4129130398787311
 21
31.738976858048499
 31
0.0
  0
ARC
  5
C42
  8
0
 10
73.0629130398787368
 20
23.0889768580485004
 30
0.0
 40
0.35
 50
270.0
 51
0.0
  0
LINE
  5
C43
  8
0
 10
70.4129130398787453
 20
23.79518585804853
 30
0.0
 11
73.0629130398787368
 21
22.738976858048499
 31
0.0
  0
LINE
  5
C44
  8
0
 10
70.9514910398787322
 20
23.9389768580485196
 30
0.0
 11
72.6033270398787351
 21
23.280604858048509
 31
0.0
  0
LINE
  5
C45
  8
0
 10
70.9514910398787322
 20
23.9389768580485196
 30
0.0
 11
70.4129130398787453
 21
23.79518585804853
 31
0.0
  0
ARC
  5
C46
  8
0
 10
72.7329128811479961
 20
23.6057319422080596
 30
0.0
 40
0.3500001587307548
 50
248.2692664150546875
 51
359.9999862229017822
  0
ARC
  5
C47
  8
0
 10
72.7329128811479677
 20
30.3722207738889587
 30
0.0
 40
0.350000158730761
 50
0.0000137770987249
 51
111.7307335849449998
  0
LINE
  5
C48
  8
0
 10
73.0829130398787044
 20
30.3722208580485109
 30
0.0
 11
73.0829130398786901
 21
23.6057318580485109
 31
0.0
  0
LINE
  5
C49
  8
0
 10
70.9514910398787322
 20
30.0389768580485104
 30
0.0
 11
70.4129130398787311
 21
30.1827678580485106
 31
0.0
  0
LINE
  5
C4A
  8
0
 10
70.9514910398787322
 20
30.0389768580485104
 30
0.0
 11
72.6033270398787067
 21
30.69734785804852
 31
0.0
  0
LINE
  5
C4B
  8
0
 10
70.4129130398787311
 20
30.1827678580485106
 30
0.0
 11
73.0629130398787368
 21
31.2389768580485097
 31
0.0
  0
ARC
  5
C4C
  8
0
 10
73.0629130398787368
 20
30.8889768580485082
 30
0.0
 40
0.35
 50
0.0
 51
90.0
  0
LINE
  5
C50
  8
0
 10
69.9129130398787311
 20
28.488976858048499
 30
0.0
 11
69.9129130398787311
 21
25.4889768580485203
 31
0.0
  0
LINE
  5
C51
  8
0
 10
70.9129130398787595
 20
29.488976858048499
 30
0.0
 11
70.9129130398787026
 21
24.488976858048499
 31
0.0
  0
LINE
  5
C53
  8
0
 10
24.6129130398787517
 20
28.9889768580486304
 30
0.0
 11
37.2129130398787993
 21
28.9889768580484883
 31
0.0
  0
LINE
  5
C54
  8
0
 10
24.6129130398787197
 20
24.9889768580484883
 30
0.0
 11
37.2129130398787993
 21
24.9889768580484883
 31
0.0
  0
ARC
  5
C57
  8
0
 10
37.2129130398787993
 20
26.9889768580484883
 30
0.0
 40
2.0
 50
270.0
 51
90.0
  0
LINE
  5
C65
  8
0
 10
35.9129130398787879
 20
30.488976858048499
 30
0.0
 11
36.7129130398788277
 21
30.4889768580484883
 31
0.0
  0
ARC
  5
C66
  8
0
 10
36.7129130398787993
 20
26.9889768580484883
 30
0.0
 40
3.5
 50
270.0
 51
90.0
  0
LINE
  5
C67
  8
0
 10
35.9129130398787595
 20
23.4889768580484883
 30
0.0
 11
36.7129130398787993
 21
23.4889768580484883
 31
0.0
  0
ARC
  5
C68
  8
0
 10
25.1129130398787197
 20
26.9889768580484883
 30
0.0
 40
3.5
 50
90.0
 51
270.0
  0
ARC
  5
C69
  8
0
 10
24.6129130398787197
 20
26.9889768580484883
 30
0.0
 40
2.0
 50
90.0
 51
270.0
  0
LINE
  5
C6C
  8
0
 10
25.9129130398788199
 20
30.488976858048499
 30
0.0
 11
25.1129130398787801
 21
30.4889768580484883
 31
0.0
  0
LINE
  5
C6D
  8
0
 10
25.9129130398788483
 20
23.4889768580484883
 30
0.0
 11
25.1129130398788085
 21
23.4889768580484883
 31
0.0
  0
LINE
  5
C6E
  8
0
 10
25.9129130398787915
 20
28.9889768580486091
 30
0.0
 11
25.9129130398787915
 21
24.9889768580485097
 31
0.0
  0
LINE
  5
C6F
  8
0
 10
35.9129130398787595
 20
28.9889768580484883
 30
0.0
 11
35.9129130398787595
 21
24.9889768580484883
 31
0.0
  0
LINE
  5
C70
  8
0
 10
25.9129130398787915
 20
23.9389768580485196
 30
0.0
 11
25.9129130398787311
 21
22.7389768580484883
 31
0.0
  0
LINE
  5
C71
  8
0
 10
35.9129130398787879
 20
23.9389768580484912
 30
0.0
 11
35.9129130398787595
 21
22.7389768580484883
 31
0.0
  0
ARC
  5
C74
  8
0
 10
71.9129130398787311
 20
29.488976858048499
 30
0.0
 40
1.0
 50
0.0
 51
81.8282264792750738
  0
ARC
  5
C77
  8
0
 10
71.9129130398787311
 20
24.488976858048499
 30
0.0
 40
1.0
 50
180.0
 51
218.3668286191071957
  0
LINE
  5
C7A
  8
0
 10
70.9129130398787311
 20
28.488976858048499
 30
0.0
 11
70.9129130398787311
 21
25.4889768580485203
 31
0.0
  0
ARC
  5
C7C
  8
0
 10
70.4129130398787311
 20
25.4889768580485203
 30
0.0
 40
0.5
 50
180.0
 51
0.0
  0
LINE
  5
C7D
  8
0
 10
72.9129130398787311
 20
29.488976858048499
 30
0.0
 11
72.9129130398787311
 21
24.488976858048499
 31
0.0
  0
LINE
  5
C7E
  8
0
 10
37.2129130398787993
 20
28.4889768580484883
 30
0.0
 11
35.9129130398787595
 21
28.4889768580484883
 31
0.0
  0
ARC
  5
C7F
  8
0
 10
37.2129130398787993
 20
26.9889768580484883
 30
0.0
 40
1.5
 50
270.0
 51
90.0
  0
LINE
  5
C80
  8
0
 10
35.9129130398787595
 20
25.4889768580484883
 30
0.0
 11
37.2129130398787993
 21
25.4889768580484883
 31
0.0
  0
ARC
  5
C81
  8
0
 10
24.6129130398788085
 20
26.9889768580484883
 30
0.0
 40
1.5
 50
90.0
 51
270.0
  0
LINE
  5
C82
  8
0
 10
24.6129130398788085
 20
28.4889768580484883
 30
0.0
 11
25.9129130398788483
 21
28.4889768580484883
 31
0.0
  0
LINE
  5
C83
  8
0
 10
25.9129130398788483
 20
25.4889768580484883
 30
0.0
 11
24.6129130398788085
 21
25.4889768580484883
 31
0.0
  0
ARC
  5
C84
  8
0
 10
71.9129130398787311
 20
29.488976858048499
 30
0.0
 40
1.0
 50
141.633182844766992
 51
180.0
  0
ARC
  5
C85
  8
0
 10
71.9129130398787311
 20
24.488976858048499
 30
0.0
 40
1.0
 50
278.1717021942479846
 51
0.0
  0
LINE
  5
C86
  8
0
 10
72.9129130398787026
 20
28.488976858048499
 30
0.0
 11
73.0829130398787044
 21
28.488976858048499
 31
0.0
  0
LINE
  5
C87
  8
0
 10
72.9129130398787026
 20
25.4889768580484883
 30
0.0
 11
73.0829130398786901
 21
25.488976858048499
 31
0.0
  0
ARC
  5
C8D
  8
0
 10
70.4129130398787311
 20
28.488976858048499
 30
0.0
 40
0.5
 50
0.0
 51
180.0
  0
ARC
  5
C8F
  8
0
 10
91.4129130398787311
 20
28.488976858048499
 30
0.0
 40
0.5
 50
0.000000000000007
 51
180.0
  0
LINE
  5
C90
  8
0
 10
88.9129130398787453
 20
25.4889768580484883
 30
0.0
 11
88.742913039878772
 21
25.488976858048499
 31
0.0
  0
LINE
  5
C91
  8
0
 10
88.9129130398787453
 20
28.488976858048499
 30
0.0
 11
88.7429130398787436
 21
28.488976858048499
 31
0.0
  0
ARC
  5
C92
  8
0
 10
89.9129130398787311
 20
24.488976858048499
 30
0.0
 40
1.0
 50
180.0
 51
261.8282978057520154
  0
ARC
  5
C93
  8
0
 10
89.9129130398787311
 20
29.488976858048499
 30
0.0
 40
1.0
 50
0.000000000000007
 51
38.3668171552329511
  0
LINE
  5
C94
  8
0
 10
88.9129130398787311
 20
29.488976858048499
 30
0.0
 11
88.9129130398787311
 21
24.488976858048499
 31
0.0
  0
ARC
  5
C95
  8
0
 10
91.4129130398787311
 20
25.4889768580485203
 30
0.0
 40
0.5
 50
180.0
 51
0.000000000000007
  0
LINE
  5
C96
  8
0
 10
90.9129130398787311
 20
28.488976858048499
 30
0.0
 11
90.9129130398787311
 21
25.4889768580485203
 31
0.0
  0
ARC
  5
C97
  8
0
 10
89.9129130398787311
 20
24.488976858048499
 30
0.0
 40
1.0
 50
321.633171380892918
 51
0.000000000000007
  0
ARC
  5
C98
  8
0
 10
89.9129130398787311
 20
29.488976858048499
 30
0.0
 40
1.0
 50
98.1717735207249405
 51
180.0
  0
LINE
  5
C99
  8
0
 10
90.9129130398787169
 20
29.488976858048499
 30
0.0
 11
90.9129130398787595
 21
24.488976858048499
 31
0.0
  0
LINE
  5
C9A
  8
0
 10
91.9129130398787169
 20
28.488976858048499
 30
0.0
 11
91.9129130398787169
 21
25.4889768580485203
 31
0.0
  0
ARC
  5
C9B
  8
0
 10
88.7629130398787254
 20
30.8889768580485082
 30
0.0
 40
0.35
 50
90.0
 51
180.0
  0
LINE
  5
C9C
  8
0
 10
91.4129130398787311
 20
30.1827678580485106
 30
0.0
 11
88.7629130398787254
 21
31.2389768580485097
 31
0.0
  0
LINE
  5
C9D
  8
0
 10
90.8743350398787157
 20
30.0389768580485104
 30
0.0
 11
89.2224990398787554
 21
30.69734785804852
 31
0.0
  0
LINE
  5
C9E
  8
0
 10
90.8743350398787157
 20
30.0389768580485104
 30
0.0
 11
91.4129130398787311
 21
30.1827678580485106
 31
0.0
  0
LINE
  5
C9F
  8
0
 10
88.7429130398787436
 20
30.3722208580485109
 30
0.0
 11
88.742913039878772
 21
23.6057318580485109
 31
0.0
  0
ARC
  5
CA0
  8
0
 10
89.0929131986094944
 20
30.3722207738889693
 30
0.0
 40
0.3500001587307516
 50
68.269266415054517
 51
179.9999862229024075
  0
ARC
  5
CA1
  8
0
 10
89.092913198609466
 20
23.6057319422080703
 30
0.0
 40
0.350000158730761
 50
180.0000137770992978
 51
291.7307335849449146
  0
LINE
  5
CA2
  8
0
 10
90.8743350398787157
 20
23.9389768580485196
 30
0.0
 11
91.4129130398787026
 21
23.79518585804853
 31
0.0
  0
LINE
  5
CA3
  8
0
 10
90.8743350398787157
 20
23.9389768580485196
 30
0.0
 11
89.222499039878727
 21
23.280604858048509
 31
0.0
  0
LINE
  5
CA4
  8
0
 10
91.4129130398787026
 20
23.79518585804853
 30
0.0
 11
88.7629130398787254
 21
22.738976858048499
 31
0.0
  0
ARC
  5
CA5
  8
0
 10
88.7629130398787254
 20
23.0889768580485004
 30
0.0
 40
0.35
 50
180.0
 51
270.0
  0
LINE
  5
CA9
  8
0
 10
35.9129130398787595
 20
61.4389768580484628
 30
0.0
 11
35.9129130398787311
 21
64.4389768580484628
 31
0.0
  0
LINE
  5
CAA
  8
0
 10
25.9129130398787915
 20
61.4389768580484912
 30
0.0
 11
25.9129130398787915
 21
64.4389768580484912
 31
0.0
  0
LINE
  5
CAB
  8
0
 10
35.9129130398787311
 20
61.438976858048477
 30
0.0
 11
25.9129130398787595
 21
61.438976858048477
 31
0.0
  0
LINE
  5
CE6
  8
0
 10
39.2129130398787993
 20
63.938976858048477
 30
0.0
 11
35.9129130398787311
 21
63.9389768580484628
 31
0.0
  0
LINE
  5
CE7
  8
0
 10
39.2129130398787993
 20
61.938976858048477
 30
0.0
 11
35.9129130398787311
 21
61.938976858048477
 31
0.0
  0
ARC
  5
CE8
  8
0
 10
39.2129130398787993
 20
62.9389768580484628
 30
0.0
 40
1.0
 50
270.0
 51
90.0
  0
LINE
  5
CEC
  8
0
 10
35.9129130398787595
 20
61.4389768580484628
 30
0.0
 11
35.9129130398787595
 21
60.9389768580484699
 31
0.0
  0
ARC
  5
CED
  8
0
 10
38.7129130398788277
 20
61.4389768580484912
 30
0.0
 40
0.5
 50
270.0
 51
90.0
  0
LINE
  5
CEE
  8
0
 10
38.7129130398787993
 20
63.9389768580484414
 30
0.0
 11
38.7129130398788277
 21
64.438976858048477
 31
0.0
  0
LINE
  5
CEF
  8
0
 10
23.1129130398786913
 20
63.9389768580484414
 30
0.0
 11
23.1129130398786593
 21
64.438976858048477
 31
0.0
  0
ARC
  5
CF0
  8
0
 10
23.1129130398786593
 20
61.4389768580484912
 30
0.0
 40
0.5
 50
90.0
 51
270.0
  0
ARC
  5
CF1
  8
0
 10
22.6129130398786913
 20
62.9389768580484628
 30
0.0
 40
1.0
 50
90.0
 51
270.0
  0
LINE
  5
CF2
  8
0
 10
22.6129130398786913
 20
61.938976858048477
 30
0.0
 11
25.9129130398787595
 21
61.938976858048477
 31
0.0
  0
LINE
  5
CF3
  8
0
 10
22.6129130398786913
 20
63.938976858048477
 30
0.0
 11
25.9129130398787595
 21
63.9389768580484628
 31
0.0
  0
LINE
  5
CF4
  8
0
 10
25.9129130398787311
 20
61.4389768580484628
 30
0.0
 11
25.9129130398787311
 21
60.9389768580484699
 31
0.0
  0
LINE
  5
CF5
  8
0
 10
23.1129130398786593
 20
60.9389768580484699
 30
0.0
 11
25.9129130398786991
 21
60.9389768580484699
 31
0.0
  0
LINE
  5
CF6
  8
0
 10
23.1129130398786593
 20
82.938976858048477
 30
0.0
 11
25.9129130398786991
 21
82.938976858048477
 31
0.0
  0
LINE
  5
CF7
  8
0
 10
25.9129130398787311
 20
82.4389768580484912
 30
0.0
 11
25.9129130398787311
 21
82.938976858048477
 31
0.0
  0
LINE
  5
CF8
  8
0
 10
22.6129130398786913
 20
79.938976858048477
 30
0.0
 11
25.9129130398787595
 21
79.9389768580484912
 31
0.0
  0
LINE
  5
CF9
  8
0
 10
22.6129130398786913
 20
81.938976858048477
 30
0.0
 11
25.9129130398787595
 21
81.938976858048477
 31
0.0
  0
ARC
  5
CFA
  8
0
 10
22.6129130398786913
 20
80.9389768580484912
 30
0.0
 40
1.0
 50
90.0000000000000284
 51
270.0
  0
ARC
  5
CFB
  8
0
 10
23.1129130398786593
 20
82.4389768580484628
 30
0.0
 40
0.5
 50
90.0000000000000284
 51
270.0
  0
LINE
  5
CFC
  8
0
 10
23.1129130398786913
 20
79.9389768580485054
 30
0.0
 11
23.1129130398786593
 21
79.438976858048477
 31
0.0
  0
LINE
  5
CFD
  8
0
 10
35.9129130398787595
 20
82.4389768580484912
 30
0.0
 11
35.9129130398787595
 21
82.938976858048477
 31
0.0
  0
LINE
  5
CFE
  8
0
 10
35.9129130398787311
 20
82.438976858048477
 30
0.0
 11
25.9129130398787595
 21
82.438976858048477
 31
0.0
  0
LINE
  5
CFF
  8
0
 10
25.9129130398787915
 20
82.4389768580484628
 30
0.0
 11
25.9129130398787915
 21
79.4389768580484628
 31
0.0
  0
LINE
  5
D00
  8
0
 10
35.9129130398787595
 20
82.4389768580484912
 30
0.0
 11
35.9129130398787311
 21
79.4389768580484912
 31
0.0
  0
LINE
  5
D01
  8
0
 10
38.7129130398787993
 20
79.9389768580485054
 30
0.0
 11
38.7129130398788277
 21
79.438976858048477
 31
0.0
  0
ARC
  5
D02
  8
0
 10
38.7129130398788277
 20
82.4389768580484628
 30
0.0
 40
0.5
 50
270.0
 51
90.0000000000000284
  0
ARC
  5
D03
  8
0
 10
39.2129130398787993
 20
80.9389768580484912
 30
0.0
 40
1.0
 50
270.0
 51
90.0000000000000284
  0
LINE
  5
D04
  8
0
 10
39.2129130398787993
 20
81.938976858048477
 30
0.0
 11
35.9129130398787311
 21
81.938976858048477
 31
0.0
  0
LINE
  5
D05
  8
0
 10
39.2129130398787993
 20
79.938976858048477
 30
0.0
 11
35.9129130398787311
 21
79.9389768580484912
 31
0.0
  0
LINE
  5
D06
  8
0
 10
38.7129130398788277
 20
82.938976858048477
 30
0.0
 11
35.9129130398787879
 21
82.938976858048477
 31
0.0
  0
TEXT
  5
DED
  8
0
 62
     3
 10
0.0
 20
0.0
 30
0.0
 40
10.0
  1
AK2-VT-TCO
  7
STANDARD1
  0
ENDSEC
  0
EOF
