  0
SECTION
  2
HEADER
  9
$ACADVER
  1
AC1009
  9
$INSBASE
 10
0.0
 20
0.0
 30
0.0
  9
$EXTMIN
 10
-0.0204638472032742
 20
-2.960436562073669
 30
0.0
  9
$EXTMAX
 10
269.62232977831849
 20
198.8393327328539
 30
0.0
  9
$LIMMIN
 10
0.0
 20
0.0
  9
$LIMMAX
 10
270.0
 20
175.0
  9
$ORTHOMODE
 70
     0
  9
$REGENMODE
 70
     1
  9
$FILLMODE
 70
     1
  9
$QTEXTMODE
 70
     0
  9
$MIRRTEXT
 70
     0
  9
$DRAGMODE
 70
     2
  9
$LTSCALE
 40
10.0
  9
$OSMODE
 70
  3071
  9
$ATTMODE
 70
     1
  9
$TEXTSIZE
 40
0.2
  9
$TRACEWID
 40
0.05
  9
$TEXTSTYLE
  7
STANDARD
  9
$CLAYER
  8
0
  9
$CELTYPE
  6
BYLAYER
  9
$CECOLOR
 62
   256
  9
$DIMSCALE
 40
1.0
  9
$DIMASZ
 40
3.0
  9
$DIMEXO
 40
2.0
  9
$DIMDLI
 40
0.38
  9
$DIMRND
 40
0.0
  9
$DIMDLE
 40
0.0
  9
$DIMEXE
 40
2.0
  9
$DIMTP
 40
0.0
  9
$DIMTM
 40
0.0
  9
$DIMTXT
 40
3.2000000000000002
  9
$DIMCEN
 40
0.0
  9
$DIMTSZ
 40
0.0
  9
$DIMTOL
 70
     0
  9
$DIMLIM
 70
     0
  9
$DIMTIH
 70
     0
  9
$DIMTOH
 70
     0
  9
$DIMSE1
 70
     0
  9
$DIMSE2
 70
     0
  9
$DIMTAD
 70
     1
  9
$DIMZIN
 70
     0
  9
$DIMBLK
  1

  9
$DIMASO
 70
     1
  9
$DIMSHO
 70
     0
  9
$DIMPOST
  1

  9
$DIMAPOST
  1

  9
$DIMALT
 70
     0
  9
$DIMALTD
 70
     2
  9
$DIMALTF
 40
25.399999999999999
  9
$DIMLFAC
 40
1.0
  9
$DIMTOFL
 70
     1
  9
$DIMTVP
 40
1.6000000000000001
  9
$DIMTIX
 70
     1
  9
$DIMSOXD
 70
     0
  9
$DIMSAH
 70
     0
  9
$DIMBLK1
  1

  9
$DIMBLK2
  1

  9
$DIMSTYLE
  2
STANDARD
  9
$DIMCLRD
 70
     0
  9
$DIMCLRE
 70
     0
  9
$DIMCLRT
 70
     0
  9
$DIMTFAC
 40
1.0
  9
$DIMGAP
 40
0.09
  9
$LUNITS
 70
     2
  9
$LUPREC
 70
     4
  9
$SKETCHINC
 40
0.1
  9
$FILLETRAD
 40
0.0
  9
$AUNITS
 70
     1
  9
$AUPREC
 70
     4
  9
$MENU
  1
E:\r13\win\SUPPORT\ACAD
  9
$ELEVATION
 40
0.0
  9
$PELEVATION
 40
0.0
  9
$THICKNESS
 40
0.0
  9
$LIMCHECK
 70
     0
  9
$BLIPMODE
 70
     0
  9
$CHAMFERA
 40
0.0
  9
$CHAMFERB
 40
0.0
  9
$SKPOLY
 70
     0
  9
$TDCREATE
 40
2449839.7803587969
  9
$TDUPDATE
 40
2456597.5489930562
  9
$TDINDWG
 40
0.0225019792
  9
$TDUSRTIMER
 40
0.0225019792
  9
$USRTIMER
 70
     1
  9
$ANGBASE
 50
0.0
  9
$ANGDIR
 70
     0
  9
$PDMODE
 70
     0
  9
$PDSIZE
 40
0.0
  9
$PLINEWID
 40
0.0
  9
$COORDS
 70
     1
  9
$SPLFRAME
 70
     0
  9
$SPLINETYPE
 70
     6
  9
$SPLINESEGS
 70
     8
  9
$ATTDIA
 70
     0
  9
$ATTREQ
 70
     1
  9
$HANDLING
 70
     1
  9
$HANDSEED
  5
988
  9
$SURFTAB1
 70
     6
  9
$SURFTAB2
 70
     6
  9
$SURFTYPE
 70
     6
  9
$SURFU
 70
     6
  9
$SURFV
 70
     6
  9
$UCSNAME
  2

  9
$UCSORG
 10
0.0
 20
0.0
 30
0.0
  9
$UCSXDIR
 10
1.0
 20
0.0
 30
0.0
  9
$UCSYDIR
 10
0.0
 20
1.0
 30
0.0
  9
$PUCSNAME
  2

  9
$PUCSORG
 10
0.0
 20
0.0
 30
0.0
  9
$PUCSXDIR
 10
1.0
 20
0.0
 30
0.0
  9
$PUCSYDIR
 10
0.0
 20
1.0
 30
0.0
  9
$USERI1
 70
     0
  9
$USERI2
 70
     1
  9
$USERI3
 70
     1
  9
$USERI4
 70
     0
  9
$USERI5
 70
     0
  9
$USERR1
 40
0.0
  9
$USERR2
 40
0.0
  9
$USERR3
 40
0.0
  9
$USERR4
 40
0.0
  9
$USERR5
 40
0.0
  9
$WORLDVIEW
 70
     1
  9
$SHADEDGE
 70
     3
  9
$SHADEDIF
 70
    70
  9
$TILEMODE
 70
     1
  9
$MAXACTVP
 70
    16
  9
$PLIMCHECK
 70
     0
  9
$PEXTMIN
 10
1.0000000000000000E+020
 20
1.0000000000000000E+020
 30
1.0000000000000000E+020
  9
$PEXTMAX
 10
-1.0000000000000000E+020
 20
-1.0000000000000000E+020
 30
-1.0000000000000000E+020
  9
$PLIMMIN
 10
0.0
 20
0.0
  9
$PLIMMAX
 10
12.0
 20
9.0
  9
$UNITMODE
 70
     0
  9
$VISRETAIN
 70
     0
  9
$PLINEGEN
 70
     0
  9
$PSLTSCALE
 70
     0
  0
ENDSEC
  0
SECTION
  2
TABLES
  0
TABLE
  2
VPORT
 70
     1
  0
VPORT
  2
*ACTIVE
 70
     0
 10
0.0
 20
0.0
 11
1.0
 21
1.0
 12
140.5775086534062
 22
97.9405687028583
 13
0.0
 23
0.0
 14
10.0
 24
10.0
 15
10.0
 25
10.0
 16
0.0
 26
0.0
 36
1.0
 17
0.0
 27
0.0
 37
0.0
 40
203.6196173297071
 41
1.831871345029239
 42
50.0
 43
0.0
 44
0.0
 50
0.0
 51
0.0
 71
     0
 72
   500
 73
     1
 74
     0
 75
     0
 76
     0
 77
     0
 78
     2
  0
ENDTAB
  0
TABLE
  2
LTYPE
 70
     3
  0
LTYPE
  2
CONTINUOUS
 70
     0
  3
Solid Line
 72
    65
 73
     0
 40
0.0
  0
LTYPE
  2
CENTER
 70
     0
  3
____ _ ____ _ ____ _ ____ _ ____ _ ____ _ ____
 72
    65
 73
     4
 40
2.0
 49
1.25
 49
-0.25
 49
0.25
 49
-0.25
  0
LTYPE
  2
PHANTOM2
 70
     0
  3
___ _ _ ___ _ _ ___ _ _ ___ _ _
 72
    65
 73
     6
 40
1.25
 49
0.625
 49
-0.125
 49
0.125
 49
-0.125
 49
0.125
 49
-0.125
  0
ENDTAB
  0
TABLE
  2
LAYER
 70
     2
  0
LAYER
  2
0
 70
     0
 62
     7
  6
CONTINUOUS
  0
LAYER
  2
1
 70
     0
 62
     1
  6
CENTER
  0
ENDTAB
  0
TABLE
  2
STYLE
 70
     2
  0
STYLE
  2
STANDARD
 70
     0
 40
0.0
 41
1.0
 50
0.0
 71
     0
 42
0.2
  3
TXT
  4
BIGFONT
  0
STYLE
  2
STANDARD1
 70
     0
 40
0.0
 41
1.0
 50
0.0
 71
     0
 42
3.0
  3
txt
  4

  0
ENDTAB
  0
TABLE
  2
VIEW
 70
     1
  0
VIEW
  2
ALL
 70
     0
 40
179.5384664489153
 10
135.0
 20
89.769233224457665
 41
0.0
 11
0.0
 21
0.0
 31
1.0
 12
0.0
 22
0.0
 32
0.0
 42
0.0
 43
0.0
 44
0.0
 50
0.0
 71
     0
  0
ENDTAB
  0
TABLE
  2
UCS
 70
     0
  0
ENDTAB
  0
TABLE
  2
APPID
 70
    17
  0
APPID
  2
ACAD
 70
     0
  0
APPID
  2
GENIUS_GENODEF_13
 70
     0
  0
APPID
  2
GENIUS_GENOBJ-N-FIL_13
 70
     0
  0
APPID
  2
GENIUS_GENOREF_13
 70
     0
  0
APPID
  2
GENIUS_GENOBJ-N-CEN_13
 70
     0
  0
APPID
  2
GENIUS_GENCFG_13
 70
     0
  0
APPID
  2
GENIUS_GENCFG0_13
 70
     0
  0
APPID
  2
GENIUS_GENCFG1_13
 70
     0
  0
APPID
  2
GENIUS_GENCFG2_13
 70
     0
  0
APPID
  2
GENIUS_GENCFG3_13
 70
     0
  0
APPID
  2
GENIUS_GENCFG4_13
 70
     0
  0
APPID
  2
GENIUS_GEVCFG0_13
 70
     0
  0
APPID
  2
GENIUS_GENOENT_13
 70
     0
  0
APPID
  2
GENIUS_GENOBJ-N-CRS_13
 70
     0
  0
APPID
  2
GENIUS_GENOLIS_13
 70
     0
  0
APPID
  2
ACAD_MLEADERVER
 70
     0
  0
APPID
  2
ACAD_NAV_VCDISPLAY
 70
     0
  0
ENDTAB
  0
TABLE
  2
DIMSTYLE
 70
     1
  0
DIMSTYLE
  2
STANDARD
 70
     0
  3

  4

  5

  6

  7

 40
1.0
 41
0.18
 42
0.0625
 43
0.38
 44
0.18
 45
0.0
 46
0.0
 47
0.0
 48
0.0
140
0.18
141
0.09
142
0.0
143
25.399999999999999
144
1.0
145
0.0
146
1.0
147
0.09
 71
     0
 72
     0
 73
     1
 74
     1
 75
     0
 76
     0
 77
     0
 78
     0
170
     0
171
     2
172
     0
173
     0
174
     0
175
     0
176
     0
177
     0
178
     0
  0
ENDTAB
  0
ENDSEC
  0
SECTION
  2
BLOCKS
  0
BLOCK
  8
0
  2
$MODEL_SPACE
 70
     0
 10
0.0
 20
0.0
 30
0.0
  3
$MODEL_SPACE
  1

  0
ENDBLK
  5
78E
  8
0
  0
BLOCK
 67
     1
  8
0
  2
$PAPER_SPACE
 70
     0
 10
0.0
 20
0.0
 30
0.0
  3
$PAPER_SPACE
  1

  0
ENDBLK
  5
78C
 67
     1
  8
0
  0
ENDSEC
  0
SECTION
  2
ENTITIES
  0
ARC
  5
7E2
  8
0
 10
102.06431308914991
 20
111.4681516674484
 30
0.0
 40
3.0
 50
245.83532869987309
 51
8.0635170435829835
  0
ARC
  5
7E3
  8
0
 10
126.62594553365891
 20
111.4681516674484
 30
0.0
 40
3.0
 50
171.936482956417
 51
294.1646713001262
  0
ARC
  5
7E4
  8
0
 10
126.62594553365879
 20
166.2105137982594
 30
0.0
 40
3.0
 50
65.835328699873855
 51
188.06351704358289
  0
ARC
  5
7E5
  8
0
 10
102.06431308914991
 20
166.21051379825931
 30
0.0
 40
3.0
 50
351.93648295641708
 51
114.1646713001261
  0
CIRCLE
  5
7E6
  8
0
 10
114.34512931140441
 20
138.8393327328539
 30
0.0
 40
35.0
  0
CIRCLE
  5
7E7
  8
0
 10
114.34512931140441
 20
138.8393327328539
 30
0.0
 40
33.0
  0
LINE
  5
7E8
  8
0
 10
123.65560600702111
 20
165.7897013739026
 30
0.0
 11
127.1903618900696
 21
140.83933273285379
 31
0.0
  0
LINE
  5
7E9
  8
0
 10
123.65560600702111
 20
111.88896409180521
 30
0.0
 11
127.1903618900696
 21
136.83933273285399
 31
0.0
  0
LINE
  5
7EA
  8
0
 10
105.03465261578771
 20
111.88896409180521
 30
0.0
 11
101.4998967327393
 21
136.83933273285399
 31
0.0
  0
LINE
  5
7EB
  8
0
 10
105.03465261578771
 20
165.7897013739026
 30
0.0
 11
101.4998967327393
 21
140.83933273285379
 31
0.0
  0
CIRCLE
  5
7EC
  8
0
 10
114.34512931140441
 20
138.8393327328539
 30
0.0
 40
48.0
  0
LINE
  5
7ED
  8
0
 10
241.31037467499911
 20
125.8393327328539
 30
0.0
 11
240.62232977831849
 21
125.8393327328539
 31
0.0
  0
LINE
  5
7EE
  8
0
 10
241.3103746749992
 20
151.8393327328539
 30
0.0
 11
240.62232977831849
 21
151.8393327328539
 31
0.0
  0
LINE
  5
7EF
  8
0
 10
256.12232977831837
 20
151.8393327328539
 30
0.0
 11
256.12232977831837
 21
125.8393327328539
 31
0.0
  0
LINE
  5
7F0
  8
0
 10
256.12232977831837
 20
151.8393327328539
 30
0.0
 11
256.62232977831837
 21
151.3393327328539
 31
0.0
  0
LINE
  5
7F1
  8
0
 10
256.62232977831837
 20
126.3393327328539
 30
0.0
 11
256.12232977831837
 21
125.8393327328539
 31
0.0
  0
LINE
  5
7F2
  8
0
 10
256.62232977831837
 20
151.3393327328539
 30
0.0
 11
256.62232977831837
 21
126.3393327328539
 31
0.0
  0
ARC
  5
7F3
  8
0
 10
237.1218297783185
 20
147.41775183329099
 30
0.0
 40
6.0
 50
0.0
 51
36.660419158160593
  0
LINE
  5
7F4
  8
0
 10
240.6223297783184
 20
152.7637478389135
 30
0.0
 11
241.93495958981759
 21
151.00017858308769
 31
0.0
  0
ARC
  5
7F5
  8
0
 10
237.1218297783185
 20
130.2609136324167
 30
0.0
 40
6.0
 50
323.33958084183922
 51
0.0
  0
LINE
  5
7F6
  8
0
 10
256.12232977831837
 20
125.8393327328539
 30
0.0
 11
252.27400369136211
 21
125.8393327328539
 31
0.0
  0
LINE
  5
7F7
  8
0
 10
256.12232977831837
 20
151.8393327328539
 30
0.0
 11
252.274003691362
 21
151.8393327328539
 31
0.0
  0
CIRCLE
  5
7F8
  8
0
 10
114.3446293114044
 20
138.8393327328539
 30
0.0
 40
12.5
  0
LINE
  5
7FA
  8
0
 10
228.6223297783184
 20
88.839332732853933
 30
0.0
 11
228.6223297783184
 21
188.8393327328539
 31
0.0
  0
LINE
  5
7FB
  8
0
 10
226.6223297783184
 20
90.839332732853947
 30
0.0
 11
228.6223297783184
 21
88.839332732853933
 31
0.0
  0
LINE
  5
7FC
  8
0
 10
228.6223297783184
 20
188.8393327328539
 30
0.0
 11
226.6223297783184
 21
186.8393327328539
 31
0.0
  0
LINE
  5
7FD
  8
0
 10
226.6223297783184
 20
186.8393327328539
 30
0.0
 11
226.6223297783184
 21
90.839332732853947
 31
0.0
  0
LINE
  5
7FE
  8
0
 10
240.62232977831849
 20
90.339332732853904
 30
0.0
 11
240.62232977831849
 21
187.3393327328539
 31
0.0
  0
LINE
  5
7FF
  8
0
 10
243.1218297783185
 20
147.41775183329099
 30
0.0
 11
243.1218297783185
 21
130.2609136324167
 31
0.0
  0
LINE
  5
800
  8
0
 10
228.6223297783184
 20
88.839332732853933
 30
0.0
 11
239.1223297783184
 21
88.839332732853904
 31
0.0
  0
ARC
  5
801
  8
0
 10
239.1223297783184
 20
90.339332732853904
 30
0.0
 40
1.5
 50
270.0
 51
0.0
1001
GENIUS_GENODEF_13
1002
{
1000
HIER
1070
     0
1002
}
1002
{
1000
MANEDIT
1070
     0
1002
}
1002
{
1000
NOSEL
1070
     0
1002
}
1002
{
1000
BEHIND
1070
     0
1002
}
1002
{
1000
REACTOR
1002
}
1001
GENIUS_GENOBJ-N-FIL_13
1002
{
1000
OWNER
1000
GEN
1002
}
  0
LINE
  5
802
  8
1
 10
269.62232977831849
 20
138.8393327328539
 30
0.0
 11
216.6223297783184
 21
138.8393327328539
 31
0.0
1001
GENIUS_GENODEF_13
1002
{
1000
HIER
1070
     0
1002
}
1002
{
1000
MANEDIT
1070
     0
1002
}
1002
{
1000
NOSEL
1070
     0
1002
}
1002
{
1000
BEHIND
1070
     0
1002
}
1002
{
1000
REACTOR
1002
}
1001
GENIUS_GENOBJ-N-CEN_13
1002
{
1000
OWNER
1000
GEN
1002
}
  0
LINE
  5
803
  8
0
 10
240.62232977831849
 20
113.6580372783084
 30
0.0
 11
254.6218297783185
 21
128.29387818739929
 31
0.0
  0
LINE
  5
804
  8
0
 10
240.6223297783184
 20
124.91491762679431
 30
0.0
 11
241.93495958981759
 21
126.67848688262011
 31
0.0
  0
LINE
  5
805
  8
0
 10
240.62232977831849
 20
164.02062818739941
 30
0.0
 11
254.6218297783185
 21
149.38478727830841
 31
0.0
  0
LINE
  5
806
  8
0
 10
239.1223297783184
 20
188.8393327328539
 30
0.0
 11
228.6223297783184
 21
188.8393327328539
 31
0.0
  0
ARC
  5
807
  8
0
 10
239.1223297783184
 20
187.3393327328539
 30
0.0
 40
1.5
 50
0.0
 51
90.0
1001
GENIUS_GENODEF_13
1002
{
1000
HIER
1070
     0
1002
}
1002
{
1000
MANEDIT
1070
     0
1002
}
1002
{
1000
NOSEL
1070
     0
1002
}
1002
{
1000
BEHIND
1070
     0
1002
}
1002
{
1000
REACTOR
1002
}
1001
GENIUS_GENOBJ-N-FIL_13
1002
{
1000
OWNER
1000
GEN
1002
}
  0
LINE
  5
80B
  8
1
 10
174.34512931140441
 20
138.8393327328539
 30
0.0
 11
54.345129311404428
 21
138.8393327328539
 31
0.0
1001
GENIUS_GENOREF_13
1005
0
  0
CIRCLE
  5
80C
  8
0
 10
114.34512931140441
 20
138.8393327328539
 30
0.0
 40
50.0
  0
CIRCLE
  5
80D
  8
0
 10
114.34512931140441
 20
138.8393327328539
 30
0.0
 40
13.0
  0
CIRCLE
  5
80E
  8
0
 10
114.34512931140441
 20
138.8393327328539
 30
0.0
 40
5.0
  0
LINE
  5
80F
  8
1
 10
114.34512931140441
 20
198.8393327328539
 30
0.0
 11
114.34512931140441
 21
78.839332732853904
 31
0.0
1001
GENIUS_GENOREF_13
1005
0
  0
TEXT
  5
8F9
  8
0
 62
     3
 10
0.0
 20
0.0
 30
0.0
 40
10.0
  1
AL2SP100N
  7
STANDARD1
  0
ENDSEC
  0
EOF
