  0
SECTION
  2
HEADER
  9
$ACADVER
  1
AC1009
  9
$INSBASE
 10
0.0
 20
0.0
 30
0.0
  9
$EXTMIN
 10
-0.0204638472032742
 20
-2.960436562073669
 30
0.0
  9
$EXTMAX
 10
219.32267570267581
 20
169.49577476293291
 30
0.0
  9
$LIMMIN
 10
0.0
 20
0.0
  9
$LIMMAX
 10
270.0
 20
175.0
  9
$ORTHOMODE
 70
     0
  9
$REGENMODE
 70
     1
  9
$FILLMODE
 70
     1
  9
$QTEXTMODE
 70
     0
  9
$MIRRTEXT
 70
     0
  9
$DRAGMODE
 70
     2
  9
$LTSCALE
 40
10.0
  9
$OSMODE
 70
  3071
  9
$ATTMODE
 70
     1
  9
$TEXTSIZE
 40
0.2
  9
$TRACEWID
 40
0.05
  9
$TEXTSTYLE
  7
STANDARD
  9
$CLAYER
  8
0
  9
$CELTYPE
  6
BYLAYER
  9
$CECOLOR
 62
   256
  9
$DIMSCALE
 40
1.0
  9
$DIMASZ
 40
3.0
  9
$DIMEXO
 40
2.0
  9
$DIMDLI
 40
0.38
  9
$DIMRND
 40
0.0
  9
$DIMDLE
 40
0.0
  9
$DIMEXE
 40
2.0
  9
$DIMTP
 40
0.0
  9
$DIMTM
 40
0.0
  9
$DIMTXT
 40
3.2000000000000002
  9
$DIMCEN
 40
0.0
  9
$DIMTSZ
 40
0.0
  9
$DIMTOL
 70
     0
  9
$DIMLIM
 70
     0
  9
$DIMTIH
 70
     0
  9
$DIMTOH
 70
     0
  9
$DIMSE1
 70
     0
  9
$DIMSE2
 70
     0
  9
$DIMTAD
 70
     1
  9
$DIMZIN
 70
     0
  9
$DIMBLK
  1

  9
$DIMASO
 70
     1
  9
$DIMSHO
 70
     0
  9
$DIMPOST
  1

  9
$DIMAPOST
  1

  9
$DIMALT
 70
     0
  9
$DIMALTD
 70
     2
  9
$DIMALTF
 40
25.399999999999999
  9
$DIMLFAC
 40
1.0
  9
$DIMTOFL
 70
     1
  9
$DIMTVP
 40
1.6000000000000001
  9
$DIMTIX
 70
     1
  9
$DIMSOXD
 70
     0
  9
$DIMSAH
 70
     0
  9
$DIMBLK1
  1

  9
$DIMBLK2
  1

  9
$DIMSTYLE
  2
STANDARD
  9
$DIMCLRD
 70
     0
  9
$DIMCLRE
 70
     0
  9
$DIMCLRT
 70
     0
  9
$DIMTFAC
 40
1.0
  9
$DIMGAP
 40
0.09
  9
$LUNITS
 70
     2
  9
$LUPREC
 70
     4
  9
$SKETCHINC
 40
0.1
  9
$FILLETRAD
 40
0.0
  9
$AUNITS
 70
     1
  9
$AUPREC
 70
     4
  9
$MENU
  1
E:\r13\win\SUPPORT\ACAD
  9
$ELEVATION
 40
0.0
  9
$PELEVATION
 40
0.0
  9
$THICKNESS
 40
0.0
  9
$LIMCHECK
 70
     0
  9
$BLIPMODE
 70
     0
  9
$CHAMFERA
 40
0.0
  9
$CHAMFERB
 40
0.0
  9
$SKPOLY
 70
     0
  9
$TDCREATE
 40
2449839.7803587969
  9
$TDUPDATE
 40
2456597.5492525231
  9
$TDINDWG
 40
0.0255869097
  9
$TDUSRTIMER
 40
0.0255869097
  9
$USRTIMER
 70
     1
  9
$ANGBASE
 50
0.0
  9
$ANGDIR
 70
     0
  9
$PDMODE
 70
     0
  9
$PDSIZE
 40
0.0
  9
$PLINEWID
 40
0.0
  9
$COORDS
 70
     1
  9
$SPLFRAME
 70
     0
  9
$SPLINETYPE
 70
     6
  9
$SPLINESEGS
 70
     8
  9
$ATTDIA
 70
     0
  9
$ATTREQ
 70
     1
  9
$HANDLING
 70
     1
  9
$HANDSEED
  5
926
  9
$SURFTAB1
 70
     6
  9
$SURFTAB2
 70
     6
  9
$SURFTYPE
 70
     6
  9
$SURFU
 70
     6
  9
$SURFV
 70
     6
  9
$UCSNAME
  2

  9
$UCSORG
 10
0.0
 20
0.0
 30
0.0
  9
$UCSXDIR
 10
1.0
 20
0.0
 30
0.0
  9
$UCSYDIR
 10
0.0
 20
1.0
 30
0.0
  9
$PUCSNAME
  2

  9
$PUCSORG
 10
0.0
 20
0.0
 30
0.0
  9
$PUCSXDIR
 10
1.0
 20
0.0
 30
0.0
  9
$PUCSYDIR
 10
0.0
 20
1.0
 30
0.0
  9
$USERI1
 70
     0
  9
$USERI2
 70
     1
  9
$USERI3
 70
     1
  9
$USERI4
 70
     0
  9
$USERI5
 70
     0
  9
$USERR1
 40
0.0
  9
$USERR2
 40
0.0
  9
$USERR3
 40
0.0
  9
$USERR4
 40
0.0
  9
$USERR5
 40
0.0
  9
$WORLDVIEW
 70
     1
  9
$SHADEDGE
 70
     3
  9
$SHADEDIF
 70
    70
  9
$TILEMODE
 70
     1
  9
$MAXACTVP
 70
    16
  9
$PLIMCHECK
 70
     0
  9
$PEXTMIN
 10
1.0000000000000000E+020
 20
1.0000000000000000E+020
 30
1.0000000000000000E+020
  9
$PEXTMAX
 10
-1.0000000000000000E+020
 20
-1.0000000000000000E+020
 30
-1.0000000000000000E+020
  9
$PLIMMIN
 10
0.0
 20
0.0
  9
$PLIMMAX
 10
12.0
 20
9.0
  9
$UNITMODE
 70
     0
  9
$VISRETAIN
 70
     0
  9
$PLINEGEN
 70
     0
  9
$PSLTSCALE
 70
     0
  0
ENDSEC
  0
SECTION
  2
TABLES
  0
TABLE
  2
VPORT
 70
     1
  0
VPORT
  2
*ACTIVE
 70
     0
 10
0.0
 20
0.0
 11
1.0
 21
1.0
 12
139.91691953985361
 22
86.015320026217182
 13
0.0
 23
0.0
 14
10.0
 24
10.0
 15
10.0
 25
10.0
 16
0.0
 26
0.0
 36
1.0
 17
0.0
 27
0.0
 37
0.0
 40
179.56549770494291
 41
1.831871345029239
 42
50.0
 43
0.0
 44
0.0
 50
0.0
 51
0.0
 71
     0
 72
   500
 73
     1
 74
     0
 75
     0
 76
     0
 77
     0
 78
     2
  0
ENDTAB
  0
TABLE
  2
LTYPE
 70
     3
  0
LTYPE
  2
CONTINUOUS
 70
     0
  3
Solid Line
 72
    65
 73
     0
 40
0.0
  0
LTYPE
  2
CENTER
 70
     0
  3
____ _ ____ _ ____ _ ____ _ ____ _ ____ _ ____
 72
    65
 73
     4
 40
2.0
 49
1.25
 49
-0.25
 49
0.25
 49
-0.25
  0
LTYPE
  2
PHANTOM2
 70
     0
  3
___ _ _ ___ _ _ ___ _ _ ___ _ _
 72
    65
 73
     6
 40
1.25
 49
0.625
 49
-0.125
 49
0.125
 49
-0.125
 49
0.125
 49
-0.125
  0
ENDTAB
  0
TABLE
  2
LAYER
 70
     3
  0
LAYER
  2
0
 70
     0
 62
     7
  6
CONTINUOUS
  0
LAYER
  2
1
 70
     0
 62
     1
  6
CENTER
  0
LAYER
  2
3
 70
     0
 62
     3
  6
CONTINUOUS
  0
ENDTAB
  0
TABLE
  2
STYLE
 70
     2
  0
STYLE
  2
STANDARD
 70
     0
 40
0.0
 41
1.0
 50
0.0
 71
     0
 42
0.2
  3
TXT
  4
BIGFONT
  0
STYLE
  2
STANDARD1
 70
     0
 40
0.0
 41
1.0
 50
0.0
 71
     0
 42
3.0
  3
txt
  4

  0
ENDTAB
  0
TABLE
  2
VIEW
 70
     1
  0
VIEW
  2
ALL
 70
     0
 40
179.5384664489153
 10
135.0
 20
89.769233224457665
 41
0.0
 11
0.0
 21
0.0
 31
1.0
 12
0.0
 22
0.0
 32
0.0
 42
0.0
 43
0.0
 44
0.0
 50
0.0
 71
     0
  0
ENDTAB
  0
TABLE
  2
UCS
 70
     0
  0
ENDTAB
  0
TABLE
  2
APPID
 70
    17
  0
APPID
  2
ACAD
 70
     0
  0
APPID
  2
GENIUS_GENODEF_13
 70
     0
  0
APPID
  2
GENIUS_GENOBJ-N-FIL_13
 70
     0
  0
APPID
  2
GENIUS_GENOREF_13
 70
     0
  0
APPID
  2
GENIUS_GENOBJ-N-CEN_13
 70
     0
  0
APPID
  2
GENIUS_GENCFG_13
 70
     0
  0
APPID
  2
GENIUS_GENCFG0_13
 70
     0
  0
APPID
  2
GENIUS_GENCFG1_13
 70
     0
  0
APPID
  2
GENIUS_GENCFG2_13
 70
     0
  0
APPID
  2
GENIUS_GENCFG3_13
 70
     0
  0
APPID
  2
GENIUS_GENCFG4_13
 70
     0
  0
APPID
  2
GENIUS_GEVCFG0_13
 70
     0
  0
APPID
  2
GENIUS_GENOENT_13
 70
     0
  0
APPID
  2
GENIUS_GENOBJ-N-CRS_13
 70
     0
  0
APPID
  2
GENIUS_GENOLIS_13
 70
     0
  0
APPID
  2
ACAD_MLEADERVER
 70
     0
  0
APPID
  2
ACAD_NAV_VCDISPLAY
 70
     0
  0
ENDTAB
  0
TABLE
  2
DIMSTYLE
 70
     1
  0
DIMSTYLE
  2
STANDARD
 70
     0
  3

  4

  5

  6

  7

 40
1.0
 41
0.18
 42
0.0625
 43
0.38
 44
0.18
 45
0.0
 46
0.0
 47
0.0
 48
0.0
140
0.18
141
0.09
142
0.0
143
25.399999999999999
144
1.0
145
0.0
146
1.0
147
0.09
 71
     0
 72
     0
 73
     1
 74
     1
 75
     0
 76
     0
 77
     0
 78
     0
170
     0
171
     2
172
     0
173
     0
174
     0
175
     0
176
     0
177
     0
178
     0
  0
ENDTAB
  0
ENDSEC
  0
SECTION
  2
BLOCKS
  0
BLOCK
  8
0
  2
$MODEL_SPACE
 70
     0
 10
0.0
 20
0.0
 30
0.0
  3
$MODEL_SPACE
  1

  0
ENDBLK
  5
72C
  8
0
  0
BLOCK
 67
     1
  8
0
  2
$PAPER_SPACE
 70
     0
 10
0.0
 20
0.0
 30
0.0
  3
$PAPER_SPACE
  1

  0
ENDBLK
  5
72A
 67
     1
  8
0
  0
ENDSEC
  0
SECTION
  2
ENTITIES
  0
ARC
  5
780
  8
0
 10
71.504457611568796
 20
98.740156454000143
 30
0.0
 40
2.0
 50
242.0329948413254
 51
8.5931739995005412
  0
LINE
  5
781
  8
0
 10
70.692929089638113
 20
117.4957747629329
 30
0.0
 11
73.482005989769107
 21
99.038991545442485
 31
0.0
  0
LINE
  5
782
  8
0
 10
94.357248222036574
 20
117.4957747629329
 30
0.0
 11
91.568171321905595
 21
99.038991545442485
 31
0.0
  0
ARC
  5
783
  8
0
 10
93.545719700105906
 20
98.740156454000143
 30
0.0
 40
2.0
 50
171.40682600049951
 51
297.96700515867462
  0
LINE
  5
784
  8
0
 10
70.692929089638113
 20
121.4957747629329
 30
0.0
 11
73.482005989769107
 21
139.95255798042319
 31
0.0
  0
ARC
  5
785
  8
0
 10
71.504457611568796
 20
140.25139307186561
 30
0.0
 40
2.0
 50
351.40682600049939
 51
117.9670051586744
  0
ARC
  5
786
  8
0
 10
93.545719700105906
 20
140.25139307186561
 30
0.0
 40
2.0
 50
62.032994841325603
 51
188.59317399950049
  0
LINE
  5
787
  8
0
 10
94.357248222036574
 20
121.4957747629329
 30
0.0
 11
91.568171321905595
 21
139.95255798042319
 31
0.0
  0
CIRCLE
  5
788
  8
0
 10
82.525088655837351
 20
119.4957747629329
 30
0.0
 40
25.5
  0
LINE
  5
789
  8
0
 10
196.46786356545081
 20
128.07302124214181
 30
0.0
 11
195.32267570267581
 21
129.7708320691064
 31
0.0
  0
ARC
  5
78A
  8
0
 10
192.3226757026757
 20
125.2770567247879
 30
0.0
 40
5.0
 50
0.0
 51
34.00000000000297
  0
ARC
  5
78B
  8
0
 10
192.3226757026757
 20
113.7144928010779
 30
0.0
 40
5.0
 50
325.99999999999699
 51
0.0
  0
CIRCLE
  5
78C
  8
0
 10
82.525088655837351
 20
119.4957747629329
 30
0.0
 40
11.500000000000011
  0
LINE
  5
78D
  8
1
 10
176.3226757026757
 20
153.49577476293291
 30
0.0
 11
200.3226757026757
 21
153.49577476293291
 31
0.0
  0
LINE
  5
78E
  8
0
 10
208.82267570267581
 20
131.49577476293291
 30
0.0
 11
208.82267570267581
 21
107.4957747629329
 31
0.0
  0
LINE
  5
78F
  8
0
 10
209.32267570267581
 20
107.9957747629329
 30
0.0
 11
208.82267570267581
 21
107.4957747629329
 31
0.0
  0
LINE
  5
790
  8
0
 10
208.82267570267581
 20
131.49577476293291
 30
0.0
 11
209.32267570267581
 21
130.99577476293291
 31
0.0
  0
CIRCLE
  5
791
  8
0
 10
82.525088655837351
 20
119.4957747629329
 30
0.0
 40
38.500000000000028
  0
LINE
  5
792
  8
0
 10
182.8226757026757
 20
79.495774762932868
 30
0.0
 11
182.8226757026757
 21
159.49577476293291
 31
0.0
  0
LINE
  5
793
  8
0
 10
181.3226757026757
 20
80.995774762932868
 30
0.0
 11
182.8226757026757
 21
79.495774762932868
 31
0.0
  0
LINE
  5
794
  8
0
 10
182.8226757026757
 20
159.49577476293291
 30
0.0
 11
181.3226757026757
 21
157.99577476293291
 31
0.0
  0
LINE
  5
795
  8
1
 10
90.525088655837351
 20
153.49577476293291
 30
0.0
 11
74.525088655837351
 21
153.49577476293291
 31
0.0
  0
CIRCLE
  5
796
  8
3
 10
82.525088655837351
 20
153.49577476293291
 30
0.0
 40
3.0
  0
CIRCLE
  5
797
  8
0
 10
82.525088655837351
 20
153.49577476293291
 30
0.0
 40
2.5
  0
ARC
  5
798
  8
0
 10
193.8226757026757
 20
157.99577476293291
 30
0.0
 40
1.5
 50
0.0
 51
90.0
1001
GENIUS_GENODEF_13
1002
{
1000
HIER
1070
     0
1002
}
1002
{
1000
MANEDIT
1070
     0
1002
}
1002
{
1000
NOSEL
1070
     0
1002
}
1002
{
1000
BEHIND
1070
     0
1002
}
1002
{
1000
REACTOR
1002
}
1001
GENIUS_GENOBJ-N-FIL_13
1002
{
1000
OWNER
1000
GEN
1002
}
  0
LINE
  5
799
  8
0
 10
182.8226757026757
 20
159.49577476293291
 30
0.0
 11
193.8226757026757
 21
159.49577476293291
 31
0.0
  0
LINE
  5
79A
  8
0
 10
196.46786356545081
 20
110.9185282837239
 30
0.0
 11
195.32267570267581
 21
109.2207174567593
 31
0.0
  0
ARC
  5
79B
  8
0
 10
193.8226757026757
 20
80.995774762932896
 30
0.0
 40
1.5
 50
270.0
 51
0.0
1001
GENIUS_GENODEF_13
1002
{
1000
HIER
1070
     0
1002
}
1002
{
1000
MANEDIT
1070
     0
1002
}
1002
{
1000
NOSEL
1070
     0
1002
}
1002
{
1000
BEHIND
1070
     0
1002
}
1002
{
1000
REACTOR
1002
}
1001
GENIUS_GENOBJ-N-FIL_13
1002
{
1000
OWNER
1000
GEN
1002
}
  0
LINE
  5
79C
  8
0
 10
193.8226757026757
 20
79.495774762932882
 30
0.0
 11
182.8226757026757
 21
79.495774762932868
 31
0.0
  0
LINE
  5
79D
  8
1
 10
132.52508865583729
 20
119.4957747629329
 30
0.0
 11
32.525088655837351
 21
119.4957747629329
 31
0.0
1001
GENIUS_GENOREF_13
1005
0
  0
CIRCLE
  5
79E
  8
0
 10
82.525088655837351
 20
119.4957747629329
 30
0.0
 40
40.0
  0
CIRCLE
  5
79F
  8
0
 10
82.525088655837351
 20
119.4957747629329
 30
0.0
 40
12.0
  0
CIRCLE
  5
7A0
  8
0
 10
82.525088655837351
 20
119.4957747629329
 30
0.0
 40
5.0
  0
CIRCLE
  5
7A1
  8
0
 10
82.525088655837351
 20
119.4957747629329
 30
0.0
 40
26.5
  0
LINE
  5
7A2
  8
0
 10
197.3226757026757
 20
125.4128975669507
 30
0.0
 11
197.3226757026757
 21
113.7144928010779
 31
0.0
  0
LINE
  5
7A3
  8
0
 10
181.3226757026757
 20
80.995774762932868
 30
0.0
 11
181.3226757026757
 21
157.99577476293291
 31
0.0
  0
LINE
  5
7A4
  8
0
 10
195.3226757026757
 20
157.99577476293291
 30
0.0
 11
195.3226757026757
 21
80.995774762932896
 31
0.0
  0
LINE
  5
7A5
  8
1
 10
82.525088655837351
 20
169.49577476293291
 30
0.0
 11
82.525088655837351
 21
69.495774762932882
 31
0.0
1001
GENIUS_GENOREF_13
1005
0
  0
LINE
  5
7A6
  8
0
 10
203.23696141696149
 20
131.49577476293291
 30
0.0
 11
208.82267570267581
 21
131.49577476293291
 31
0.0
  0
LINE
  5
7A9
  8
0
 10
203.23696141696149
 20
107.4957747629329
 30
0.0
 11
208.82267570267581
 21
107.4957747629329
 31
0.0
  0
LINE
  5
7AA
  8
0
 10
209.32267570267581
 20
130.99577476293291
 30
0.0
 11
209.32267570267581
 21
107.9957747629329
 31
0.0
  0
LINE
  5
7AB
  8
0
 10
195.3226757026757
 20
139.19021920737731
 30
0.0
 11
206.32267570267581
 21
128.49577476293291
 31
0.0
  0
LINE
  5
7AC
  8
0
 10
195.3226757026757
 20
99.801330318488425
 30
0.0
 11
206.32267570267581
 21
110.4957747629329
 31
0.0
  0
LINE
  5
7AD
  8
1
 10
219.32267570267581
 20
119.4957747629329
 30
0.0
 11
171.3226757026757
 21
119.4957747629328
 31
0.0
1001
GENIUS_GENODEF_13
1002
{
1000
HIER
1070
     0
1002
}
1002
{
1000
MANEDIT
1070
     0
1002
}
1002
{
1000
NOSEL
1070
     0
1002
}
1002
{
1000
BEHIND
1070
     0
1002
}
1002
{
1000
REACTOR
1002
}
1001
GENIUS_GENOBJ-N-CEN_13
1002
{
1000
OWNER
1000
GEN
1002
}
  0
TEXT
  5
897
  8
0
 62
     3
 10
0.0
 20
0.0
 30
0.0
 40
10.0
  1
AL2SP80
  7
STANDARD1
  0
ENDSEC
  0
EOF
