  0
SECTION
  2
HEADER
  9
$ACADVER
  1
AC1009
  9
$INSBASE
 10
0.0
 20
0.0
 30
0.0
  9
$EXTMIN
 10
-0.0204638472032742
 20
-2.960436562073669
 30
0.0
  9
$EXTMAX
 10
219.8488248253374
 20
186.050087470189
 30
0.0
  9
$LIMMIN
 10
0.0
 20
0.0
  9
$LIMMAX
 10
270.0
 20
175.0
  9
$ORTHOMODE
 70
     1
  9
$REGENMODE
 70
     1
  9
$FILLMODE
 70
     1
  9
$QTEXTMODE
 70
     0
  9
$MIRRTEXT
 70
     0
  9
$DRAGMODE
 70
     2
  9
$LTSCALE
 40
10.0
  9
$OSMODE
 70
  3071
  9
$ATTMODE
 70
     1
  9
$TEXTSIZE
 40
0.2
  9
$TRACEWID
 40
0.05
  9
$TEXTSTYLE
  7
STANDARD
  9
$CLAYER
  8
0
  9
$CELTYPE
  6
BYLAYER
  9
$CECOLOR
 62
   256
  9
$DIMSCALE
 40
1.0
  9
$DIMASZ
 40
3.0
  9
$DIMEXO
 40
2.0
  9
$DIMDLI
 40
0.38
  9
$DIMRND
 40
0.0
  9
$DIMDLE
 40
0.0
  9
$DIMEXE
 40
2.0
  9
$DIMTP
 40
0.0
  9
$DIMTM
 40
0.0
  9
$DIMTXT
 40
3.2000000000000002
  9
$DIMCEN
 40
0.0
  9
$DIMTSZ
 40
0.0
  9
$DIMTOL
 70
     0
  9
$DIMLIM
 70
     0
  9
$DIMTIH
 70
     0
  9
$DIMTOH
 70
     0
  9
$DIMSE1
 70
     0
  9
$DIMSE2
 70
     0
  9
$DIMTAD
 70
     1
  9
$DIMZIN
 70
     0
  9
$DIMBLK
  1

  9
$DIMASO
 70
     1
  9
$DIMSHO
 70
     0
  9
$DIMPOST
  1

  9
$DIMAPOST
  1

  9
$DIMALT
 70
     0
  9
$DIMALTD
 70
     2
  9
$DIMALTF
 40
25.399999999999999
  9
$DIMLFAC
 40
1.0
  9
$DIMTOFL
 70
     1
  9
$DIMTVP
 40
1.6000000000000001
  9
$DIMTIX
 70
     1
  9
$DIMSOXD
 70
     0
  9
$DIMSAH
 70
     0
  9
$DIMBLK1
  1

  9
$DIMBLK2
  1

  9
$DIMSTYLE
  2
STANDARD
  9
$DIMCLRD
 70
     0
  9
$DIMCLRE
 70
     0
  9
$DIMCLRT
 70
     0
  9
$DIMTFAC
 40
1.0
  9
$DIMGAP
 40
0.09
  9
$LUNITS
 70
     2
  9
$LUPREC
 70
     4
  9
$SKETCHINC
 40
0.1
  9
$FILLETRAD
 40
0.0
  9
$AUNITS
 70
     1
  9
$AUPREC
 70
     4
  9
$MENU
  1
E:\r13\win\SUPPORT\ACAD
  9
$ELEVATION
 40
0.0
  9
$PELEVATION
 40
0.0
  9
$THICKNESS
 40
0.0
  9
$LIMCHECK
 70
     0
  9
$BLIPMODE
 70
     0
  9
$CHAMFERA
 40
0.0
  9
$CHAMFERB
 40
0.0
  9
$SKPOLY
 70
     0
  9
$TDCREATE
 40
2449839.7803587969
  9
$TDUPDATE
 40
2456597.5502074538
  9
$TDINDWG
 40
0.0492018981
  9
$TDUSRTIMER
 40
0.0492018981
  9
$USRTIMER
 70
     1
  9
$ANGBASE
 50
0.0
  9
$ANGDIR
 70
     0
  9
$PDMODE
 70
     0
  9
$PDSIZE
 40
0.0
  9
$PLINEWID
 40
0.0
  9
$COORDS
 70
     1
  9
$SPLFRAME
 70
     0
  9
$SPLINETYPE
 70
     6
  9
$SPLINESEGS
 70
     8
  9
$ATTDIA
 70
     0
  9
$ATTREQ
 70
     1
  9
$HANDLING
 70
     1
  9
$HANDSEED
  5
283D
  9
$SURFTAB1
 70
     6
  9
$SURFTAB2
 70
     6
  9
$SURFTYPE
 70
     6
  9
$SURFU
 70
     6
  9
$SURFV
 70
     6
  9
$UCSNAME
  2

  9
$UCSORG
 10
0.0
 20
0.0
 30
0.0
  9
$UCSXDIR
 10
1.0
 20
0.0
 30
0.0
  9
$UCSYDIR
 10
0.0
 20
1.0
 30
0.0
  9
$PUCSNAME
  2

  9
$PUCSORG
 10
0.0
 20
0.0
 30
0.0
  9
$PUCSXDIR
 10
1.0
 20
0.0
 30
0.0
  9
$PUCSYDIR
 10
0.0
 20
1.0
 30
0.0
  9
$USERI1
 70
     0
  9
$USERI2
 70
     1
  9
$USERI3
 70
     1
  9
$USERI4
 70
     0
  9
$USERI5
 70
     0
  9
$USERR1
 40
0.0
  9
$USERR2
 40
0.0
  9
$USERR3
 40
0.0
  9
$USERR4
 40
0.0
  9
$USERR5
 40
0.0
  9
$WORLDVIEW
 70
     1
  9
$SHADEDGE
 70
     3
  9
$SHADEDIF
 70
    70
  9
$TILEMODE
 70
     1
  9
$MAXACTVP
 70
    16
  9
$PLIMCHECK
 70
     0
  9
$PEXTMIN
 10
1.0000000000000000E+020
 20
1.0000000000000000E+020
 30
1.0000000000000000E+020
  9
$PEXTMAX
 10
-1.0000000000000000E+020
 20
-1.0000000000000000E+020
 30
-1.0000000000000000E+020
  9
$PLIMMIN
 10
0.0
 20
0.0
  9
$PLIMMAX
 10
12.0
 20
9.0
  9
$UNITMODE
 70
     0
  9
$VISRETAIN
 70
     0
  9
$PLINEGEN
 70
     0
  9
$PSLTSCALE
 70
     0
  0
ENDSEC
  0
SECTION
  2
TABLES
  0
TABLE
  2
VPORT
 70
     1
  0
VPORT
  2
*ACTIVE
 70
     0
 10
0.0
 20
0.0
 11
1.0
 21
1.0
 12
140.2233450787792
 22
91.541719418270915
 13
0.0
 23
0.0
 14
10.0
 24
10.0
 15
10.0
 25
10.0
 16
0.0
 26
0.0
 36
1.0
 17
0.0
 27
0.0
 37
0.0
 40
190.7234117822137
 41
1.831871345029239
 42
50.0
 43
0.0
 44
0.0
 50
0.0
 51
0.0
 71
     0
 72
   500
 73
     1
 74
     0
 75
     0
 76
     0
 77
     0
 78
     2
  0
ENDTAB
  0
TABLE
  2
LTYPE
 70
     4
  0
LTYPE
  2
CONTINUOUS
 70
     0
  3
Solid Line
 72
    65
 73
     0
 40
0.0
  0
LTYPE
  2
CENTER
 70
     0
  3
____ _ ____ _ ____ _ ____ _ ____ _ ____ _ ____
 72
    65
 73
     4
 40
2.0
 49
1.25
 49
-0.25
 49
0.25
 49
-0.25
  0
LTYPE
  2
HIDDEN
 70
     0
  3
__ __ __ __ __ __ __ __ __ __ __ __ __ __ __ __
 72
    65
 73
     2
 40
0.375
 49
0.25
 49
-0.125
  0
LTYPE
  2
PHANTOM2
 70
     0
  3
___ _ _ ___ _ _ ___ _ _ ___ _ _
 72
    65
 73
     6
 40
1.25
 49
0.625
 49
-0.125
 49
0.125
 49
-0.125
 49
0.125
 49
-0.125
  0
ENDTAB
  0
TABLE
  2
LAYER
 70
     4
  0
LAYER
  2
0
 70
     0
 62
     7
  6
CONTINUOUS
  0
LAYER
  2
1
 70
     0
 62
     1
  6
CENTER
  0
LAYER
  2
2
 70
     0
 62
     2
  6
HIDDEN
  0
LAYER
  2
ITTEN
 70
     0
 62
     1
  6
CENTER
  0
ENDTAB
  0
TABLE
  2
STYLE
 70
     2
  0
STYLE
  2
STANDARD
 70
     0
 40
0.0
 41
1.0
 50
0.0
 71
     0
 42
0.2
  3
TXT
  4
BIGFONT
  0
STYLE
  2
STANDARD1
 70
     0
 40
0.0
 41
1.0
 50
0.0
 71
     0
 42
3.0
  3
txt
  4

  0
ENDTAB
  0
TABLE
  2
VIEW
 70
     1
  0
VIEW
  2
ALL
 70
     0
 40
179.5384664489153
 10
135.0
 20
89.769233224457665
 41
0.0
 11
0.0
 21
0.0
 31
1.0
 12
0.0
 22
0.0
 32
0.0
 42
0.0
 43
0.0
 44
0.0
 50
0.0
 71
     0
  0
ENDTAB
  0
TABLE
  2
UCS
 70
     0
  0
ENDTAB
  0
TABLE
  2
APPID
 70
    17
  0
APPID
  2
ACAD
 70
     0
  0
APPID
  2
GENIUS_GENODEF_13
 70
     0
  0
APPID
  2
GENIUS_GENOBJ-N-FIL_13
 70
     0
  0
APPID
  2
GENIUS_GENOREF_13
 70
     0
  0
APPID
  2
GENIUS_GENOBJ-N-CEN_13
 70
     0
  0
APPID
  2
GENIUS_GENCFG_13
 70
     0
  0
APPID
  2
GENIUS_GENCFG0_13
 70
     0
  0
APPID
  2
GENIUS_GENCFG1_13
 70
     0
  0
APPID
  2
GENIUS_GENCFG2_13
 70
     0
  0
APPID
  2
GENIUS_GENCFG3_13
 70
     0
  0
APPID
  2
GENIUS_GENCFG4_13
 70
     0
  0
APPID
  2
GENIUS_GEVCFG0_13
 70
     0
  0
APPID
  2
GENIUS_GENOENT_13
 70
     0
  0
APPID
  2
GENIUS_GENOBJ-N-CRS_13
 70
     0
  0
APPID
  2
GENIUS_GENOLIS_13
 70
     0
  0
APPID
  2
ACAD_MLEADERVER
 70
     0
  0
APPID
  2
ACAD_NAV_VCDISPLAY
 70
     0
  0
ENDTAB
  0
TABLE
  2
DIMSTYLE
 70
     1
  0
DIMSTYLE
  2
STANDARD
 70
     0
  3

  4

  5

  6

  7

 40
1.0
 41
0.18
 42
0.0625
 43
0.38
 44
0.18
 45
0.0
 46
0.0
 47
0.0
 48
0.0
140
0.18
141
0.09
142
0.0
143
25.399999999999999
144
1.0
145
0.0
146
1.0
147
0.09
 71
     0
 72
     0
 73
     1
 74
     1
 75
     0
 76
     0
 77
     0
 78
     0
170
     0
171
     2
172
     0
173
     0
174
     0
175
     0
176
     0
177
     0
178
     0
  0
ENDTAB
  0
ENDSEC
  0
SECTION
  2
BLOCKS
  0
BLOCK
  8
0
  2
$MODEL_SPACE
 70
     0
 10
0.0
 20
0.0
 30
0.0
  3
$MODEL_SPACE
  1

  0
ENDBLK
  5
2683
  8
0
  0
BLOCK
 67
     1
  8
0
  2
$PAPER_SPACE
 70
     0
 10
0.0
 20
0.0
 30
0.0
  3
$PAPER_SPACE
  1

  0
ENDBLK
  5
2681
 67
     1
  8
0
  0
BLOCK
  8
0
  2
BATU
 70
     0
 10
0.0
 20
0.0
 30
0.0
  3
BATU
  1

  0
LINE
  5
25AE
  8
ITTEN
 10
0.5
 20
0.0
 30
0.0
 11
-0.5
 21
0.0
 31
0.0
  0
LINE
  5
25AF
  8
ITTEN
 10
0.0
 20
0.5
 30
0.0
 11
0.0
 21
-0.5
 31
0.0
  0
ENDBLK
  5
25B3
  8
0
  0
ENDSEC
  0
SECTION
  2
ENTITIES
  0
POINT
  5
5AB
  8
0
 10
26.177744047181552
 20
4.33471388768828
 30
0.0
1001
GENIUS_GENODEF_13
1002
{
1000
HIER
1070
    10
1002
}
1002
{
1000
MANEDIT
1070
     0
1002
}
1002
{
1000
NOSEL
1070
     0
1002
}
1002
{
1000
BEHIND
1070
     0
1002
}
1002
{
1000
REACTOR
1002
}
1001
GENIUS_GENOBJ-N-CRS_13
1002
{
1000
OWNER
1000
GEN
1002
}
1001
GENIUS_GENOENT_13
1002
{
1000
MYREF
1005
5AB
1002
}
1002
{
1000
GRP
1005
0
1002
}
1001
GENIUS_GENOLIS_13
1002
{
1000
ENT
1005
0
1005
0
1005
0
1005
5AA
1002
}
  0
LINE
  5
25FA
  8
1
 10
71.195162224683372
 20
23.549756683314431
 30
0.0
 11
71.195162224683372
 21
79.549756683314413
 31
0.0
1001
GENIUS_GENODEF_13
1002
{
1000
HIER
1070
     0
1002
}
1002
{
1000
MANEDIT
1070
     0
1002
}
1002
{
1000
NOSEL
1070
     0
1002
}
1002
{
1000
BEHIND
1070
     0
1002
}
1002
{
1000
REACTOR
1002
}
1001
GENIUS_GENOBJ-N-CEN_13
1002
{
1000
OWNER
1000
GEN
1002
}
  0
LINE
  5
25FB
  8
2
 10
78.195162224683429
 20
54.549756683314421
 30
0.0
 11
78.195162224683429
 21
60.549756683314129
 31
0.0
  0
LINE
  5
25FC
  8
2
 10
64.195162224683315
 20
54.549756683314421
 30
0.0
 11
64.195162224683315
 21
60.549756683314129
 31
0.0
  0
ARC
  5
25FD
  8
0
 10
41.371236154404649
 20
61.549756683314421
 30
0.0
 40
10.0
 50
184.5018113838122
 51
269.99999999999989
1001
GENIUS_GENODEF_13
1002
{
1000
HIER
1070
     0
1002
}
1002
{
1000
MANEDIT
1070
     0
1002
}
1002
{
1000
NOSEL
1070
     0
1002
}
1002
{
1000
BEHIND
1070
     0
1002
}
1002
{
1000
REACTOR
1002
}
1001
GENIUS_GENOBJ-N-FIL_13
1002
{
1000
OWNER
1000
GEN
1002
}
  0
ARC
  5
25FE
  8
0
 10
97.729072601267603
 20
61.549756683314421
 30
0.0
 40
10.0
 50
270.0
 51
358.66245925562248
1001
GENIUS_GENODEF_13
1002
{
1000
HIER
1070
     0
1002
}
1002
{
1000
MANEDIT
1070
     0
1002
}
1002
{
1000
NOSEL
1070
     0
1002
}
1002
{
1000
BEHIND
1070
     0
1002
}
1002
{
1000
REACTOR
1002
}
1001
GENIUS_GENOBJ-N-FIL_13
1002
{
1000
OWNER
1000
GEN
1002
}
  0
LINE
  5
25FF
  8
0
 10
41.371236154404642
 20
51.549756683314421
 30
0.0
 11
97.729072601269678
 21
51.549756683314421
 31
0.0
  0
INSERT
  5
2600
  8
0
  2
BATU
 10
71.195162224683372
 20
24.549756683314431
 30
0.0
 41
0.001
 42
0.001
 43
0.001
  0
LINE
  5
2601
  8
0
 10
58.695162224683372
 20
26.549756683314431
 30
0.0
 11
83.695162224683372
 21
26.549756683314431
 31
0.0
  0
LINE
  5
2602
  8
2
 10
63.195162224683308
 20
26.549756683314431
 30
0.0
 11
63.195162224683308
 21
54.549756683314421
 31
0.0
  0
LINE
  5
2603
  8
2
 10
79.195162224683429
 20
26.549756683314431
 30
0.0
 11
79.195162224683429
 21
54.549756683314421
 31
0.0
  0
LINE
  5
2604
  8
0
 10
58.258785601477911
 20
51.549756683314421
 30
0.0
 11
58.695162224683372
 21
26.549756683314431
 31
0.0
  0
LINE
  5
2609
  8
2
 10
79.195162224683429
 20
54.549756683314421
 30
0.0
 11
63.195162224683308
 21
54.549756683314421
 31
0.0
  0
LINE
  5
260B
  8
0
 10
83.695162224683372
 20
26.549756683314431
 30
0.0
 11
84.131538847888834
 21
51.549756683314421
 31
0.0
  0
ARC
  5
260C
  8
0
 10
71.195162224683372
 20
-23.450243316685569
 30
0.0
 40
100.0
 50
73.811733933739305
 51
108.4260628567708
  0
ARC
  5
260D
  8
0
 10
43.380066650694488
 20
60.038201741357398
 30
0.0
 40
12.0
 50
108.4260628567708
 51
176.52838365703931
1001
GENIUS_GENODEF_13
1002
{
1000
HIER
1070
     0
1002
}
1002
{
1000
MANEDIT
1070
     0
1002
}
1002
{
1000
NOSEL
1070
     0
1002
}
1002
{
1000
BEHIND
1070
     0
1002
}
1002
{
1000
REACTOR
1002
}
1001
GENIUS_GENOBJ-N-FIL_13
1002
{
1000
OWNER
1000
GEN
1002
}
  0
LINE
  5
260E
  8
2
 10
71.195162224683372
 20
64.59120856764153
 30
0.0
 11
78.195162224683429
 21
60.549756683314122
 31
0.0
  0
LINE
  5
260F
  8
2
 10
71.195162224683372
 20
64.59120856764153
 30
0.0
 11
64.195162224683315
 21
60.549756683314122
 31
0.0
  0
LINE
  5
2610
  8
2
 10
78.195162224683429
 20
60.549756683314129
 30
0.0
 11
64.195162224683315
 21
60.549756683314129
 31
0.0
  0
ARC
  5
2611
  8
0
 10
95.729072601267575
 20
61.06062723636061
 30
0.0
 40
12.0
 50
1.22099744106018
 51
73.811733933739177
1001
GENIUS_GENODEF_13
1002
{
1000
HIER
1070
     0
1002
}
1002
{
1000
MANEDIT
1070
     0
1002
}
1002
{
1000
NOSEL
1070
     0
1002
}
1002
{
1000
BEHIND
1070
     0
1002
}
1002
{
1000
REACTOR
1002
}
1001
GENIUS_GENOBJ-N-FIL_13
1002
{
1000
OWNER
1000
GEN
1002
}
  0
LINE
  5
2612
  8
1
 10
176.84882482533729
 20
23.549756683314431
 30
0.0
 11
176.84882482533729
 21
79.549756683314413
 31
0.0
1001
GENIUS_GENODEF_13
1002
{
1000
HIER
1070
     0
1002
}
1002
{
1000
MANEDIT
1070
     0
1002
}
1002
{
1000
NOSEL
1070
     0
1002
}
1002
{
1000
BEHIND
1070
     0
1002
}
1002
{
1000
REACTOR
1002
}
1001
GENIUS_GENOBJ-N-CEN_13
1002
{
1000
OWNER
1000
GEN
1002
}
  0
LINE
  5
2613
  8
2
 10
169.84882482533729
 20
54.549756683314421
 30
0.0
 11
169.84882482533729
 21
60.549756683314129
 31
0.0
  0
LINE
  5
2614
  8
2
 10
183.8488248253374
 20
54.549756683314421
 30
0.0
 11
183.8488248253374
 21
60.549756683314129
 31
0.0
  0
ARC
  5
2615
  8
0
 10
205.97402645399481
 20
61.549756683314421
 30
0.0
 40
10.0
 50
270.0
 51
358.66245925562248
1001
GENIUS_GENODEF_13
1002
{
1000
HIER
1070
     0
1002
}
1002
{
1000
MANEDIT
1070
     0
1002
}
1002
{
1000
NOSEL
1070
     0
1002
}
1002
{
1000
BEHIND
1070
     0
1002
}
1002
{
1000
REACTOR
1002
}
1001
GENIUS_GENOBJ-N-FIL_13
1002
{
1000
OWNER
1000
GEN
1002
}
  0
ARC
  5
2616
  8
0
 10
147.72362319667991
 20
61.549756683314421
 30
0.0
 40
10.0
 50
181.33754074437749
 51
270.0
1001
GENIUS_GENODEF_13
1002
{
1000
HIER
1070
     0
1002
}
1002
{
1000
MANEDIT
1070
     0
1002
}
1002
{
1000
NOSEL
1070
     0
1002
}
1002
{
1000
BEHIND
1070
     0
1002
}
1002
{
1000
REACTOR
1002
}
1001
GENIUS_GENOBJ-N-FIL_13
1002
{
1000
OWNER
1000
GEN
1002
}
  0
LINE
  5
2617
  8
0
 10
164.34882482533729
 20
26.549756683314431
 30
0.0
 11
189.34882482533729
 21
26.549756683314431
 31
0.0
  0
LINE
  5
2618
  8
0
 10
147.72362319667991
 20
51.549756683314421
 30
0.0
 11
205.97402645399691
 21
51.549756683314421
 31
0.0
  0
LINE
  5
2619
  8
0
 10
163.91244820213191
 20
51.549756683314421
 30
0.0
 11
164.34882482533729
 21
26.549756683314431
 31
0.0
  0
LINE
  5
261A
  8
2
 10
184.8488248253374
 20
26.549756683314431
 30
0.0
 11
184.8488248253374
 21
54.549756683314421
 31
0.0
  0
LINE
  5
261B
  8
2
 10
168.84882482533729
 20
26.549756683314431
 30
0.0
 11
168.84882482533729
 21
54.549756683314421
 31
0.0
  0
LINE
  5
261C
  8
0
 10
189.34882482533729
 20
26.549756683314431
 30
0.0
 11
189.78520144854281
 21
51.549756683314421
 31
0.0
  0
LINE
  5
2620
  8
2
 10
184.8488248253374
 20
54.549756683314421
 30
0.0
 11
168.84882482533729
 21
54.549756683314421
 31
0.0
  0
ARC
  5
2623
  8
0
 10
174.25753357326411
 20
-23.450243316685569
 30
0.0
 40
100.0
 50
88.515133269897433
 51
106.1882660662607
  0
ARC
  5
2624
  8
0
 10
149.72362319667991
 20
61.06062723636061
 30
0.0
 40
12.0
 50
106.18826606626079
 51
178.77900255893979
1001
GENIUS_GENODEF_13
1002
{
1000
HIER
1070
     0
1002
}
1002
{
1000
MANEDIT
1070
     0
1002
}
1002
{
1000
NOSEL
1070
     0
1002
}
1002
{
1000
BEHIND
1070
     0
1002
}
1002
{
1000
REACTOR
1002
}
1001
GENIUS_GENOBJ-N-FIL_13
1002
{
1000
OWNER
1000
GEN
1002
}
  0
ARC
  5
2625
  8
0
 10
179.44011607741061
 20
-23.450243316685569
 30
0.0
 40
100.0
 50
73.811733933739305
 51
91.484866730102567
  0
LINE
  5
2626
  8
2
 10
176.84882482533729
 20
64.59120856764153
 30
0.0
 11
169.84882482533729
 21
60.549756683314122
 31
0.0
  0
LINE
  5
2627
  8
2
 10
176.84882482533729
 20
64.59120856764153
 30
0.0
 11
183.8488248253374
 21
60.549756683314122
 31
0.0
  0
LINE
  5
2628
  8
2
 10
183.8488248253374
 20
60.549756683314129
 30
0.0
 11
169.84882482533729
 21
60.549756683314129
 31
0.0
  0
ARC
  5
2629
  8
0
 10
203.97402645399481
 20
61.06062723636061
 30
0.0
 40
12.0
 50
1.22099744106018
 51
73.811733933739177
1001
GENIUS_GENODEF_13
1002
{
1000
HIER
1070
     0
1002
}
1002
{
1000
MANEDIT
1070
     0
1002
}
1002
{
1000
NOSEL
1070
     0
1002
}
1002
{
1000
BEHIND
1070
     0
1002
}
1002
{
1000
REACTOR
1002
}
1001
GENIUS_GENOBJ-N-FIL_13
1002
{
1000
OWNER
1000
GEN
1002
}
  0
LINE
  5
262A
  8
1
 10
176.84882482533729
 20
100.050087470189
 30
0.0
 11
176.84882482533729
 21
186.050087470189
 31
0.0
1001
GENIUS_GENOREF_13
1005
0
  0
ARC
  5
262B
  8
0
 10
123.5213211610012
 20
155.22174218709219
 30
0.0
 40
22.69891978473883
 50
313.89582354740918
 51
20.38989073830151
  0
ARC
  5
262C
  8
0
 10
230.17632848967421
 20
155.22174218708909
 30
0.0
 40
22.69891978473883
 50
159.61010926169499
 51
226.10417645258721
  0
LINE
  5
262D
  8
1
 10
219.8488248253374
 20
143.050087470189
 30
0.0
 11
133.84882482533729
 21
143.050087470189
 31
0.0
1001
GENIUS_GENOREF_13
1005
0
  0
ARC
  5
262E
  8
0
 10
176.8488248253357
 20
88.351167685450221
 30
0.0
 40
22.69891978473883
 50
56.752966404552147
 51
123.24703359544441
  0
ARC
  5
262F
  8
0
 10
134.08348728063419
 20
108.94586881171669
 30
0.0
 40
22.69891978473883
 50
5.3243949759807432
 51
71.818462166872933
  0
ARC
  5
2630
  8
0
 10
161.66289395622189
 20
111.5161770936048
 30
0.0
 40
5.0
 50
185.3243949759925
 51
303.24703359544441
  0
ARC
  5
2631
  8
0
 10
142.7263478989733
 20
135.26185478171911
 30
0.0
 40
5.0
 50
133.89582354740929
 51
251.81846216687299
  0
ARC
  5
2632
  8
0
 10
219.6141623700386
 20
108.94586881171421
 30
0.0
 40
22.69891978473883
 50
108.1815378331235
 51
174.67560502401579
  0
ARC
  5
2633
  8
0
 10
192.03475569445101
 20
111.5161770936039
 30
0.0
 40
5.0
 50
236.7529664045523
 51
354.67560502401579
  0
ARC
  5
2634
  8
0
 10
210.97130175170099
 20
135.26185478171701
 30
0.0
 40
5.0
 50
288.18153783312363
 51
46.10417645258719
  0
ARC
  5
2635
  8
0
 10
153.115852983445
 20
192.3321113041311
 30
0.0
 40
22.69891978473883
 50
262.46725211883791
 51
328.96131930973007
  0
ARC
  5
2636
  8
0
 10
149.48472293895691
 20
164.87223053524551
 30
0.0
 40
5.0
 50
82.467252118837877
 51
200.3898907383134
  0
ARC
  5
2637
  8
0
 10
200.58179666723271
 20
192.33211130412971
 30
0.0
 40
22.69891978473883
 50
211.0386806902664
 51
277.5327478811588
  0
ARC
  5
2638
  8
0
 10
204.21292671171909
 20
164.87223053524389
 30
0.0
 40
5.0
 50
339.61010926169507
 51
97.532747881158585
  0
ARC
  5
2639
  8
0
 10
176.8488248253384
 20
178.050087470189
 30
0.0
 40
5.0
 50
31.038680690266499
 51
148.9613193097419
  0
TEXT
  5
27AE
  8
0
 62
     3
 10
0.0
 20
0.0
 30
0.0
 40
10.0
  1
ALHK80R
  7
STANDARD1
  0
ENDSEC
  0
EOF
