  0
SECTION
  2
HEADER
  9
$ACADVER
  1
AC1009
  9
$INSBASE
 10
0.0
 20
0.0
 30
0.0
  9
$EXTMIN
 10
-0.0204638472032742
 20
-2.960436562073669
 30
0.0
  9
$EXTMAX
 10
223.71197558248869
 20
163.0683319208274
 30
0.0
  9
$LIMMIN
 10
0.0
 20
0.0
  9
$LIMMAX
 10
270.0
 20
175.0
  9
$ORTHOMODE
 70
     1
  9
$REGENMODE
 70
     1
  9
$FILLMODE
 70
     1
  9
$QTEXTMODE
 70
     0
  9
$MIRRTEXT
 70
     0
  9
$DRAGMODE
 70
     2
  9
$LTSCALE
 40
10.0
  9
$OSMODE
 70
  3071
  9
$ATTMODE
 70
     1
  9
$TEXTSIZE
 40
0.2
  9
$TRACEWID
 40
0.05
  9
$TEXTSTYLE
  7
STANDARD
  9
$CLAYER
  8
0
  9
$CELTYPE
  6
BYLAYER
  9
$CECOLOR
 62
   256
  9
$DIMSCALE
 40
1.0
  9
$DIMASZ
 40
3.0
  9
$DIMEXO
 40
2.0
  9
$DIMDLI
 40
0.38
  9
$DIMRND
 40
0.0
  9
$DIMDLE
 40
0.0
  9
$DIMEXE
 40
2.0
  9
$DIMTP
 40
0.0
  9
$DIMTM
 40
0.0
  9
$DIMTXT
 40
3.2000000000000002
  9
$DIMCEN
 40
0.0
  9
$DIMTSZ
 40
0.0
  9
$DIMTOL
 70
     0
  9
$DIMLIM
 70
     0
  9
$DIMTIH
 70
     0
  9
$DIMTOH
 70
     0
  9
$DIMSE1
 70
     0
  9
$DIMSE2
 70
     0
  9
$DIMTAD
 70
     1
  9
$DIMZIN
 70
     0
  9
$DIMBLK
  1

  9
$DIMASO
 70
     1
  9
$DIMSHO
 70
     0
  9
$DIMPOST
  1

  9
$DIMAPOST
  1

  9
$DIMALT
 70
     0
  9
$DIMALTD
 70
     2
  9
$DIMALTF
 40
25.399999999999999
  9
$DIMLFAC
 40
1.0
  9
$DIMTOFL
 70
     1
  9
$DIMTVP
 40
1.6000000000000001
  9
$DIMTIX
 70
     1
  9
$DIMSOXD
 70
     0
  9
$DIMSAH
 70
     0
  9
$DIMBLK1
  1

  9
$DIMBLK2
  1

  9
$DIMSTYLE
  2
STANDARD
  9
$DIMCLRD
 70
     0
  9
$DIMCLRE
 70
     0
  9
$DIMCLRT
 70
     0
  9
$DIMTFAC
 40
1.0
  9
$DIMGAP
 40
0.09
  9
$LUNITS
 70
     2
  9
$LUPREC
 70
     4
  9
$SKETCHINC
 40
0.1
  9
$FILLETRAD
 40
0.0
  9
$AUNITS
 70
     1
  9
$AUPREC
 70
     4
  9
$MENU
  1
E:\r13\win\SUPPORT\ACAD
  9
$ELEVATION
 40
0.0
  9
$PELEVATION
 40
0.0
  9
$THICKNESS
 40
0.0
  9
$LIMCHECK
 70
     0
  9
$BLIPMODE
 70
     0
  9
$CHAMFERA
 40
0.0
  9
$CHAMFERB
 40
0.0
  9
$SKPOLY
 70
     0
  9
$TDCREATE
 40
2449839.7803587969
  9
$TDUPDATE
 40
2456597.5503590051
  9
$TDINDWG
 40
0.0391871412
  9
$TDUSRTIMER
 40
0.0391871412
  9
$USRTIMER
 70
     1
  9
$ANGBASE
 50
0.0
  9
$ANGDIR
 70
     0
  9
$PDMODE
 70
     0
  9
$PDSIZE
 40
0.0
  9
$PLINEWID
 40
0.0
  9
$COORDS
 70
     1
  9
$SPLFRAME
 70
     0
  9
$SPLINETYPE
 70
     6
  9
$SPLINESEGS
 70
     8
  9
$ATTDIA
 70
     0
  9
$ATTREQ
 70
     1
  9
$HANDLING
 70
     1
  9
$HANDSEED
  5
BF8
  9
$SURFTAB1
 70
     6
  9
$SURFTAB2
 70
     6
  9
$SURFTYPE
 70
     6
  9
$SURFU
 70
     6
  9
$SURFV
 70
     6
  9
$UCSNAME
  2

  9
$UCSORG
 10
0.0
 20
0.0
 30
0.0
  9
$UCSXDIR
 10
1.0
 20
0.0
 30
0.0
  9
$UCSYDIR
 10
0.0
 20
1.0
 30
0.0
  9
$PUCSNAME
  2

  9
$PUCSORG
 10
0.0
 20
0.0
 30
0.0
  9
$PUCSXDIR
 10
1.0
 20
0.0
 30
0.0
  9
$PUCSYDIR
 10
0.0
 20
1.0
 30
0.0
  9
$USERI1
 70
     0
  9
$USERI2
 70
     1
  9
$USERI3
 70
     1
  9
$USERI4
 70
     0
  9
$USERI5
 70
     0
  9
$USERR1
 40
0.0
  9
$USERR2
 40
0.0
  9
$USERR3
 40
0.0
  9
$USERR4
 40
0.0
  9
$USERR5
 40
0.0
  9
$WORLDVIEW
 70
     1
  9
$SHADEDGE
 70
     3
  9
$SHADEDIF
 70
    70
  9
$TILEMODE
 70
     1
  9
$MAXACTVP
 70
    16
  9
$PLIMCHECK
 70
     0
  9
$PEXTMIN
 10
1.0000000000000000E+020
 20
1.0000000000000000E+020
 30
1.0000000000000000E+020
  9
$PEXTMAX
 10
-1.0000000000000000E+020
 20
-1.0000000000000000E+020
 30
-1.0000000000000000E+020
  9
$PLIMMIN
 10
0.0
 20
0.0
  9
$PLIMMAX
 10
12.0
 20
9.0
  9
$UNITMODE
 70
     0
  9
$VISRETAIN
 70
     0
  9
$PLINEGEN
 70
     0
  9
$PSLTSCALE
 70
     0
  0
ENDSEC
  0
SECTION
  2
TABLES
  0
TABLE
  2
VPORT
 70
     1
  0
VPORT
  2
*ACTIVE
 70
     0
 10
0.0
 20
0.0
 11
1.0
 21
1.0
 12
139.91691953985361
 22
86.015320026217182
 13
0.0
 23
0.0
 14
10.0
 24
10.0
 15
10.0
 25
10.0
 16
0.0
 26
0.0
 36
1.0
 17
0.0
 27
0.0
 37
0.0
 40
179.56549770494291
 41
1.831871345029239
 42
50.0
 43
0.0
 44
0.0
 50
0.0
 51
0.0
 71
     0
 72
   500
 73
     1
 74
     0
 75
     0
 76
     0
 77
     0
 78
     2
  0
ENDTAB
  0
TABLE
  2
LTYPE
 70
     3
  0
LTYPE
  2
CONTINUOUS
 70
     0
  3
Solid Line
 72
    65
 73
     0
 40
0.0
  0
LTYPE
  2
CENTER
 70
     0
  3
____ _ ____ _ ____ _ ____ _ ____ _ ____ _ ____
 72
    65
 73
     4
 40
2.0
 49
1.25
 49
-0.25
 49
0.25
 49
-0.25
  0
LTYPE
  2
PHANTOM2
 70
     0
  3
___ _ _ ___ _ _ ___ _ _ ___ _ _
 72
    65
 73
     6
 40
1.25
 49
0.625
 49
-0.125
 49
0.125
 49
-0.125
 49
0.125
 49
-0.125
  0
ENDTAB
  0
TABLE
  2
LAYER
 70
     3
  0
LAYER
  2
0
 70
     0
 62
     7
  6
CONTINUOUS
  0
LAYER
  2
1
 70
     0
 62
     1
  6
CENTER
  0
LAYER
  2
ITTEN
 70
     0
 62
     1
  6
CENTER
  0
ENDTAB
  0
TABLE
  2
STYLE
 70
     2
  0
STYLE
  2
STANDARD
 70
     0
 40
0.0
 41
1.0
 50
0.0
 71
     0
 42
0.2
  3
TXT
  4
BIGFONT
  0
STYLE
  2
STANDARD1
 70
     0
 40
0.0
 41
1.0
 50
0.0
 71
     0
 42
3.0
  3
txt
  4

  0
ENDTAB
  0
TABLE
  2
VIEW
 70
     1
  0
VIEW
  2
ALL
 70
     0
 40
179.5384664489153
 10
135.0
 20
89.769233224457665
 41
0.0
 11
0.0
 21
0.0
 31
1.0
 12
0.0
 22
0.0
 32
0.0
 42
0.0
 43
0.0
 44
0.0
 50
0.0
 71
     0
  0
ENDTAB
  0
TABLE
  2
UCS
 70
     0
  0
ENDTAB
  0
TABLE
  2
APPID
 70
    17
  0
APPID
  2
ACAD
 70
     0
  0
APPID
  2
GENIUS_GENODEF_13
 70
     0
  0
APPID
  2
GENIUS_GENOBJ-N-FIL_13
 70
     0
  0
APPID
  2
GENIUS_GENOREF_13
 70
     0
  0
APPID
  2
GENIUS_GENOBJ-N-CEN_13
 70
     0
  0
APPID
  2
GENIUS_GENCFG_13
 70
     0
  0
APPID
  2
GENIUS_GENCFG0_13
 70
     0
  0
APPID
  2
GENIUS_GENCFG1_13
 70
     0
  0
APPID
  2
GENIUS_GENCFG2_13
 70
     0
  0
APPID
  2
GENIUS_GENCFG3_13
 70
     0
  0
APPID
  2
GENIUS_GENCFG4_13
 70
     0
  0
APPID
  2
GENIUS_GEVCFG0_13
 70
     0
  0
APPID
  2
GENIUS_GENOENT_13
 70
     0
  0
APPID
  2
GENIUS_GENOBJ-N-CRS_13
 70
     0
  0
APPID
  2
GENIUS_GENOLIS_13
 70
     0
  0
APPID
  2
ACAD_MLEADERVER
 70
     0
  0
APPID
  2
ACAD_NAV_VCDISPLAY
 70
     0
  0
ENDTAB
  0
TABLE
  2
DIMSTYLE
 70
     1
  0
DIMSTYLE
  2
STANDARD
 70
     0
  3

  4

  5

  6

  7

 40
1.0
 41
0.18
 42
0.0625
 43
0.38
 44
0.18
 45
0.0
 46
0.0
 47
0.0
 48
0.0
140
0.18
141
0.09
142
0.0
143
25.399999999999999
144
1.0
145
0.0
146
1.0
147
0.09
 71
     0
 72
     0
 73
     1
 74
     1
 75
     0
 76
     0
 77
     0
 78
     0
170
     0
171
     2
172
     0
173
     0
174
     0
175
     0
176
     0
177
     0
178
     0
  0
ENDTAB
  0
ENDSEC
  0
SECTION
  2
BLOCKS
  0
BLOCK
  8
0
  2
$MODEL_SPACE
 70
     0
 10
0.0
 20
0.0
 30
0.0
  3
$MODEL_SPACE
  1

  0
ENDBLK
  5
A40
  8
0
  0
BLOCK
 67
     1
  8
0
  2
$PAPER_SPACE
 70
     0
 10
0.0
 20
0.0
 30
0.0
  3
$PAPER_SPACE
  1

  0
ENDBLK
  5
A3E
 67
     1
  8
0
  0
BLOCK
  8
0
  2
BATU
 70
     0
 10
0.0
 20
0.0
 30
0.0
  3
BATU
  1

  0
LINE
  5
92D
  8
ITTEN
 10
0.5
 20
0.0
 30
0.0
 11
-0.5
 21
0.0
 31
0.0
  0
LINE
  5
92E
  8
ITTEN
 10
0.0
 20
0.5
 30
0.0
 11
0.0
 21
-0.5
 31
0.0
  0
ENDBLK
  5
932
  8
0
  0
ENDSEC
  0
SECTION
  2
ENTITIES
  0
POINT
  5
5AB
  8
0
 10
17.451829364787699
 20
2.8898092584588531
 30
0.0
1001
GENIUS_GENODEF_13
1002
{
1000
HIER
1070
    10
1002
}
1002
{
1000
MANEDIT
1070
     0
1002
}
1002
{
1000
NOSEL
1070
     0
1002
}
1002
{
1000
BEHIND
1070
     0
1002
}
1002
{
1000
REACTOR
1002
}
1001
GENIUS_GENOBJ-N-CRS_13
1002
{
1000
OWNER
1000
GEN
1002
}
1001
GENIUS_GENOENT_13
1002
{
1000
MYREF
1005
5AB
1002
}
1002
{
1000
GRP
1005
0
1002
}
1001
GENIUS_GENOLIS_13
1002
{
1000
ENT
1005
0
1005
0
1005
0
1005
5AA
1002
}
  0
LINE
  5
9CE
  8
0
 10
72.003833221363664
 20
152.56833181391059
 30
0.0
 11
72.003833221363664
 21
67.568331813910675
 31
0.0
  0
LINE
  5
9CF
  8
0
 10
39.00383322136372
 20
123.0683318139107
 30
0.0
 11
39.00383322136372
 21
97.068331813910675
 31
0.0
  0
LINE
  5
9D0
  8
0
 10
57.00383322136372
 20
152.56833181391059
 30
0.0
 11
57.00383322136372
 21
67.568331813910675
 31
0.0
  0
LINE
  5
9D1
  8
0
 10
56.00383322136372
 20
123.0683318139107
 30
0.0
 11
56.00383322136372
 21
106.03505596090901
 31
0.0
  0
ARC
  5
9D2
  8
0
 10
64.50383322136372
 20
67.568331813910675
 30
0.0
 40
7.5
 50
180.0
 51
0.0
  0
LINE
  5
9D3
  8
1
 10
36.00383322136372
 20
110.0683318139106
 30
0.0
 11
75.003833221363664
 21
110.0683318139106
 31
0.0
1001
GENIUS_GENODEF_13
1002
{
1000
HIER
1070
     0
1002
}
1002
{
1000
MANEDIT
1070
     0
1002
}
1002
{
1000
NOSEL
1070
     0
1002
}
1002
{
1000
BEHIND
1070
     0
1002
}
1002
{
1000
REACTOR
1002
}
1001
GENIUS_GENOBJ-N-CEN_13
1002
{
1000
OWNER
1000
GEN
1002
}
  0
LINE
  5
9D4
  8
0
 10
48.197644837616217
 20
96.95857720725904
 30
0.0
 11
57.00383322136372
 21
92.453017911183395
 31
0.0
  0
LINE
  5
9D5
  8
0
 10
56.003833221363692
 20
106.03505596090901
 30
0.0
 11
57.00383322136372
 21
105.3522900949323
 31
0.0
  0
LINE
  5
9D6
  8
0
 10
47.742163619977077
 20
97.068331813910675
 30
0.0
 11
39.00383322136372
 21
97.068331813910675
 31
0.0
  0
LINE
  5
9D7
  8
0
 10
39.004333221363709
 20
110.0683318139106
 30
0.0
 11
39.003333221363732
 21
110.0683318139106
 31
0.0
  0
LINE
  5
9D8
  8
0
 10
39.00383322136372
 20
110.06883181391061
 30
0.0
 11
39.00383322136372
 21
110.0678318139106
 31
0.0
  0
ARC
  5
9D9
  8
0
 10
47.742163619977042
 20
96.068331813910675
 30
0.0
 40
1.0
 50
62.904099107699537
 51
90.0
1001
GENIUS_GENODEF_13
1002
{
1000
HIER
1070
     0
1002
}
1002
{
1000
MANEDIT
1070
     0
1002
}
1002
{
1000
NOSEL
1070
     0
1002
}
1002
{
1000
BEHIND
1070
     0
1002
}
1002
{
1000
REACTOR
1002
}
1001
GENIUS_GENOBJ-N-FIL_13
1002
{
1000
OWNER
1000
GEN
1002
}
  0
ARC
  5
9DA
  8
0
 10
47.742163619977077
 20
96.068331813910689
 30
0.0
 40
1.0
 50
62.904099107699537
 51
90.0
1001
GENIUS_GENODEF_13
1002
{
1000
HIER
1070
     0
1002
}
1002
{
1000
MANEDIT
1070
     0
1002
}
1002
{
1000
NOSEL
1070
     0
1002
}
1002
{
1000
BEHIND
1070
     0
1002
}
1002
{
1000
REACTOR
1002
}
1001
GENIUS_GENOBJ-N-FIL_13
1002
{
1000
OWNER
1000
GEN
1002
}
  0
LINE
  5
9DB
  8
0
 10
57.00383322136372
 20
140.25432809340711
 30
0.0
 11
43.092685503054717
 21
123.43107795685999
 31
0.0
  0
LINE
  5
9DC
  8
0
 10
57.00383322136372
 20
128.3861802358243
 30
0.0
 11
54.449158046490417
 21
124.7383747290918
 31
0.0
  0
LINE
  5
9DD
  8
0
 10
39.00383322136372
 20
123.0683318139107
 30
0.0
 11
42.322031545902661
 21
123.0683318139107
 31
0.0
  0
ARC
  5
9DE
  8
0
 10
42.322031545902661
 20
124.0683318139107
 30
0.0
 40
1.0
 50
270.0
 51
320.41265000386522
1001
GENIUS_GENODEF_13
1002
{
1000
HIER
1070
     0
1002
}
1002
{
1000
MANEDIT
1070
     0
1002
}
1002
{
1000
NOSEL
1070
     0
1002
}
1002
{
1000
BEHIND
1070
     0
1002
}
1002
{
1000
REACTOR
1002
}
1001
GENIUS_GENOBJ-N-FIL_13
1002
{
1000
OWNER
1000
GEN
1002
}
  0
ARC
  5
9DF
  8
0
 10
55.318438684776929
 20
124.12958962184609
 30
0.0
 40
1.06125780793544
 50
144.99521259501489
 51
270.00000000001228
  0
LINE
  5
9E0
  8
0
 10
55.318438684777163
 20
123.0683318139107
 30
0.0
 11
56.00383322136372
 21
123.0683318139107
 31
0.0
  0
ARC
  5
9E1
  8
0
 10
64.50383322136372
 20
152.56833181391059
 30
0.0
 40
7.5
 50
0.0
 51
180.0
  0
LINE
  5
9E2
  8
1
 10
173.71197558248869
 20
107.0683318139106
 30
0.0
 11
173.71197558248869
 21
163.0683319208274
 31
0.0
1001
GENIUS_GENODEF_13
1002
{
1000
HIER
1070
     0
1002
}
1002
{
1000
MANEDIT
1070
     0
1002
}
1002
{
1000
NOSEL
1070
     0
1002
}
1002
{
1000
BEHIND
1070
     0
1002
}
1002
{
1000
REACTOR
1002
}
1001
GENIUS_GENOBJ-N-CEN_13
1002
{
1000
OWNER
1000
GEN
1002
}
  0
ARC
  5
9E3
  8
0
 10
173.71197558248869
 20
110.0683319208274
 30
0.0
 40
15.0
 50
125.52034500000001
 51
174.47965500000001
  0
CIRCLE
  5
9E4
  8
0
 10
173.71197558248869
 20
110.0683319208274
 30
0.0
 40
13.0
  0
CIRCLE
  5
9E5
  8
0
 10
173.71197558248869
 20
110.0683319208274
 30
0.0
 40
50.0
  0
ARC
  5
9E6
  8
0
 10
173.71197558248869
 20
110.0683319208274
 30
0.0
 40
32.0
 50
112.1365394141224
 51
187.86064400000001
  0
ARC
  5
9E7
  8
0
 10
173.71197558248869
 20
110.0683319208274
 30
0.0
 40
32.0
 50
352.13669372820118
 51
67.860643999999994
  0
ARC
  5
9E8
  8
0
 10
173.71197558248869
 20
110.0683319208274
 30
0.0
 40
15.0
 50
5.5203449999999989
 51
54.479655000000008
  0
CIRCLE
  5
9E9
  8
0
 10
173.71197558248869
 20
110.0683319208274
 30
0.0
 40
5.0
  0
CIRCLE
  5
9EA
  8
0
 10
173.71197558248869
 20
110.0683318139106
 30
0.0
 40
42.5
  0
CIRCLE
  5
9EB
  8
0
 10
173.71197558248869
 20
110.0683318139106
 30
0.0
 40
40.0
  0
LINE
  5
9EC
  8
1
 10
176.31005179655921
 20
111.5683318092043
 30
0.0
 11
127.81262918020541
 21
83.568331923785806
 31
0.0
1001
GENIUS_GENODEF_13
1002
{
1000
HIER
1070
     0
1002
}
1002
{
1000
MANEDIT
1070
     0
1002
}
1002
{
1000
NOSEL
1070
     0
1002
}
1002
{
1000
BEHIND
1070
     0
1002
}
1002
{
1000
REACTOR
1002
}
1001
GENIUS_GENOBJ-N-CEN_13
1002
{
1000
OWNER
1000
GEN
1002
}
  0
LINE
  5
9ED
  8
0
 10
154.7972235824887
 20
90.765047920827413
 30
0.0
 11
167.49642458248869
 21
96.416704920827428
 31
0.0
  0
ARC
  5
9EE
  8
0
 10
173.71197558248869
 20
110.0683319208274
 30
0.0
 40
32.0
 50
232.13935599999999
 51
307.86429261029508
  0
ARC
  5
9EF
  8
0
 10
156.22029858248871
 20
87.567414920827446
 30
0.0
 40
3.5
 50
113.990993
 51
232.13935699999999
  0
LINE
  5
9F0
  8
0
 10
158.78154358248869
 20
111.5113199208274
 30
0.0
 11
147.53746558248869
 21
103.3393179208274
 31
0.0
  0
ARC
  5
9F1
  8
0
 10
145.4797715824887
 20
106.1705539208273
 30
0.0
 40
3.5
 50
187.86064400000001
 51
306.009006
  0
LINE
  5
9F2
  8
1
 10
171.1138993684182
 20
111.5683318092043
 30
0.0
 11
219.61132198477199
 21
83.568331923785806
 31
0.0
1001
GENIUS_GENODEF_13
1002
{
1000
HIER
1070
     0
1002
}
1002
{
1000
MANEDIT
1070
     0
1002
}
1002
{
1000
NOSEL
1070
     0
1002
}
1002
{
1000
BEHIND
1070
     0
1002
}
1002
{
1000
REACTOR
1002
}
1001
GENIUS_GENOBJ-N-CEN_13
1002
{
1000
OWNER
1000
GEN
1002
}
  0
LINE
  5
9F3
  8
0
 10
199.88648594027899
 20
103.33931766079149
 30
0.0
 11
188.64240758248869
 21
111.5113199208274
 31
0.0
  0
LINE
  5
9F4
  8
0
 10
179.9275265824887
 20
96.416704920827428
 30
0.0
 11
192.62751501606749
 21
90.764697481103099
 31
0.0
  0
ARC
  5
9F5
  8
0
 10
173.71197558248869
 20
110.0683319208274
 30
0.0
 40
15.0
 50
245.52034499999999
 51
294.47965499999998
  0
ARC
  5
9F6
  8
0
 10
191.2036525824887
 20
87.567414920827446
 30
0.0
 40
3.5
 50
307.86064399999998
 51
66.009006999999997
  0
INSERT
  5
9F7
  8
0
  2
BATU
 10
173.71197558248869
 20
110.0683318139106
 30
0.0
 41
0.001
 42
0.001
 43
0.001
  0
ARC
  5
9F8
  8
0
 10
201.94417958248869
 20
106.1705539208273
 30
0.0
 40
3.5
 50
233.990993
 51
352.13935600000002
  0
LINE
  5
9F9
  8
1
 10
186.71197558248869
 20
146.0683318139107
 30
0.0
 11
160.71197558248869
 21
146.0683318139107
 31
0.0
1001
GENIUS_GENOREF_13
1005
0
  0
ARC
  5
9FA
  8
0
 10
162.9714485824887
 20
136.46702692082729
 30
0.0
 40
3.5
 50
353.990995
 51
112.139357
  0
ARC
  5
9FB
  8
0
 10
157.0454015086718
 20
135.0127762583551
 30
0.0
 40
10.0
 50
33.557789630433057
 51
123.7487759158228
1001
GENIUS_GENODEF_13
1002
{
1000
HIER
1070
     0
1002
}
1002
{
1000
MANEDIT
1070
     0
1002
}
1002
{
1000
NOSEL
1070
     0
1002
}
1002
{
1000
BEHIND
1070
     0
1002
}
1002
{
1000
REACTOR
1002
}
1001
GENIUS_GENOBJ-N-FIL_13
1002
{
1000
OWNER
1000
GEN
1002
}
  0
ARC
  5
9FC
  8
0
 10
190.37854965630561
 20
135.0127762583551
 30
0.0
 40
10.0
 50
56.251224084177139
 51
146.44221036956691
1001
GENIUS_GENODEF_13
1002
{
1000
HIER
1070
     0
1002
}
1002
{
1000
MANEDIT
1070
     0
1002
}
1002
{
1000
NOSEL
1070
     0
1002
}
1002
{
1000
BEHIND
1070
     0
1002
}
1002
{
1000
REACTOR
1002
}
1001
GENIUS_GENOBJ-N-FIL_13
1002
{
1000
OWNER
1000
GEN
1002
}
  0
LINE
  5
9FD
  8
0
 10
166.45221758248869
 20
136.10062992082729
 30
0.0
 11
164.9970955824887
 21
122.2769709208273
 31
0.0
  0
LINE
  5
9FE
  8
0
 10
182.42685558248871
 20
122.2769709208273
 30
0.0
 11
180.9717335824887
 21
136.10062992082729
 31
0.0
  0
ARC
  5
9FF
  8
0
 10
184.45250258248871
 20
136.46702692082729
 30
0.0
 40
3.5
 50
67.860643999999994
 51
186.009005
  0
ARC
  5
A00
  8
0
 10
173.71197558248869
 20
146.0683318139107
 30
0.0
 40
10.0
 50
213.55778963043301
 51
326.44221036956691
  0
TEXT
  5
B69
  8
0
 62
     3
 10
0.0
 20
0.0
 30
0.0
 40
10.0
  1
ALV100N
  7
STANDARD1
  0
ENDSEC
  0
EOF
