  0
SECTION
  2
HEADER
  9
$ACADVER
  1
AC1009
  9
$INSBASE
 10
0.0
 20
0.0
 30
0.0
  9
$EXTMIN
 10
-0.0204638472032742
 20
-2.960436562073669
 30
0.0
  9
$EXTMAX
 10
368.15772455177267
 20
272.29592268416349
 30
0.0
  9
$LIMMIN
 10
0.0
 20
0.0
  9
$LIMMAX
 10
270.0
 20
175.0
  9
$ORTHOMODE
 70
     1
  9
$REGENMODE
 70
     1
  9
$FILLMODE
 70
     1
  9
$QTEXTMODE
 70
     0
  9
$MIRRTEXT
 70
     0
  9
$DRAGMODE
 70
     2
  9
$LTSCALE
 40
10.0
  9
$OSMODE
 70
  3071
  9
$ATTMODE
 70
     1
  9
$TEXTSIZE
 40
0.2
  9
$TRACEWID
 40
0.05
  9
$TEXTSTYLE
  7
STANDARD
  9
$CLAYER
  8
0
  9
$CELTYPE
  6
BYLAYER
  9
$CECOLOR
 62
   256
  9
$DIMSCALE
 40
1.0
  9
$DIMASZ
 40
3.0
  9
$DIMEXO
 40
2.0
  9
$DIMDLI
 40
0.38
  9
$DIMRND
 40
0.0
  9
$DIMDLE
 40
0.0
  9
$DIMEXE
 40
2.0
  9
$DIMTP
 40
0.0
  9
$DIMTM
 40
0.0
  9
$DIMTXT
 40
3.2000000000000002
  9
$DIMCEN
 40
0.0
  9
$DIMTSZ
 40
0.0
  9
$DIMTOL
 70
     0
  9
$DIMLIM
 70
     0
  9
$DIMTIH
 70
     0
  9
$DIMTOH
 70
     0
  9
$DIMSE1
 70
     0
  9
$DIMSE2
 70
     0
  9
$DIMTAD
 70
     1
  9
$DIMZIN
 70
     0
  9
$DIMBLK
  1

  9
$DIMASO
 70
     1
  9
$DIMSHO
 70
     0
  9
$DIMPOST
  1

  9
$DIMAPOST
  1

  9
$DIMALT
 70
     0
  9
$DIMALTD
 70
     2
  9
$DIMALTF
 40
25.399999999999999
  9
$DIMLFAC
 40
1.0
  9
$DIMTOFL
 70
     1
  9
$DIMTVP
 40
1.6000000000000001
  9
$DIMTIX
 70
     1
  9
$DIMSOXD
 70
     0
  9
$DIMSAH
 70
     0
  9
$DIMBLK1
  1

  9
$DIMBLK2
  1

  9
$DIMSTYLE
  2
STANDARD
  9
$DIMCLRD
 70
     0
  9
$DIMCLRE
 70
     0
  9
$DIMCLRT
 70
     0
  9
$DIMTFAC
 40
1.0
  9
$DIMGAP
 40
0.09
  9
$LUNITS
 70
     2
  9
$LUPREC
 70
     4
  9
$SKETCHINC
 40
0.1
  9
$FILLETRAD
 40
0.0
  9
$AUNITS
 70
     1
  9
$AUPREC
 70
     4
  9
$MENU
  1
E:\r13\win\SUPPORT\ACAD
  9
$ELEVATION
 40
0.0
  9
$PELEVATION
 40
0.0
  9
$THICKNESS
 40
0.0
  9
$LIMCHECK
 70
     0
  9
$BLIPMODE
 70
     0
  9
$CHAMFERA
 40
0.0
  9
$CHAMFERB
 40
0.0
  9
$SKPOLY
 70
     0
  9
$TDCREATE
 40
2449839.7803587969
  9
$TDUPDATE
 40
2456597.550556967
  9
$TDINDWG
 40
0.0428921991
  9
$TDUSRTIMER
 40
0.0428921991
  9
$USRTIMER
 70
     1
  9
$ANGBASE
 50
0.0
  9
$ANGDIR
 70
     0
  9
$PDMODE
 70
     0
  9
$PDSIZE
 40
0.0
  9
$PLINEWID
 40
0.0
  9
$COORDS
 70
     1
  9
$SPLFRAME
 70
     0
  9
$SPLINETYPE
 70
     6
  9
$SPLINESEGS
 70
     8
  9
$ATTDIA
 70
     0
  9
$ATTREQ
 70
     1
  9
$HANDLING
 70
     1
  9
$HANDSEED
  5
C62
  9
$SURFTAB1
 70
     6
  9
$SURFTAB2
 70
     6
  9
$SURFTYPE
 70
     6
  9
$SURFU
 70
     6
  9
$SURFV
 70
     6
  9
$UCSNAME
  2

  9
$UCSORG
 10
0.0
 20
0.0
 30
0.0
  9
$UCSXDIR
 10
1.0
 20
0.0
 30
0.0
  9
$UCSYDIR
 10
0.0
 20
1.0
 30
0.0
  9
$PUCSNAME
  2

  9
$PUCSORG
 10
0.0
 20
0.0
 30
0.0
  9
$PUCSXDIR
 10
1.0
 20
0.0
 30
0.0
  9
$PUCSYDIR
 10
0.0
 20
1.0
 30
0.0
  9
$USERI1
 70
     0
  9
$USERI2
 70
     1
  9
$USERI3
 70
     1
  9
$USERI4
 70
     0
  9
$USERI5
 70
     0
  9
$USERR1
 40
0.0
  9
$USERR2
 40
0.0
  9
$USERR3
 40
0.0
  9
$USERR4
 40
0.0
  9
$USERR5
 40
0.0
  9
$WORLDVIEW
 70
     1
  9
$SHADEDGE
 70
     3
  9
$SHADEDIF
 70
    70
  9
$TILEMODE
 70
     1
  9
$MAXACTVP
 70
    16
  9
$PLIMCHECK
 70
     0
  9
$PEXTMIN
 10
1.0000000000000000E+020
 20
1.0000000000000000E+020
 30
1.0000000000000000E+020
  9
$PEXTMAX
 10
-1.0000000000000000E+020
 20
-1.0000000000000000E+020
 30
-1.0000000000000000E+020
  9
$PLIMMIN
 10
0.0
 20
0.0
  9
$PLIMMAX
 10
12.0
 20
9.0
  9
$UNITMODE
 70
     0
  9
$VISRETAIN
 70
     0
  9
$PLINEGEN
 70
     0
  9
$PSLTSCALE
 70
     0
  0
ENDSEC
  0
SECTION
  2
TABLES
  0
TABLE
  2
VPORT
 70
     1
  0
VPORT
  2
*ACTIVE
 70
     0
 10
0.0
 20
0.0
 11
1.0
 21
1.0
 12
191.6926220082718
 22
134.662583062604
 13
0.0
 23
0.0
 14
10.0
 24
10.0
 15
10.0
 25
10.0
 16
0.0
 26
0.0
 36
1.0
 17
0.0
 27
0.0
 37
0.0
 40
277.75220865669507
 41
1.831871345029239
 42
50.0
 43
0.0
 44
0.0
 50
0.0
 51
0.0
 71
     0
 72
   500
 73
     1
 74
     0
 75
     0
 76
     0
 77
     0
 78
     2
  0
ENDTAB
  0
TABLE
  2
LTYPE
 70
     3
  0
LTYPE
  2
CONTINUOUS
 70
     0
  3
Solid Line
 72
    65
 73
     0
 40
0.0
  0
LTYPE
  2
CENTER
 70
     0
  3
____ _ ____ _ ____ _ ____ _ ____ _ ____ _ ____
 72
    65
 73
     4
 40
2.0
 49
1.25
 49
-0.25
 49
0.25
 49
-0.25
  0
LTYPE
  2
PHANTOM2
 70
     0
  3
___ _ _ ___ _ _ ___ _ _ ___ _ _
 72
    65
 73
     6
 40
1.25
 49
0.625
 49
-0.125
 49
0.125
 49
-0.125
 49
0.125
 49
-0.125
  0
ENDTAB
  0
TABLE
  2
LAYER
 70
     2
  0
LAYER
  2
0
 70
     0
 62
     7
  6
CONTINUOUS
  0
LAYER
  2
1
 70
     0
 62
     1
  6
CENTER
  0
ENDTAB
  0
TABLE
  2
STYLE
 70
     2
  0
STYLE
  2
STANDARD
 70
     0
 40
0.0
 41
1.0
 50
0.0
 71
     0
 42
0.2
  3
TXT
  4
BIGFONT
  0
STYLE
  2
STANDARD1
 70
     0
 40
0.0
 41
1.0
 50
0.0
 71
     0
 42
3.0
  3
txt
  4

  0
ENDTAB
  0
TABLE
  2
VIEW
 70
     1
  0
VIEW
  2
ALL
 70
     0
 40
179.5384664489153
 10
135.0
 20
89.769233224457665
 41
0.0
 11
0.0
 21
0.0
 31
1.0
 12
0.0
 22
0.0
 32
0.0
 42
0.0
 43
0.0
 44
0.0
 50
0.0
 71
     0
  0
ENDTAB
  0
TABLE
  2
UCS
 70
     0
  0
ENDTAB
  0
TABLE
  2
APPID
 70
    17
  0
APPID
  2
ACAD
 70
     0
  0
APPID
  2
GENIUS_GENODEF_13
 70
     0
  0
APPID
  2
GENIUS_GENOBJ-N-FIL_13
 70
     0
  0
APPID
  2
GENIUS_GENOREF_13
 70
     0
  0
APPID
  2
GENIUS_GENOBJ-N-CEN_13
 70
     0
  0
APPID
  2
GENIUS_GENCFG_13
 70
     0
  0
APPID
  2
GENIUS_GENCFG0_13
 70
     0
  0
APPID
  2
GENIUS_GENCFG1_13
 70
     0
  0
APPID
  2
GENIUS_GENCFG2_13
 70
     0
  0
APPID
  2
GENIUS_GENCFG3_13
 70
     0
  0
APPID
  2
GENIUS_GENCFG4_13
 70
     0
  0
APPID
  2
GENIUS_GEVCFG0_13
 70
     0
  0
APPID
  2
GENIUS_GENOENT_13
 70
     0
  0
APPID
  2
GENIUS_GENOBJ-N-CRS_13
 70
     0
  0
APPID
  2
GENIUS_GENOLIS_13
 70
     0
  0
APPID
  2
ACAD_MLEADERVER
 70
     0
  0
APPID
  2
ACAD_NAV_VCDISPLAY
 70
     0
  0
ENDTAB
  0
TABLE
  2
DIMSTYLE
 70
     1
  0
DIMSTYLE
  2
STANDARD
 70
     0
  3

  4

  5

  6

  7

 40
1.0
 41
0.18
 42
0.0625
 43
0.38
 44
0.18
 45
0.0
 46
0.0
 47
0.0
 48
0.0
140
0.18
141
0.09
142
0.0
143
25.399999999999999
144
1.0
145
0.0
146
1.0
147
0.09
 71
     0
 72
     0
 73
     1
 74
     1
 75
     0
 76
     0
 77
     0
 78
     0
170
     0
171
     2
172
     0
173
     0
174
     0
175
     0
176
     0
177
     0
178
     0
  0
ENDTAB
  0
ENDSEC
  0
SECTION
  2
BLOCKS
  0
BLOCK
  8
0
  2
$MODEL_SPACE
 70
     0
 10
0.0
 20
0.0
 30
0.0
  3
$MODEL_SPACE
  1

  0
ENDBLK
  5
A8B
  8
0
  0
BLOCK
 67
     1
  8
0
  2
$PAPER_SPACE
 70
     0
 10
0.0
 20
0.0
 30
0.0
  3
$PAPER_SPACE
  1

  0
ENDBLK
  5
A89
 67
     1
  8
0
  0
ENDSEC
  0
SECTION
  2
ENTITIES
  0
LINE
  5
9D1
  8
0
 10
111.6804600509937
 20
111.29592257419201
 30
0.0
 11
111.6804600509937
 21
253.29592257419199
 31
0.0
  0
LINE
  5
9D2
  8
0
 10
89.680460050993702
 20
199.79592257419199
 30
0.0
 11
89.680460050993702
 21
164.79592257419199
 31
0.0
  0
LINE
  5
9D3
  8
0
 10
129.6804600509937
 20
253.29592257419199
 30
0.0
 11
129.6804600509937
 21
111.29592257419201
 31
0.0
  0
LINE
  5
9D4
  8
0
 10
109.6804600509937
 20
199.79592257419199
 30
0.0
 11
109.6804600509937
 21
173.8348969697069
 31
0.0
  0
ARC
  5
9D5
  8
0
 10
120.6804600509937
 20
111.29592257419201
 30
0.0
 40
9.0
 50
180.0
 51
0.0
  0
LINE
  5
9D6
  8
1
 10
79.680460050993702
 20
182.29592257419199
 30
0.0
 11
139.6804600509937
 21
182.29592257419199
 31
0.0
1001
GENIUS_GENODEF_13
1002
{
1000
HIER
1070
     0
1002
}
1002
{
1000
MANEDIT
1070
     0
1002
}
1002
{
1000
NOSEL
1070
     0
1002
}
1002
{
1000
BEHIND
1070
     0
1002
}
1002
{
1000
REACTOR
1002
}
1001
GENIUS_GENOBJ-N-CEN_13
1002
{
1000
OWNER
1000
GEN
1002
}
  0
LINE
  5
9D7
  8
0
 10
102.21077766795401
 20
164.79592257419199
 30
0.0
 11
89.680460050993702
 21
164.79592257419199
 31
0.0
  0
LINE
  5
9D9
  8
0
 10
102.98036932794621
 20
164.43445892935929
 30
0.0
 11
111.6804600509937
 21
155.44873292887311
 31
0.0
  0
ARC
  5
9DA
  8
0
 10
102.21077766795401
 20
163.79592257419199
 30
0.0
 40
1.0
 50
39.682765573391258
 51
90.0
1001
GENIUS_GENODEF_13
1002
{
1000
HIER
1070
     0
1002
}
1002
{
1000
MANEDIT
1070
     0
1002
}
1002
{
1000
NOSEL
1070
     0
1002
}
1002
{
1000
BEHIND
1070
     0
1002
}
1002
{
1000
REACTOR
1002
}
1001
GENIUS_GENOBJ-N-FIL_13
1002
{
1000
OWNER
1000
GEN
1002
}
  0
LINE
  5
9DB
  8
0
 10
111.6804600509937
 20
171.17691814809919
 30
0.0
 11
109.6804600509937
 21
173.8348969697069
 31
0.0
  0
ARC
  5
9DC
  8
0
 10
120.6804600509937
 20
253.29592257419199
 30
0.0
 40
9.0
 50
0.0
 51
180.0
  0
LINE
  5
9DD
  8
0
 10
111.6804600509937
 20
234.32885456000579
 30
0.0
 11
96.531289600920687
 21
200.4027368862568
 31
0.0
  0
LINE
  5
9DE
  8
0
 10
89.680460050993702
 20
199.79592257419199
 30
0.0
 11
95.611830512759127
 21
199.79592257419199
 31
0.0
  0
ARC
  5
9DF
  8
0
 10
95.611830512759127
 20
200.79592257419199
 30
0.0
 40
1.0
 50
270.0
 51
336.84713198969678
1001
GENIUS_GENODEF_13
1002
{
1000
HIER
1070
     0
1002
}
1002
{
1000
MANEDIT
1070
     0
1002
}
1002
{
1000
NOSEL
1070
     0
1002
}
1002
{
1000
BEHIND
1070
     0
1002
}
1002
{
1000
REACTOR
1002
}
1001
GENIUS_GENOBJ-N-FIL_13
1002
{
1000
OWNER
1000
GEN
1002
}
  0
LINE
  5
9E0
  8
0
 10
111.6804600509937
 20
207.2174541670361
 30
0.0
 11
108.727028746806
 21
201.15990835591609
 31
0.0
  0
ARC
  5
9E1
  8
0
 10
109.6584332511448
 20
200.79592257419199
 30
0.0
 40
1.0
 50
158.65482069587671
 51
270.0
1001
GENIUS_GENODEF_13
1002
{
1000
HIER
1070
     0
1002
}
1002
{
1000
MANEDIT
1070
     0
1002
}
1002
{
1000
NOSEL
1070
     0
1002
}
1002
{
1000
BEHIND
1070
     0
1002
}
1002
{
1000
REACTOR
1002
}
1001
GENIUS_GENOBJ-N-FIL_13
1002
{
1000
OWNER
1000
GEN
1002
}
  0
LINE
  5
9E2
  8
0
 10
109.6804600509937
 20
199.79592257419199
 30
0.0
 11
109.6584332511448
 21
199.79592257419199
 31
0.0
  0
LINE
  5
9E3
  8
1
 10
288.15772455177267
 20
182.29592257419199
 30
0.0
 11
288.15772455177267
 21
272.29592268416349
 31
0.0
1001
GENIUS_GENODEF_13
1002
{
1000
HIER
1070
     0
1002
}
1002
{
1000
MANEDIT
1070
     0
1002
}
1002
{
1000
NOSEL
1070
     0
1002
}
1002
{
1000
BEHIND
1070
     0
1002
}
1002
{
1000
REACTOR
1002
}
1001
GENIUS_GENOBJ-N-CEN_13
1002
{
1000
OWNER
1000
GEN
1002
}
  0
ARC
  5
9E4
  8
0
 10
288.15772455177267
 20
182.29592268416349
 30
0.0
 40
60.0
 50
104.4609706305513
 51
195.998198
  0
CIRCLE
  5
9E5
  8
0
 10
288.15772455177267
 20
182.29592268416349
 30
0.0
 40
71.0
  0
CIRCLE
  5
9E6
  8
0
 10
288.15772455177267
 20
182.29592268416349
 30
0.0
 40
80.0
  0
ARC
  5
9E7
  8
0
 10
288.15772455177267
 20
182.29592268416349
 30
0.0
 40
60.0
 50
344.001802
 51
75.539029369449423
  0
CIRCLE
  5
9EA
  8
0
 10
288.15772455177267
 20
182.29592268416349
 30
0.0
 40
7.0
  0
CIRCLE
  5
9EC
  8
0
 10
288.15772455177267
 20
182.29592257419199
 30
0.0
 40
67.535898384862307
  0
LINE
  5
9ED
  8
1
 10
288.15772455177267
 20
182.29592257419199
 30
0.0
 11
210.21543823679929
 21
137.2959226397779
 31
0.0
1001
GENIUS_GENODEF_13
1002
{
1000
HIER
1070
     0
1002
}
1002
{
1000
MANEDIT
1070
     0
1002
}
1002
{
1000
NOSEL
1070
     0
1002
}
1002
{
1000
BEHIND
1070
     0
1002
}
1002
{
1000
REACTOR
1002
}
1001
GENIUS_GENOBJ-N-CEN_13
1002
{
1000
OWNER
1000
GEN
1002
}
  0
LINE
  5
9EE
  8
0
 10
246.04707455177271
 20
146.9512196841635
 30
0.0
 11
279.0623595403556
 21
163.9240871920347
 31
0.0
  0
ARC
  5
9EF
  8
0
 10
288.15772455177267
 20
182.29592268416349
 30
0.0
 40
60.0
 50
224.001802
 51
315.998198
  0
ARC
  5
9F0
  8
0
 10
247.87591955177271
 20
143.3937866841635
 30
0.0
 40
4.0
 50
117.207297
 51
224.001801
  0
LINE
  5
9F1
  8
0
 10
267.69956588938032
 20
183.60502308384679
 30
0.0
 11
236.4929885517727
 21
163.4993816841635
 31
0.0
  0
ARC
  5
9F2
  8
0
 10
234.3265845517727
 20
166.86192368416349
 30
0.0
 40
4.0
 50
195.998198
 51
302.79270300000002
  0
LINE
  5
9F3
  8
1
 10
288.15772455177267
 20
182.29592257419199
 30
0.0
 11
366.10001086674617
 21
137.2959226397779
 31
0.0
1001
GENIUS_GENODEF_13
1002
{
1000
HIER
1070
     0
1002
}
1002
{
1000
MANEDIT
1070
     0
1002
}
1002
{
1000
NOSEL
1070
     0
1002
}
1002
{
1000
BEHIND
1070
     0
1002
}
1002
{
1000
REACTOR
1002
}
1001
GENIUS_GENOBJ-N-CEN_13
1002
{
1000
OWNER
1000
GEN
1002
}
  0
LINE
  5
9F4
  8
0
 10
297.25308956318992
 20
163.9240871920347
 30
0.0
 11
330.26837455177269
 21
146.9512196841635
 31
0.0
  0
ARC
  5
9F5
  8
0
 10
328.43952955177269
 20
143.3937866841635
 30
0.0
 40
4.0
 50
315.998198
 51
62.792703000000003
  0
LINE
  5
9F6
  8
0
 10
339.82246055177268
 20
163.4993816841635
 30
0.0
 11
308.61588321416508
 21
183.60502308384679
 31
0.0
  0
ARC
  5
9F9
  8
0
 10
341.98886455177268
 20
166.86192368416349
 30
0.0
 40
4.0
 50
237.20729800000001
 51
344.001802
  0
ARC
  5
9FB
  8
0
 10
288.15772455177267
 20
244.29592268416349
 30
0.0
 40
12.0
 50
201.90248409270509
 51
338.09751590729502
  0
LINE
  5
9FC
  8
0
 10
278.56536454187562
 20
235.6525492196196
 30
0.0
 11
276.79493140228112
 21
199.35865775475051
 31
0.0
  0
ARC
  5
9FD
  8
0
 10
274.57011513421321
 20
235.84743936963611
 30
0.0
 40
4.0
 50
357.20729856411452
 51
31.872460223768591
1001
GENIUS_GENODEF_13
1002
{
1000
HIER
1070
     0
1002
}
1002
{
1000
MANEDIT
1070
     0
1002
}
1002
{
1000
NOSEL
1070
     0
1002
}
1002
{
1000
BEHIND
1070
     0
1002
}
1002
{
1000
REACTOR
1002
}
1001
GENIUS_GENOBJ-N-FIL_13
1002
{
1000
OWNER
1000
GEN
1002
}
  0
ARC
  5
9FE
  8
0
 10
267.74568274955368
 20
236.0893064835322
 30
0.0
 40
10.0
 50
21.902484092705009
 51
110.7793820333485
1001
GENIUS_GENODEF_13
1002
{
1000
HIER
1070
     0
1002
}
1002
{
1000
MANEDIT
1070
     0
1002
}
1002
{
1000
NOSEL
1070
     0
1002
}
1002
{
1000
BEHIND
1070
     0
1002
}
1002
{
1000
REACTOR
1002
}
1001
GENIUS_GENOBJ-N-FIL_13
1002
{
1000
OWNER
1000
GEN
1002
}
  0
ARC
  5
9FF
  8
0
 10
274.1733792087752
 20
236.52172913577641
 30
0.0
 40
4.0
 50
29.070608935145859
 51
104.46097063055051
1001
GENIUS_GENODEF_13
1002
{
1000
HIER
1070
     0
1002
}
1002
{
1000
MANEDIT
1070
     0
1002
}
1002
{
1000
NOSEL
1070
     0
1002
}
1002
{
1000
BEHIND
1070
     0
1002
}
1002
{
1000
REACTOR
1002
}
1001
GENIUS_GENOBJ-N-FIL_13
1002
{
1000
OWNER
1000
GEN
1002
}
  0
LINE
  5
A00
  8
0
 10
299.52051770126428
 20
199.35865775475051
 30
0.0
 11
297.75008456166989
 21
235.65254921961881
 31
0.0
  0
ARC
  5
A01
  8
0
 10
301.74533396933219
 20
235.84743936963611
 30
0.0
 40
4.0
 50
148.1275397762314
 51
182.7927014358855
1001
GENIUS_GENODEF_13
1002
{
1000
HIER
1070
     0
1002
}
1002
{
1000
MANEDIT
1070
     0
1002
}
1002
{
1000
NOSEL
1070
     0
1002
}
1002
{
1000
BEHIND
1070
     0
1002
}
1002
{
1000
REACTOR
1002
}
1001
GENIUS_GENOBJ-N-FIL_13
1002
{
1000
OWNER
1000
GEN
1002
}
  0
ARC
  5
A02
  8
0
 10
302.14206989477032
 20
236.52172913577641
 30
0.0
 40
4.0
 50
75.539029369449494
 51
150.92939106485409
1001
GENIUS_GENODEF_13
1002
{
1000
HIER
1070
     0
1002
}
1002
{
1000
MANEDIT
1070
     0
1002
}
1002
{
1000
NOSEL
1070
     0
1002
}
1002
{
1000
BEHIND
1070
     0
1002
}
1002
{
1000
REACTOR
1002
}
1001
GENIUS_GENOBJ-N-FIL_13
1002
{
1000
OWNER
1000
GEN
1002
}
  0
ARC
  5
A03
  8
0
 10
308.56976635399178
 20
236.0893064835322
 30
0.0
 40
10.0
 50
69.220617966651403
 51
158.09751590729499
1001
GENIUS_GENODEF_13
1002
{
1000
HIER
1070
     0
1002
}
1002
{
1000
MANEDIT
1070
     0
1002
}
1002
{
1000
NOSEL
1070
     0
1002
}
1002
{
1000
BEHIND
1070
     0
1002
}
1002
{
1000
REACTOR
1002
}
1001
GENIUS_GENOBJ-N-FIL_13
1002
{
1000
OWNER
1000
GEN
1002
}
  0
CIRCLE
  5
AE4
  8
0
 10
288.15772455177267
 20
182.29592257419199
 30
0.0
 40
17.5
  0
ARC
  5
AE5
  8
0
 10
288.15772455177267
 20
182.29592257419199
 30
0.0
 40
20.5
 50
3.6613173618856769
 51
56.338684247151868
  0
ARC
  5
AE6
  8
0
 10
288.15772455177267
 20
182.29592257419199
 30
0.0
 40
20.5
 50
123.6613157528481
 51
176.33868263811419
  0
ARC
  5
AE7
  8
0
 10
288.15772455177267
 20
182.29592257419199
 30
0.0
 40
20.5
 50
243.66131743146599
 51
296.33868256853413
  0
TEXT
  5
BD3
  8
0
 62
     3
 10
0.0
 20
0.0
 30
0.0
 40
10.0
  1
ALV160N
  7
STANDARD1
  0
ENDSEC
  0
EOF
