  0
SECTION
  2
HEADER
  9
$ACADVER
  1
AC1009
  9
$INSBASE
 10
0.0
 20
0.0
 30
0.0
  9
$EXTMIN
 10
-0.0204638472032742
 20
-2.960436562073669
 30
0.0
  9
$EXTMAX
 10
335.39393421908471
 20
241.6564038241068
 30
0.0
  9
$LIMMIN
 10
0.0
 20
0.0
  9
$LIMMAX
 10
270.0
 20
175.0
  9
$ORTHOMODE
 70
     1
  9
$REGENMODE
 70
     1
  9
$FILLMODE
 70
     1
  9
$QTEXTMODE
 70
     0
  9
$MIRRTEXT
 70
     0
  9
$DRAGMODE
 70
     2
  9
$LTSCALE
 40
10.0
  9
$OSMODE
 70
  3071
  9
$ATTMODE
 70
     1
  9
$TEXTSIZE
 40
0.2
  9
$TRACEWID
 40
0.05
  9
$TEXTSTYLE
  7
STANDARD
  9
$CLAYER
  8
0
  9
$CELTYPE
  6
BYLAYER
  9
$CECOLOR
 62
   256
  9
$DIMSCALE
 40
1.0
  9
$DIMASZ
 40
3.0
  9
$DIMEXO
 40
2.0
  9
$DIMDLI
 40
0.38
  9
$DIMRND
 40
0.0
  9
$DIMDLE
 40
0.0
  9
$DIMEXE
 40
2.0
  9
$DIMTP
 40
0.0
  9
$DIMTM
 40
0.0
  9
$DIMTXT
 40
3.2000000000000002
  9
$DIMCEN
 40
0.0
  9
$DIMTSZ
 40
0.0
  9
$DIMTOL
 70
     0
  9
$DIMLIM
 70
     0
  9
$DIMTIH
 70
     0
  9
$DIMTOH
 70
     0
  9
$DIMSE1
 70
     0
  9
$DIMSE2
 70
     0
  9
$DIMTAD
 70
     1
  9
$DIMZIN
 70
     0
  9
$DIMBLK
  1

  9
$DIMASO
 70
     1
  9
$DIMSHO
 70
     0
  9
$DIMPOST
  1

  9
$DIMAPOST
  1

  9
$DIMALT
 70
     0
  9
$DIMALTD
 70
     2
  9
$DIMALTF
 40
25.399999999999999
  9
$DIMLFAC
 40
1.0
  9
$DIMTOFL
 70
     1
  9
$DIMTVP
 40
1.6000000000000001
  9
$DIMTIX
 70
     1
  9
$DIMSOXD
 70
     0
  9
$DIMSAH
 70
     0
  9
$DIMBLK1
  1

  9
$DIMBLK2
  1

  9
$DIMSTYLE
  2
STANDARD
  9
$DIMCLRD
 70
     0
  9
$DIMCLRE
 70
     0
  9
$DIMCLRT
 70
     0
  9
$DIMTFAC
 40
1.0
  9
$DIMGAP
 40
0.09
  9
$LUNITS
 70
     2
  9
$LUPREC
 70
     4
  9
$SKETCHINC
 40
0.1
  9
$FILLETRAD
 40
0.0
  9
$AUNITS
 70
     1
  9
$AUPREC
 70
     4
  9
$MENU
  1
E:\r13\win\SUPPORT\ACAD
  9
$ELEVATION
 40
0.0
  9
$PELEVATION
 40
0.0
  9
$THICKNESS
 40
0.0
  9
$LIMCHECK
 70
     0
  9
$BLIPMODE
 70
     0
  9
$CHAMFERA
 40
0.0
  9
$CHAMFERB
 40
0.0
  9
$SKPOLY
 70
     0
  9
$TDCREATE
 40
2449839.7803587969
  9
$TDUPDATE
 40
2456597.5505851279
  9
$TDINDWG
 40
0.040579456
  9
$TDUSRTIMER
 40
0.040579456
  9
$USRTIMER
 70
     1
  9
$ANGBASE
 50
0.0
  9
$ANGDIR
 70
     0
  9
$PDMODE
 70
     0
  9
$PDSIZE
 40
0.0
  9
$PLINEWID
 40
0.0
  9
$COORDS
 70
     1
  9
$SPLFRAME
 70
     0
  9
$SPLINETYPE
 70
     6
  9
$SPLINESEGS
 70
     8
  9
$ATTDIA
 70
     0
  9
$ATTREQ
 70
     1
  9
$HANDLING
 70
     1
  9
$HANDSEED
  5
CE9
  9
$SURFTAB1
 70
     6
  9
$SURFTAB2
 70
     6
  9
$SURFTYPE
 70
     6
  9
$SURFU
 70
     6
  9
$SURFV
 70
     6
  9
$UCSNAME
  2

  9
$UCSORG
 10
0.0
 20
0.0
 30
0.0
  9
$UCSXDIR
 10
1.0
 20
0.0
 30
0.0
  9
$UCSYDIR
 10
0.0
 20
1.0
 30
0.0
  9
$PUCSNAME
  2

  9
$PUCSORG
 10
0.0
 20
0.0
 30
0.0
  9
$PUCSXDIR
 10
1.0
 20
0.0
 30
0.0
  9
$PUCSYDIR
 10
0.0
 20
1.0
 30
0.0
  9
$USERI1
 70
     0
  9
$USERI2
 70
     1
  9
$USERI3
 70
     1
  9
$USERI4
 70
     0
  9
$USERI5
 70
     0
  9
$USERR1
 40
0.0
  9
$USERR2
 40
0.0
  9
$USERR3
 40
0.0
  9
$USERR4
 40
0.0
  9
$USERR5
 40
0.0
  9
$WORLDVIEW
 70
     1
  9
$SHADEDGE
 70
     3
  9
$SHADEDIF
 70
    70
  9
$TILEMODE
 70
     1
  9
$MAXACTVP
 70
    16
  9
$PLIMCHECK
 70
     0
  9
$PEXTMIN
 10
1.0000000000000000E+020
 20
1.0000000000000000E+020
 30
1.0000000000000000E+020
  9
$PEXTMAX
 10
-1.0000000000000000E+020
 20
-1.0000000000000000E+020
 30
-1.0000000000000000E+020
  9
$PLIMMIN
 10
0.0
 20
0.0
  9
$PLIMMAX
 10
12.0
 20
9.0
  9
$UNITMODE
 70
     0
  9
$VISRETAIN
 70
     0
  9
$PLINEGEN
 70
     0
  9
$PSLTSCALE
 70
     0
  0
ENDSEC
  0
SECTION
  2
TABLES
  0
TABLE
  2
VPORT
 70
     1
  0
VPORT
  2
*ACTIVE
 70
     0
 10
0.0
 20
0.0
 11
1.0
 21
1.0
 12
174.46286992681041
 22
119.3440303761251
 13
0.0
 23
0.0
 14
10.0
 24
10.0
 15
10.0
 25
10.0
 16
0.0
 26
0.0
 36
1.0
 17
0.0
 27
0.0
 37
0.0
 40
246.83357376892641
 41
1.831871345029239
 42
50.0
 43
0.0
 44
0.0
 50
0.0
 51
0.0
 71
     0
 72
   500
 73
     1
 74
     0
 75
     0
 76
     0
 77
     0
 78
     2
  0
ENDTAB
  0
TABLE
  2
LTYPE
 70
     3
  0
LTYPE
  2
CONTINUOUS
 70
     0
  3
Solid Line
 72
    65
 73
     0
 40
0.0
  0
LTYPE
  2
CENTER
 70
     0
  3
____ _ ____ _ ____ _ ____ _ ____ _ ____ _ ____
 72
    65
 73
     4
 40
2.0
 49
1.25
 49
-0.25
 49
0.25
 49
-0.25
  0
LTYPE
  2
PHANTOM2
 70
     0
  3
___ _ _ ___ _ _ ___ _ _ ___ _ _
 72
    65
 73
     6
 40
1.25
 49
0.625
 49
-0.125
 49
0.125
 49
-0.125
 49
0.125
 49
-0.125
  0
ENDTAB
  0
TABLE
  2
LAYER
 70
     4
  0
LAYER
  2
0
 70
     0
 62
     7
  6
CONTINUOUS
  0
LAYER
  2
1
 70
     0
 62
     1
  6
CENTER
  0
LAYER
  2
ITTEN
 70
     0
 62
     1
  6
CENTER
  0
LAYER
  2
3
 70
     0
 62
     3
  6
CONTINUOUS
  0
ENDTAB
  0
TABLE
  2
STYLE
 70
     2
  0
STYLE
  2
STANDARD
 70
     0
 40
0.0
 41
1.0
 50
0.0
 71
     0
 42
0.2
  3
TXT
  4
BIGFONT
  0
STYLE
  2
STANDARD1
 70
     0
 40
0.0
 41
1.0
 50
0.0
 71
     0
 42
3.0
  3
txt
  4

  0
ENDTAB
  0
TABLE
  2
VIEW
 70
     1
  0
VIEW
  2
ALL
 70
     0
 40
179.5384664489153
 10
135.0
 20
89.769233224457665
 41
0.0
 11
0.0
 21
0.0
 31
1.0
 12
0.0
 22
0.0
 32
0.0
 42
0.0
 43
0.0
 44
0.0
 50
0.0
 71
     0
  0
ENDTAB
  0
TABLE
  2
UCS
 70
     0
  0
ENDTAB
  0
TABLE
  2
APPID
 70
    17
  0
APPID
  2
ACAD
 70
     0
  0
APPID
  2
GENIUS_GENODEF_13
 70
     0
  0
APPID
  2
GENIUS_GENOBJ-N-FIL_13
 70
     0
  0
APPID
  2
GENIUS_GENOREF_13
 70
     0
  0
APPID
  2
GENIUS_GENOBJ-N-CEN_13
 70
     0
  0
APPID
  2
GENIUS_GENCFG_13
 70
     0
  0
APPID
  2
GENIUS_GENCFG0_13
 70
     0
  0
APPID
  2
GENIUS_GENCFG1_13
 70
     0
  0
APPID
  2
GENIUS_GENCFG2_13
 70
     0
  0
APPID
  2
GENIUS_GENCFG3_13
 70
     0
  0
APPID
  2
GENIUS_GENCFG4_13
 70
     0
  0
APPID
  2
GENIUS_GEVCFG0_13
 70
     0
  0
APPID
  2
GENIUS_GENOENT_13
 70
     0
  0
APPID
  2
GENIUS_GENOBJ-N-CRS_13
 70
     0
  0
APPID
  2
GENIUS_GENOLIS_13
 70
     0
  0
APPID
  2
ACAD_MLEADERVER
 70
     0
  0
APPID
  2
ACAD_NAV_VCDISPLAY
 70
     0
  0
ENDTAB
  0
TABLE
  2
DIMSTYLE
 70
     1
  0
DIMSTYLE
  2
STANDARD
 70
     0
  3

  4

  5

  6

  7

 40
1.0
 41
0.18
 42
0.0625
 43
0.38
 44
0.18
 45
0.0
 46
0.0
 47
0.0
 48
0.0
140
0.18
141
0.09
142
0.0
143
25.399999999999999
144
1.0
145
0.0
146
1.0
147
0.09
 71
     0
 72
     0
 73
     1
 74
     1
 75
     0
 76
     0
 77
     0
 78
     0
170
     0
171
     2
172
     0
173
     0
174
     0
175
     0
176
     0
177
     0
178
     0
  0
ENDTAB
  0
ENDSEC
  0
SECTION
  2
BLOCKS
  0
BLOCK
  8
0
  2
$MODEL_SPACE
 70
     0
 10
0.0
 20
0.0
 30
0.0
  3
$MODEL_SPACE
  1

  0
ENDBLK
  5
B2F
  8
0
  0
BLOCK
 67
     1
  8
0
  2
$PAPER_SPACE
 70
     0
 10
0.0
 20
0.0
 30
0.0
  3
$PAPER_SPACE
  1

  0
ENDBLK
  5
B2D
 67
     1
  8
0
  0
BLOCK
  8
0
  2
BATU
 70
     0
 10
0.0
 20
0.0
 30
0.0
  3
BATU
  1

  0
LINE
  5
92D
  8
ITTEN
 10
0.5
 20
0.0
 30
0.0
 11
-0.5
 21
0.0
 31
0.0
  0
LINE
  5
92E
  8
ITTEN
 10
0.0
 20
0.5
 30
0.0
 11
0.0
 21
-0.5
 31
0.0
  0
ENDBLK
  5
932
  8
0
  0
ENDSEC
  0
SECTION
  2
ENTITIES
  0
POINT
  5
5AB
  8
0
 10
17.451829364787699
 20
2.8898092584588531
 30
0.0
1001
GENIUS_GENODEF_13
1002
{
1000
HIER
1070
    10
1002
}
1002
{
1000
MANEDIT
1070
     0
1002
}
1002
{
1000
NOSEL
1070
     0
1002
}
1002
{
1000
BEHIND
1070
     0
1002
}
1002
{
1000
REACTOR
1002
}
1001
GENIUS_GENOBJ-N-CRS_13
1002
{
1000
OWNER
1000
GEN
1002
}
1001
GENIUS_GENOENT_13
1002
{
1000
MYREF
1005
5AB
1002
}
1002
{
1000
GRP
1005
0
1002
}
1001
GENIUS_GENOLIS_13
1002
{
1000
ENT
1005
0
1005
0
1005
0
1005
5AA
1002
}
  0
LINE
  5
A77
  8
1
 10
242.79585800737769
 20
150.15640371293861
 30
0.0
 11
325.93429673411259
 21
102.1564037601518
 31
0.0
1001
GENIUS_GENODEF_13
1002
{
1000
HIER
1070
     0
1002
}
1002
{
1000
MANEDIT
1070
     0
1002
}
1002
{
1000
NOSEL
1070
     0
1002
}
1002
{
1000
BEHIND
1070
     0
1002
}
1002
{
1000
REACTOR
1002
}
1001
GENIUS_GENOBJ-N-CEN_13
1002
{
1000
OWNER
1000
GEN
1002
}
  0
CIRCLE
  5
A78
  8
0
 10
245.39393421908409
 20
148.6564037135503
 30
0.0
 40
76.535898495418735
  0
CIRCLE
  5
A79
  8
0
 10
245.39393421908409
 20
148.6564038241068
 30
0.0
 40
80.0
  0
CIRCLE
  5
A7A
  8
0
 10
245.39393421908409
 20
148.6564038241068
 30
0.0
 40
90.0
  0
LINE
  5
A7B
  8
0
 10
302.51619121908408
 20
127.2802618241067
 30
0.0
 11
265.69834921908409
 21
151.48142382410671
 31
0.0
  0
LINE
  5
A7C
  8
0
 10
253.0996032190842
 20
129.65975482410681
 30
0.0
 11
292.46734421908411
 21
109.8751488241068
 31
0.0
  0
ARC
  5
A7D
  8
0
 10
245.39393421908409
 20
148.6564038241068
 30
0.0
 40
66.0
 50
223.09028499999999
 51
316.90971500000001
  0
ARC
  5
A7E
  8
0
 10
245.39393421908409
 20
148.6564038241068
 30
0.0
 40
66.0
 50
343.09028499999999
 51
76.909715000000006
  0
LINE
  5
A7F
  8
1
 10
247.9920104307906
 20
150.1564037129387
 30
0.0
 11
164.8535717040557
 21
102.1564037601518
 31
0.0
1001
GENIUS_GENODEF_13
1002
{
1000
HIER
1070
     0
1002
}
1002
{
1000
MANEDIT
1070
     0
1002
}
1002
{
1000
NOSEL
1070
     0
1002
}
1002
{
1000
BEHIND
1070
     0
1002
}
1002
{
1000
REACTOR
1002
}
1001
GENIUS_GENOBJ-N-CEN_13
1002
{
1000
OWNER
1000
GEN
1002
}
  0
LINE
  5
A80
  8
0
 10
225.0895192190842
 20
151.48142382410671
 30
0.0
 11
188.2716772190841
 21
127.2802618241067
 31
0.0
  0
ARC
  5
A81
  8
0
 10
186.0745492190841
 20
130.62280982410681
 30
0.0
 40
4.0
 50
196.90971499999989
 51
303.31778100000002
  0
LINE
  5
A82
  8
0
 10
198.32052421908409
 20
109.8751488241068
 30
0.0
 11
237.68826521908409
 21
129.65975482410681
 31
0.0
  0
ARC
  5
A83
  8
0
 10
245.39393421908409
 20
148.6564038241068
 30
0.0
 40
20.5
 50
247.92089899999999
 51
292.07910099999998
  0
LINE
  5
A84
  8
0
 10
65.069252932261293
 20
228.65640371355019
 30
0.0
 11
65.069252932261293
 21
68.656403713550048
 31
0.0
  0
LINE
  5
A85
  8
0
 10
85.069252932261307
 20
228.65640371355019
 30
0.0
 11
85.069252932261307
 21
68.656403713550048
 31
0.0
  0
LINE
  5
A86
  8
0
 10
65.069252932261293
 20
119.9853327502418
 30
0.0
 11
56.369458938408847
 21
130.78377898040719
 31
0.0
  0
ARC
  5
A87
  8
0
 10
75.069252932261293
 20
68.656403713550048
 30
0.0
 40
10.0
 50
180.0
 51
0.0
  0
ARC
  5
A88
  8
0
 10
200.11669121908409
 20
106.3011058241067
 30
0.0
 40
4.0
 50
116.68221800000001
 51
223.090284
  0
LINE
  5
A89
  8
0
 10
49.443099528518871
 20
166.78051565882649
 30
0.0
 11
65.069252932261293
 21
205.30318353968011
 31
0.0
  0
LINE
  5
A8A
  8
1
 10
39.069252932261293
 20
148.65640371354999
 30
0.0
 11
88.069252932261293
 21
148.65640371355011
 31
0.0
1001
GENIUS_GENODEF_13
1002
{
1000
HIER
1070
     0
1002
}
1002
{
1000
MANEDIT
1070
     0
1002
}
1002
{
1000
NOSEL
1070
     0
1002
}
1002
{
1000
BEHIND
1070
     0
1002
}
1002
{
1000
REACTOR
1002
}
1001
GENIUS_GENOBJ-N-CEN_13
1002
{
1000
OWNER
1000
GEN
1002
}
  0
LINE
  5
A8B
  8
0
 10
42.069252932261293
 20
166.15640371354999
 30
0.0
 11
42.069252932261293
 21
131.15640371354999
 31
0.0
  0
LINE
  5
A8C
  8
0
 10
55.590741868777059
 20
131.15640371354999
 30
0.0
 11
42.069252932261293
 21
131.15640371354999
 31
0.0
  0
ARC
  5
A8D
  8
0
 10
55.590741868777059
 20
130.15640371354999
 30
0.0
 40
1.0
 50
38.856738868938329
 51
90.0
1001
GENIUS_GENODEF_13
1002
{
1000
HIER
1070
     0
1002
}
1002
{
1000
MANEDIT
1070
     0
1002
}
1002
{
1000
NOSEL
1070
     0
1002
}
1002
{
1000
BEHIND
1070
     0
1002
}
1002
{
1000
REACTOR
1002
}
1001
GENIUS_GENOBJ-N-FIL_13
1002
{
1000
OWNER
1000
GEN
1002
}
  0
INSERT
  5
A8E
  8
0
  2
BATU
 10
42.069252932261293
 20
148.65640371354999
 30
0.0
 41
0.001
 42
0.001
 43
0.001
  0
LINE
  5
A8F
  8
0
 10
42.069252932261293
 20
166.15640371354999
 30
0.0
 11
48.516434448613438
 21
166.15640371354999
 31
0.0
  0
ARC
  5
A90
  8
0
 10
48.516434448613438
 20
167.15640371354999
 30
0.0
 40
1.0
 50
270.0
 51
337.92078932487431
1001
GENIUS_GENODEF_13
1002
{
1000
HIER
1070
     0
1002
}
1002
{
1000
MANEDIT
1070
     0
1002
}
1002
{
1000
NOSEL
1070
     0
1002
}
1002
{
1000
BEHIND
1070
     0
1002
}
1002
{
1000
REACTOR
1002
}
1001
GENIUS_GENOBJ-N-FIL_13
1002
{
1000
OWNER
1000
GEN
1002
}
  0
LINE
  5
A91
  8
0
 10
64.069252932261293
 20
140.1057668348399
 30
0.0
 11
64.069252932261293
 21
166.15640371354999
 31
0.0
  0
LINE
  5
A92
  8
0
 10
65.069252932261293
 20
138.6838097111816
 30
0.0
 11
64.069252932261293
 21
140.1057668348399
 31
0.0
  0
LINE
  5
A93
  8
0
 10
65.069252932261293
 20
174.38516578690221
 30
0.0
 11
62.573322821832448
 21
167.49708237854639
 31
0.0
  0
ARC
  5
A94
  8
0
 10
63.513502616986727
 20
167.15640371354999
 30
0.0
 40
1.0
 50
160.0817726063521
 51
270.0
1001
GENIUS_GENODEF_13
1002
{
1000
HIER
1070
     0
1002
}
1002
{
1000
MANEDIT
1070
     0
1002
}
1002
{
1000
NOSEL
1070
     0
1002
}
1002
{
1000
BEHIND
1070
     0
1002
}
1002
{
1000
REACTOR
1002
}
1001
GENIUS_GENOBJ-N-FIL_13
1002
{
1000
OWNER
1000
GEN
1002
}
  0
LINE
  5
A95
  8
0
 10
63.513502616986727
 20
166.15640371354999
 30
0.0
 11
64.069252932261293
 21
166.15640371354999
 31
0.0
  0
ARC
  5
A96
  8
0
 10
75.069252932261293
 20
228.65640371355019
 30
0.0
 40
10.0
 50
0.0
 51
180.0
  0
LINE
  5
A97
  8
1
 10
245.39393421908409
 20
145.6564037135503
 30
0.0
 11
245.39393421908409
 21
241.6564038241068
 31
0.0
1001
GENIUS_GENODEF_13
1002
{
1000
HIER
1070
     0
1002
}
1002
{
1000
MANEDIT
1070
     0
1002
}
1002
{
1000
NOSEL
1070
     0
1002
}
1002
{
1000
BEHIND
1070
     0
1002
}
1002
{
1000
REACTOR
1002
}
1001
GENIUS_GENOBJ-N-CEN_13
1002
{
1000
OWNER
1000
GEN
1002
}
  0
ARC
  5
A98
  8
0
 10
245.39393421908409
 20
148.6564038241068
 30
0.0
 40
66.0
 50
103.09028499999999
 51
196.90971499999989
  0
LINE
  5
A99
  8
0
 10
257.99268021908421
 20
164.8280328241068
 30
0.0
 11
255.4427812190842
 21
208.8137998241067
 31
0.0
  0
LINE
  5
A9A
  8
0
 10
235.34508721908409
 20
208.8137998241067
 30
0.0
 11
232.79518821908411
 21
164.8280328241068
 31
0.0
  0
ARC
  5
A9B
  8
0
 10
245.39393421908409
 20
148.6564038241068
 30
0.0
 40
20.5
 50
7.9208990000000004
 51
52.079100999999987
  0
ARC
  5
A9C
  8
0
 10
245.39393421908409
 20
148.6564038241068
 30
0.0
 40
20.5
 50
127.92089900000001
 51
172.07910100000001
  0
CIRCLE
  5
A9D
  8
0
 10
245.39393421908409
 20
148.6564038241068
 30
0.0
 40
17.5
  0
CIRCLE
  5
A9E
  8
0
 10
245.39393421908409
 20
148.65640371355039
 30
0.0
 40
7.9999999447218206
  0
LINE
  5
A9F
  8
0
 10
245.3944342190841
 20
148.6564037135503
 30
0.0
 11
245.39343421908421
 21
148.6564037135503
 31
0.0
  0
LINE
  5
AA0
  8
0
 10
245.39393421908409
 20
148.65690371355029
 30
0.0
 11
245.39393421908409
 21
148.6559037135504
 31
0.0
  0
LINE
  5
AA1
  8
1
 10
230.39393421908409
 20
220.65640371355039
 30
0.0
 11
260.39393421908409
 21
220.65640371355039
 31
0.0
1001
GENIUS_GENOREF_13
1005
0
  0
ARC
  5
AA2
  8
0
 10
245.39393421908409
 20
220.65640371355039
 30
0.0
 40
12.0
 50
207.48719026802169
 51
332.51280973196629
  0
ARC
  5
AA3
  8
0
 10
231.3517922190841
 20
209.0452958241068
 30
0.0
 40
4.0
 50
356.68221899999998
 51
103.09028600000001
  0
ARC
  5
AA4
  8
0
 10
224.10319713741291
 20
209.5791967316822
 30
0.0
 40
12.0
 50
27.487190268021749
 51
109.2630296908966
1001
GENIUS_GENODEF_13
1002
{
1000
HIER
1070
     0
1002
}
1002
{
1000
MANEDIT
1070
     0
1002
}
1002
{
1000
NOSEL
1070
     0
1002
}
1002
{
1000
BEHIND
1070
     0
1002
}
1002
{
1000
REACTOR
1002
}
1001
GENIUS_GENOBJ-N-FIL_13
1002
{
1000
OWNER
1000
GEN
1002
}
  0
ARC
  5
AA5
  8
0
 10
259.4360762190841
 20
209.0452958241068
 30
0.0
 40
4.0
 50
76.909715000000006
 51
183.317781
  0
ARC
  5
AA6
  8
0
 10
266.68467130075538
 20
209.5791967316822
 30
0.0
 40
12.0
 50
70.736970309103427
 51
152.51280973197831
1001
GENIUS_GENODEF_13
1002
{
1000
HIER
1070
     0
1002
}
1002
{
1000
MANEDIT
1070
     0
1002
}
1002
{
1000
NOSEL
1070
     0
1002
}
1002
{
1000
BEHIND
1070
     0
1002
}
1002
{
1000
REACTOR
1002
}
1001
GENIUS_GENOBJ-N-FIL_13
1002
{
1000
OWNER
1000
GEN
1002
}
  0
ARC
  5
AA7
  8
0
 10
304.7133192190841
 20
130.62280982410681
 30
0.0
 40
4.0
 50
236.682219
 51
343.09028499999999
  0
ARC
  5
AA8
  8
0
 10
290.6711772190842
 20
106.3011058241067
 30
0.0
 40
4.0
 50
316.90971500000001
 51
63.31778199999998
  0
CIRCLE
  5
AEC
  8
0
 10
245.39393421908409
 20
220.65640371355039
 30
0.0
 40
4.0
  0
CIRCLE
  5
AED
  8
3
 10
245.39393421908409
 20
220.65640371355039
 30
0.0
 40
5.0
  0
TEXT
  5
C5A
  8
0
 62
     3
 10
0.0
 20
0.0
 30
0.0
 40
10.0
  1
ALV180
  7
STANDARD1
  0
ENDSEC
  0
EOF
