  0
SECTION
  2
HEADER
  9
$ACADVER
  1
AC1009
  9
$INSBASE
 10
0.0
 20
0.0
 30
0.0
  9
$EXTMIN
 10
-0.0204638472032742
 20
-2.960436562073669
 30
0.0
  9
$EXTMAX
 10
459.43774027362872
 20
336.64548786340458
 30
0.0
  9
$LIMMIN
 10
0.0
 20
0.0
  9
$LIMMAX
 10
270.0
 20
175.0
  9
$ORTHOMODE
 70
     1
  9
$REGENMODE
 70
     1
  9
$FILLMODE
 70
     1
  9
$QTEXTMODE
 70
     0
  9
$MIRRTEXT
 70
     0
  9
$DRAGMODE
 70
     2
  9
$LTSCALE
 40
10.0
  9
$OSMODE
 70
  3071
  9
$ATTMODE
 70
     1
  9
$TEXTSIZE
 40
0.2
  9
$TRACEWID
 40
0.05
  9
$TEXTSTYLE
  7
STANDARD
  9
$CLAYER
  8
0
  9
$CELTYPE
  6
BYLAYER
  9
$CECOLOR
 62
   256
  9
$DIMSCALE
 40
1.0
  9
$DIMASZ
 40
3.0
  9
$DIMEXO
 40
2.0
  9
$DIMDLI
 40
0.38
  9
$DIMRND
 40
0.0
  9
$DIMDLE
 40
0.0
  9
$DIMEXE
 40
2.0
  9
$DIMTP
 40
0.0
  9
$DIMTM
 40
0.0
  9
$DIMTXT
 40
3.0
  9
$DIMCEN
 40
0.0
  9
$DIMTSZ
 40
0.0
  9
$DIMTOL
 70
     0
  9
$DIMLIM
 70
     0
  9
$DIMTIH
 70
     0
  9
$DIMTOH
 70
     0
  9
$DIMSE1
 70
     0
  9
$DIMSE2
 70
     0
  9
$DIMTAD
 70
     1
  9
$DIMZIN
 70
     0
  9
$DIMBLK
  1

  9
$DIMASO
 70
     1
  9
$DIMSHO
 70
     0
  9
$DIMPOST
  1

  9
$DIMAPOST
  1

  9
$DIMALT
 70
     0
  9
$DIMALTD
 70
     2
  9
$DIMALTF
 40
25.399999999999999
  9
$DIMLFAC
 40
1.0
  9
$DIMTOFL
 70
     1
  9
$DIMTVP
 40
1.6000000000000001
  9
$DIMTIX
 70
     1
  9
$DIMSOXD
 70
     0
  9
$DIMSAH
 70
     0
  9
$DIMBLK1
  1

  9
$DIMBLK2
  1

  9
$DIMSTYLE
  2
STANDARD
  9
$DIMCLRD
 70
     0
  9
$DIMCLRE
 70
     0
  9
$DIMCLRT
 70
     0
  9
$DIMTFAC
 40
1.0
  9
$DIMGAP
 40
0.09
  9
$LUNITS
 70
     2
  9
$LUPREC
 70
     4
  9
$SKETCHINC
 40
0.1
  9
$FILLETRAD
 40
12.6
  9
$AUNITS
 70
     1
  9
$AUPREC
 70
     4
  9
$MENU
  1
E:\r13\win\SUPPORT\ACAD
  9
$ELEVATION
 40
0.0
  9
$PELEVATION
 40
0.0
  9
$THICKNESS
 40
0.0
  9
$LIMCHECK
 70
     0
  9
$BLIPMODE
 70
     0
  9
$CHAMFERA
 40
0.0
  9
$CHAMFERB
 40
0.0
  9
$SKPOLY
 70
     0
  9
$TDCREATE
 40
2449839.7803587969
  9
$TDUPDATE
 40
2456597.5507042711
  9
$TDINDWG
 40
0.1080614699
  9
$TDUSRTIMER
 40
0.1080614699
  9
$USRTIMER
 70
     1
  9
$ANGBASE
 50
0.0
  9
$ANGDIR
 70
     0
  9
$PDMODE
 70
     0
  9
$PDSIZE
 40
0.0
  9
$PLINEWID
 40
0.0
  9
$COORDS
 70
     1
  9
$SPLFRAME
 70
     0
  9
$SPLINETYPE
 70
     6
  9
$SPLINESEGS
 70
     8
  9
$ATTDIA
 70
     0
  9
$ATTREQ
 70
     1
  9
$HANDLING
 70
     1
  9
$HANDSEED
  5
104D
  9
$SURFTAB1
 70
     6
  9
$SURFTAB2
 70
     6
  9
$SURFTYPE
 70
     6
  9
$SURFU
 70
     6
  9
$SURFV
 70
     6
  9
$UCSNAME
  2

  9
$UCSORG
 10
0.0
 20
0.0
 30
0.0
  9
$UCSXDIR
 10
1.0
 20
0.0
 30
0.0
  9
$UCSYDIR
 10
0.0
 20
1.0
 30
0.0
  9
$PUCSNAME
  2

  9
$PUCSORG
 10
0.0
 20
0.0
 30
0.0
  9
$PUCSXDIR
 10
1.0
 20
0.0
 30
0.0
  9
$PUCSYDIR
 10
0.0
 20
1.0
 30
0.0
  9
$USERI1
 70
     0
  9
$USERI2
 70
     1
  9
$USERI3
 70
     1
  9
$USERI4
 70
     0
  9
$USERI5
 70
     0
  9
$USERR1
 40
0.0
  9
$USERR2
 40
0.0
  9
$USERR3
 40
0.0
  9
$USERR4
 40
0.0
  9
$USERR5
 40
0.0
  9
$WORLDVIEW
 70
     1
  9
$SHADEDGE
 70
     3
  9
$SHADEDIF
 70
    70
  9
$TILEMODE
 70
     1
  9
$MAXACTVP
 70
    16
  9
$PLIMCHECK
 70
     0
  9
$PEXTMIN
 10
1.0000000000000000E+020
 20
1.0000000000000000E+020
 30
1.0000000000000000E+020
  9
$PEXTMAX
 10
-1.0000000000000000E+020
 20
-1.0000000000000000E+020
 30
-1.0000000000000000E+020
  9
$PLIMMIN
 10
0.0
 20
0.0
  9
$PLIMMAX
 10
12.0
 20
9.0
  9
$UNITMODE
 70
     0
  9
$VISRETAIN
 70
     0
  9
$PLINEGEN
 70
     0
  9
$PSLTSCALE
 70
     0
  0
ENDSEC
  0
SECTION
  2
TABLES
  0
TABLE
  2
VPORT
 70
     1
  0
VPORT
  2
*ACTIVE
 70
     0
 10
0.0
 20
0.0
 11
1.0
 21
1.0
 12
239.1116040520819
 22
166.845661805004
 13
0.0
 23
0.0
 14
10.0
 24
10.0
 15
10.0
 25
10.0
 16
0.0
 26
0.0
 36
1.0
 17
0.0
 27
0.0
 37
0.0
 40
342.666122009454
 41
1.831871345029239
 42
50.0
 43
0.0
 44
0.0
 50
0.0
 51
0.0
 71
     0
 72
   500
 73
     1
 74
     0
 75
     0
 76
     0
 77
     0
 78
     2
  0
ENDTAB
  0
TABLE
  2
LTYPE
 70
     3
  0
LTYPE
  2
CONTINUOUS
 70
     0
  3
Solid Line
 72
    65
 73
     0
 40
0.0
  0
LTYPE
  2
CENTER
 70
     0
  3
____ _ ____ _ ____ _ ____ _ ____ _ ____ _ ____
 72
    65
 73
     4
 40
2.0
 49
1.25
 49
-0.25
 49
0.25
 49
-0.25
  0
LTYPE
  2
PHANTOM2
 70
     0
  3
___ _ _ ___ _ _ ___ _ _ ___ _ _
 72
    65
 73
     6
 40
1.25
 49
0.625
 49
-0.125
 49
0.125
 49
-0.125
 49
0.125
 49
-0.125
  0
ENDTAB
  0
TABLE
  2
LAYER
 70
     4
  0
LAYER
  2
0
 70
     0
 62
     7
  6
CONTINUOUS
  0
LAYER
  2
1
 70
     0
 62
     1
  6
CENTER
  0
LAYER
  2
ITTEN
 70
     0
 62
     1
  6
CENTER
  0
LAYER
  2
3
 70
     0
 62
     3
  6
CONTINUOUS
  0
ENDTAB
  0
TABLE
  2
STYLE
 70
     2
  0
STYLE
  2
STANDARD
 70
     0
 40
0.0
 41
1.0
 50
0.0
 71
     0
 42
0.2
  3
TXT
  4
BIGFONT
  0
STYLE
  2
STANDARD1
 70
     0
 40
0.0
 41
1.0
 50
0.0
 71
     0
 42
3.0
  3
txt
  4

  0
ENDTAB
  0
TABLE
  2
VIEW
 70
     1
  0
VIEW
  2
ALL
 70
     0
 40
179.5384664489153
 10
135.0
 20
89.769233224457665
 41
0.0
 11
0.0
 21
0.0
 31
1.0
 12
0.0
 22
0.0
 32
0.0
 42
0.0
 43
0.0
 44
0.0
 50
0.0
 71
     0
  0
ENDTAB
  0
TABLE
  2
UCS
 70
     0
  0
ENDTAB
  0
TABLE
  2
APPID
 70
    17
  0
APPID
  2
ACAD
 70
     0
  0
APPID
  2
GENIUS_GENODEF_13
 70
     0
  0
APPID
  2
GENIUS_GENOBJ-N-FIL_13
 70
     0
  0
APPID
  2
GENIUS_GENOREF_13
 70
     0
  0
APPID
  2
GENIUS_GENOBJ-N-CEN_13
 70
     0
  0
APPID
  2
GENIUS_GENCFG_13
 70
     0
  0
APPID
  2
GENIUS_GENCFG0_13
 70
     0
  0
APPID
  2
GENIUS_GENCFG1_13
 70
     0
  0
APPID
  2
GENIUS_GENCFG2_13
 70
     0
  0
APPID
  2
GENIUS_GENCFG3_13
 70
     0
  0
APPID
  2
GENIUS_GENCFG4_13
 70
     0
  0
APPID
  2
GENIUS_GEVCFG0_13
 70
     0
  0
APPID
  2
GENIUS_GENOENT_13
 70
     0
  0
APPID
  2
GENIUS_GENOBJ-N-CRS_13
 70
     0
  0
APPID
  2
GENIUS_GENOLIS_13
 70
     0
  0
APPID
  2
ACAD_MLEADERVER
 70
     0
  0
APPID
  2
ACAD_NAV_VCDISPLAY
 70
     0
  0
ENDTAB
  0
TABLE
  2
DIMSTYLE
 70
     1
  0
DIMSTYLE
  2
STANDARD
 70
     0
  3

  4

  5

  6

  7

 40
1.0
 41
0.18
 42
0.0625
 43
0.38
 44
0.18
 45
0.0
 46
0.0
 47
0.0
 48
0.0
140
0.18
141
0.09
142
0.0
143
25.399999999999999
144
1.0
145
0.0
146
1.0
147
0.09
 71
     0
 72
     0
 73
     1
 74
     1
 75
     0
 76
     0
 77
     0
 78
     0
170
     0
171
     2
172
     0
173
     0
174
     0
175
     0
176
     0
177
     0
178
     0
  0
ENDTAB
  0
ENDSEC
  0
SECTION
  2
BLOCKS
  0
BLOCK
  8
0
  2
$MODEL_SPACE
 70
     0
 10
0.0
 20
0.0
 30
0.0
  3
$MODEL_SPACE
  1

  0
ENDBLK
  5
E93
  8
0
  0
BLOCK
 67
     1
  8
0
  2
$PAPER_SPACE
 70
     0
 10
0.0
 20
0.0
 30
0.0
  3
$PAPER_SPACE
  1

  0
ENDBLK
  5
E91
 67
     1
  8
0
  0
BLOCK
  8
0
  2
BATU
 70
     0
 10
0.0
 20
0.0
 30
0.0
  3
BATU
  1

  0
LINE
  5
B45
  8
ITTEN
 10
0.5
 20
0.0
 30
0.0
 11
-0.5
 21
0.0
 31
0.0
  0
LINE
  5
B46
  8
ITTEN
 10
0.0
 20
0.5
 30
0.0
 11
0.0
 21
-0.5
 31
0.0
  0
ENDBLK
  5
B48
  8
0
  0
ENDSEC
  0
SECTION
  2
ENTITIES
  0
POINT
  5
5AB
  8
0
 10
17.451829364787699
 20
2.8898092584588531
 30
0.0
1001
GENIUS_GENODEF_13
1002
{
1000
HIER
1070
    10
1002
}
1002
{
1000
MANEDIT
1070
     0
1002
}
1002
{
1000
NOSEL
1070
     0
1002
}
1002
{
1000
BEHIND
1070
     0
1002
}
1002
{
1000
REACTOR
1002
}
1001
GENIUS_GENOBJ-N-CRS_13
1002
{
1000
OWNER
1000
GEN
1002
}
1001
GENIUS_GENOENT_13
1002
{
1000
MYREF
1005
5AB
1002
}
1002
{
1000
GRP
1005
0
1002
}
1001
GENIUS_GENOLIS_13
1002
{
1000
ENT
1005
0
1005
0
1005
0
1005
5AA
1002
}
  0
LINE
  5
AA4
  8
0
 10
138.47623557420329
 20
320.69548786340459
 30
0.0
 11
138.47623557420329
 21
122.19548483597519
 31
0.0
  0
LINE
  5
AA5
  8
0
 10
111.9762355742033
 20
320.69548786340459
 30
0.0
 11
111.9762355742033
 21
122.19548483597519
 31
0.0
  0
LINE
  5
AA6
  8
0
 10
90.476235574203315
 20
242.4454863448685
 30
0.0
 11
90.476235574203315
 21
200.44548635451139
 31
0.0
  0
LINE
  5
AA8
  8
0
 10
106.0198940581499
 20
199.22489043431861
 30
0.0
 11
111.9762355742033
 21
181.70553595347559
 31
0.0
  0
LINE
  5
AA9
  8
1
 10
79.762682356570849
 20
221.4454863496899
 30
0.0
 11
148.93785648073529
 21
221.4454863496899
 31
0.0
1001
GENIUS_GENODEF_13
1002
{
1000
HIER
1070
     0
1002
}
1002
{
1000
MANEDIT
1070
     0
1002
}
1002
{
1000
NOSEL
1070
     0
1002
}
1002
{
1000
BEHIND
1070
     0
1002
}
1002
{
1000
REACTOR
1002
}
1001
GENIUS_GENOBJ-N-CEN_13
1002
{
1000
OWNER
1000
GEN
1002
}
  0
LINE
  5
AAA
  8
0
 10
104.3156960318853
 20
200.4454863548751
 30
0.0
 11
90.476252240869869
 21
200.4454863548751
 31
0.0
  0
LINE
  5
AAC
  8
0
 10
90.476685574203316
 20
221.4454863496899
 30
0.0
 11
90.475785574203314
 21
221.4454863496899
 31
0.0
  0
LINE
  5
AAD
  8
0
 10
90.476235574203315
 20
221.4459363496899
 30
0.0
 11
90.476235574203315
 21
221.4450363496899
 31
0.0
  0
LINE
  5
AAE
  8
0
 10
100.7817346644611
 20
243.73659555719459
 30
0.0
 11
111.9762355742033
 21
281.71732771197458
 31
0.0
  0
LINE
  5
AAF
  8
0
 10
90.476235574203315
 20
242.4454863448685
 30
0.0
 11
99.055168660446057
 21
242.4454863448685
 31
0.0
  0
LINE
  5
AB2
  8
1
 10
346.93774027362872
 20
336.64548786340458
 30
0.0
 11
346.93774027362872
 21
218.74548727239019
 31
0.0
1001
GENIUS_GENODEF_13
1002
{
1000
HIER
1070
     0
1002
}
1002
{
1000
MANEDIT
1070
     0
1002
}
1002
{
1000
NOSEL
1070
     0
1002
}
1002
{
1000
BEHIND
1070
     0
1002
}
1002
{
1000
REACTOR
1002
}
1001
GENIUS_GENOBJ-N-CEN_13
1002
{
1000
OWNER
1000
GEN
1002
}
  0
LINE
  5
AB3
  8
1
 10
349.50559232576029
 20
220.61114213554899
 30
0.0
 11
237.3760295696614
 21
257.04424553302238
 31
0.0
1001
GENIUS_GENODEF_13
1002
{
1000
HIER
1070
     0
1002
}
1002
{
1000
MANEDIT
1070
     0
1002
}
1002
{
1000
NOSEL
1070
     0
1002
}
1002
{
1000
BEHIND
1070
     0
1002
}
1002
{
1000
REACTOR
1002
}
1001
GENIUS_GENOBJ-N-CEN_13
1002
{
1000
OWNER
1000
GEN
1002
}
  0
LINE
  5
AB4
  8
1
 10
344.36988768316968
 20
220.61114137668929
 30
0.0
 11
456.49945097357357
 21
257.04424554540179
 31
0.0
1001
GENIUS_GENODEF_13
1002
{
1000
HIER
1070
     0
1002
}
1002
{
1000
MANEDIT
1070
     0
1002
}
1002
{
1000
NOSEL
1070
     0
1002
}
1002
{
1000
BEHIND
1070
     0
1002
}
1002
{
1000
REACTOR
1002
}
1001
GENIUS_GENOBJ-N-CEN_13
1002
{
1000
OWNER
1000
GEN
1002
}
  0
LINE
  5
AB6
  8
0
 10
269.27473687362868
 20
236.19020046340469
 30
0.0
 11
323.13865327362868
 21
216.5369805634046
 31
0.0
  0
ARC
  5
AB7
  8
0
 10
346.93774027362872
 20
221.44548786340471
 30
0.0
 40
85.5
 50
173.06478200000001
 51
222.93521799999999
  0
ARC
  5
ABA
  8
0
 10
346.93774027362872
 20
221.44548786340471
 30
0.0
 40
85.5
 50
317.06478199999998
 51
6.9352179999999981
  0
LINE
  5
ABB
  8
0
 10
370.73682727362871
 20
216.5369805634046
 30
0.0
 11
424.6007436736287
 21
236.19020046340469
 31
0.0
  0
CIRCLE
  5
ABC
  8
0
 10
346.93774027362872
 20
221.44548786340471
 30
0.0
 40
112.5
  0
CIRCLE
  5
ABD
  8
0
 10
346.93774115116912
 20
221.44548755752041
 30
0.0
 40
96.90288598885418
  0
LINE
  5
ABE
  8
1
 10
279.22487909803851
 20
128.2467301924182
 30
0.0
 11
348.52476135184259
 21
223.62983342817691
 31
0.0
1001
GENIUS_GENODEF_13
1002
{
1000
HIER
1070
     0
1002
}
1002
{
1000
MANEDIT
1070
     0
1002
}
1002
{
1000
NOSEL
1070
     0
1002
}
1002
{
1000
BEHIND
1070
     0
1002
}
1002
{
1000
REACTOR
1002
}
1001
GENIUS_GENOBJ-N-CEN_13
1002
{
1000
OWNER
1000
GEN
1002
}
  0
LINE
  5
ABF
  8
1
 10
345.35071954113499
 20
223.62983389717729
 30
0.0
 11
414.65060143872688
 21
128.2467301847953
 31
0.0
1001
GENIUS_GENODEF_13
1002
{
1000
HIER
1070
     0
1002
}
1002
{
1000
MANEDIT
1070
     0
1002
}
1002
{
1000
NOSEL
1070
     0
1002
}
1002
{
1000
BEHIND
1070
     0
1002
}
1002
{
1000
REACTOR
1002
}
1001
GENIUS_GENOBJ-N-CEN_13
1002
{
1000
OWNER
1000
GEN
1002
}
  0
ARC
  5
AC0
  8
0
 10
346.93774027362872
 20
221.44548786340471
 30
0.0
 40
85.5
 50
245.06478200000001
 51
294.93521800000002
  0
ARC
  5
AC1
  8
0
 10
346.93774027362872
 20
221.44548786340471
 30
0.0
 40
24.300000000000001
 50
263.65371499999998
 51
276.34628400000003
  0
LINE
  5
AC2
  8
0
 10
308.91549787362868
 20
152.13994926340459
 30
0.0
 11
344.25168577362871
 21
197.29439826340459
 31
0.0
  0
ARC
  5
AC3
  8
0
 10
313.16811937362871
 20
148.8120057634047
 30
0.0
 40
5.4000000000000004
 50
141.95459199999999
 51
245.06478200000001
  0
LINE
  5
AC4
  8
0
 10
324.7987257736288
 20
211.42780116340461
 30
0.0
 11
292.77377557362871
 21
163.8675972634046
 31
0.0
  0
ARC
  5
AC5
  8
0
 10
288.29458087362872
 20
166.88368986340461
 30
0.0
 40
5.4000000000000004
 50
222.93521799999999
 51
326.04540800000001
  0
ARC
  5
AC6
  8
0
 10
346.93774027362872
 20
221.44548786340471
 30
0.0
 40
24.300000000000001
 50
191.653716
 51
204.34628499999999
  0
LINE
  5
AC7
  8
0
 10
349.62379477362867
 20
197.29439826340459
 30
0.0
 11
384.9599826736287
 21
152.13994926340459
 31
0.0
  0
ARC
  5
AC8
  8
0
 10
380.70736117362873
 20
148.8120057634047
 30
0.0
 40
5.4000000000000004
 50
294.93521800000002
 51
38.045408000000002
  0
LINE
  5
AC9
  8
0
 10
401.10170497362861
 20
163.8675972634046
 30
0.0
 11
369.07675477362869
 21
211.42780116340461
 31
0.0
  0
ARC
  5
ACA
  8
0
 10
405.58089967362878
 20
166.88368986340461
 30
0.0
 40
5.4000000000000004
 50
213.95459199999999
 51
317.06478199999998
  0
ARC
  5
ACB
  8
0
 10
346.93774027362872
 20
221.44548786340471
 30
0.0
 40
24.300000000000001
 50
335.65371499999998
 51
348.34628400000003
  0
LINE
  5
ACC
  8
0
 10
346.93819027362872
 20
221.44548727239021
 30
0.0
 11
346.93729027362872
 21
221.44548727239021
 31
0.0
  0
LINE
  5
ACD
  8
0
 10
346.93774027362872
 20
221.4459372723903
 30
0.0
 11
346.93774027362872
 21
221.44503727239021
 31
0.0
  0
LINE
  5
ACE
  8
1
 10
362.23774027362867
 20
311.44548634968982
 30
0.0
 11
331.63774027362871
 21
311.44548634968982
 31
0.0
1001
GENIUS_GENOREF_13
1005
0
  0
ARC
  5
ACF
  8
0
 10
346.93774027362872
 20
311.44548634968982
 30
0.0
 40
12.6
 50
201.0339132931723
 51
338.96608782414671
  0
LINE
  5
AD0
  8
0
 10
336.9616074736287
 20
299.8637595634047
 30
0.0
 11
334.91514967362872
 21
242.56295286340469
 31
0.0
  0
ARC
  5
AD1
  8
0
 10
346.93774027362872
 20
221.44548786340471
 30
0.0
 40
85.5
 50
101.06478199999999
 51
150.93521799999999
  0
ARC
  5
AD2
  8
0
 10
276.92465407362869
 20
260.35792386340472
 30
0.0
 40
5.4000000000000004
 50
150.93521799999999
 51
254.04540800000001
  0
LINE
  5
AD3
  8
0
 10
330.56902267362881
 20
239.4053064634046
 30
0.0
 11
275.44032637362869
 21
255.16593276340461
 31
0.0
  0
ARC
  5
AD4
  8
0
 10
267.42380677362871
 20
231.11732526340469
 30
0.0
 40
5.4000000000000004
 50
69.954592000000005
 51
173.06478200000001
  0
ARC
  5
AD5
  8
0
 10
346.93774027362872
 20
221.44548786340471
 30
0.0
 40
24.300000000000001
 50
119.65371500000001
 51
132.346284
  0
ARC
  5
AD7
  8
0
 10
331.56504817362872
 20
300.05649456340461
 30
0.0
 40
5.4000000000000004
 50
357.95459099999999
 51
101.06478199999999
  0
ARC
  5
AD8
  8
0
 10
346.93774027362872
 20
221.44548786340471
 30
0.0
 40
85.5
 50
29.064782000000001
 51
78.935218000000006
  0
LINE
  5
AD9
  8
0
 10
358.96033087362872
 20
242.56295286340469
 30
0.0
 11
356.91387307362879
 21
299.8637595634047
 31
0.0
  0
ARC
  5
ADA
  8
0
 10
416.95082647362869
 20
260.35792386340472
 30
0.0
 40
5.4000000000000004
 50
285.95459199999999
 51
29.064782000000001
  0
LINE
  5
ADB
  8
0
 10
418.43515417362869
 20
255.16593276340461
 30
0.0
 11
363.30645787362869
 21
239.4053064634046
 31
0.0
  0
ARC
  5
ADC
  8
0
 10
346.93774027362872
 20
221.44548786340471
 30
0.0
 40
24.300000000000001
 50
47.653715999999989
 51
60.346285000000002
  0
ARC
  5
ADD
  8
0
 10
426.45167377362873
 20
231.11732526340469
 30
0.0
 40
5.4000000000000004
 50
6.935219
 51
110.04540799999999
  0
ARC
  5
ADF
  8
0
 10
362.31043327362869
 20
300.05649456340461
 30
0.0
 40
5.4000000000000004
 50
78.935218999999989
 51
182.04540900000001
  0
INSERT
  5
B49
  8
0
  2
BATU
 10
0.0
 20
0.0
 30
0.0
 41
0.001
 42
0.001
 43
0.001
  0
ARC
  5
B88
  8
0
 10
125.2262355742033
 20
320.69548786340459
 30
0.0
 40
13.25
 50
0.0
 51
180.0
  0
ARC
  5
B8A
  8
0
 10
125.2262355742033
 20
122.19548483597519
 30
0.0
 40
13.25
 50
180.0
 51
0.0
  0
ARC
  5
B8B
  8
0
 10
99.055168660446057
 20
244.24548634486851
 30
0.0
 40
1.8
 50
269.99999999999977
 51
343.57756286963371
  0
ARC
  5
B8C
  8
0
 10
104.3156960318853
 20
198.64548635487509
 30
0.0
 40
1.8
 50
18.777332559355131
 51
90.0
  0
CIRCLE
  5
B8D
  8
0
 10
346.93819027362872
 20
221.44548727239021
 30
0.0
 40
10.0
  0
CIRCLE
  5
B8F
  8
0
 10
346.93729027362872
 20
221.44548727239021
 30
0.0
 40
21.0
  0
ARC
  5
BF7
  8
0
 10
323.41686300764633
 20
302.40069046262897
 30
0.0
 40
12.6
 50
21.033913293172429
 51
106.2007946133829
  0
ARC
  5
BF8
  8
0
 10
370.45861771599277
 20
302.4006909213071
 30
0.0
 40
12.6
 50
73.799206503935963
 51
158.96608782414671
  0
CIRCLE
  5
D52
  8
0
 10
346.93774027362872
 20
311.44548634968982
 30
0.0
 40
5.0
  0
CIRCLE
  5
D53
  8
3
 10
346.93774027362872
 20
311.44548634968982
 30
0.0
 40
6.0
  0
CIRCLE
  5
E1D
  8
0
 10
346.93774027362872
 20
221.44548727239021
 30
0.0
 40
99.250000591014441
  0
TEXT
  5
FBE
  8
0
 62
     3
 10
0.0
 20
0.0
 30
0.0
 40
10.0
  1
ALV225
  7
STANDARD1
  0
ENDSEC
  0
EOF
