  0
SECTION
  2
HEADER
  9
$ACADVER
  1
AC1009
  9
$INSBASE
 10
0.0
 20
0.0
 30
0.0
  9
$EXTMIN
 10
-0.0204638472032742
 20
-2.960436562073669
 30
0.0
  9
$EXTMAX
 10
139.0
 20
95.5
 30
0.0
  9
$LIMMIN
 10
0.0
 20
0.0
  9
$LIMMAX
 10
375.0
 20
270.0
  9
$ORTHOMODE
 70
     1
  9
$REGENMODE
 70
     1
  9
$FILLMODE
 70
     1
  9
$QTEXTMODE
 70
     0
  9
$MIRRTEXT
 70
     0
  9
$DRAGMODE
 70
     2
  9
$LTSCALE
 40
5.0
  9
$OSMODE
 70
    37
  9
$ATTMODE
 70
     1
  9
$TEXTSIZE
 40
0.2
  9
$TRACEWID
 40
0.05
  9
$TEXTSTYLE
  7
STANDARD
  9
$CLAYER
  8
0
  9
$CELTYPE
  6
BYLAYER
  9
$CECOLOR
 62
   256
  9
$DIMSCALE
 40
1.0
  9
$DIMASZ
 40
3.0
  9
$DIMEXO
 40
2.0
  9
$DIMDLI
 40
0.38
  9
$DIMRND
 40
0.0
  9
$DIMDLE
 40
0.0
  9
$DIMEXE
 40
2.0
  9
$DIMTP
 40
0.0
  9
$DIMTM
 40
0.0
  9
$DIMTXT
 40
3.2000000000000002
  9
$DIMCEN
 40
0.0
  9
$DIMTSZ
 40
0.0
  9
$DIMTOL
 70
     0
  9
$DIMLIM
 70
     0
  9
$DIMTIH
 70
     0
  9
$DIMTOH
 70
     0
  9
$DIMSE1
 70
     0
  9
$DIMSE2
 70
     0
  9
$DIMTAD
 70
     1
  9
$DIMZIN
 70
     0
  9
$DIMBLK
  1

  9
$DIMASO
 70
     0
  9
$DIMSHO
 70
     0
  9
$DIMPOST
  1

  9
$DIMAPOST
  1

  9
$DIMALT
 70
     0
  9
$DIMALTD
 70
     2
  9
$DIMALTF
 40
25.399999999999999
  9
$DIMLFAC
 40
1.0
  9
$DIMTOFL
 70
     1
  9
$DIMTVP
 40
1.6000000000000001
  9
$DIMTIX
 70
     1
  9
$DIMSOXD
 70
     0
  9
$DIMSAH
 70
     0
  9
$DIMBLK1
  1

  9
$DIMBLK2
  1

  9
$DIMSTYLE
  2
STANDARD
  9
$DIMCLRD
 70
     0
  9
$DIMCLRE
 70
     0
  9
$DIMCLRT
 70
     0
  9
$DIMTFAC
 40
1.0
  9
$DIMGAP
 40
0.09
  9
$LUNITS
 70
     2
  9
$LUPREC
 70
     4
  9
$SKETCHINC
 40
0.1
  9
$FILLETRAD
 40
0.0
  9
$AUNITS
 70
     0
  9
$AUPREC
 70
     4
  9
$MENU
  1
E:\r13\win\SUPPORT\ACAD
  9
$ELEVATION
 40
0.0
  9
$PELEVATION
 40
0.0
  9
$THICKNESS
 40
0.0
  9
$LIMCHECK
 70
     0
  9
$BLIPMODE
 70
     0
  9
$CHAMFERA
 40
0.0
  9
$CHAMFERB
 40
0.0
  9
$SKPOLY
 70
     0
  9
$TDCREATE
 40
2449840.6513888892
  9
$TDUPDATE
 40
2457534.604988982
  9
$TDINDWG
 40
0.231650787
  9
$TDUSRTIMER
 40
0.231650787
  9
$USRTIMER
 70
     1
  9
$ANGBASE
 50
0.0
  9
$ANGDIR
 70
     0
  9
$PDMODE
 70
     0
  9
$PDSIZE
 40
0.0
  9
$PLINEWID
 40
0.0
  9
$COORDS
 70
     1
  9
$SPLFRAME
 70
     0
  9
$SPLINETYPE
 70
     6
  9
$SPLINESEGS
 70
     8
  9
$ATTDIA
 70
     0
  9
$ATTREQ
 70
     1
  9
$HANDLING
 70
     1
  9
$HANDSEED
  5
1687
  9
$SURFTAB1
 70
     6
  9
$SURFTAB2
 70
     6
  9
$SURFTYPE
 70
     6
  9
$SURFU
 70
     6
  9
$SURFV
 70
     6
  9
$UCSNAME
  2

  9
$UCSORG
 10
0.0
 20
0.0
 30
0.0
  9
$UCSXDIR
 10
1.0
 20
0.0
 30
0.0
  9
$UCSYDIR
 10
0.0
 20
1.0
 30
0.0
  9
$PUCSNAME
  2

  9
$PUCSORG
 10
0.0
 20
0.0
 30
0.0
  9
$PUCSXDIR
 10
1.0
 20
0.0
 30
0.0
  9
$PUCSYDIR
 10
0.0
 20
1.0
 30
0.0
  9
$USERI1
 70
     0
  9
$USERI2
 70
     1
  9
$USERI3
 70
     0
  9
$USERI4
 70
     0
  9
$USERI5
 70
     0
  9
$USERR1
 40
0.0
  9
$USERR2
 40
0.0
  9
$USERR3
 40
0.0
  9
$USERR4
 40
0.0
  9
$USERR5
 40
0.0
  9
$WORLDVIEW
 70
     1
  9
$SHADEDGE
 70
     3
  9
$SHADEDIF
 70
    70
  9
$TILEMODE
 70
     1
  9
$MAXACTVP
 70
    16
  9
$PLIMCHECK
 70
     0
  9
$PEXTMIN
 10
1.0000000000000000E+020
 20
1.0000000000000000E+020
 30
1.0000000000000000E+020
  9
$PEXTMAX
 10
-1.0000000000000000E+020
 20
-1.0000000000000000E+020
 30
-1.0000000000000000E+020
  9
$PLIMMIN
 10
0.0
 20
0.0
  9
$PLIMMAX
 10
12.0
 20
9.0
  9
$UNITMODE
 70
     0
  9
$VISRETAIN
 70
     0
  9
$PLINEGEN
 70
     0
  9
$PSLTSCALE
 70
     0
  0
ENDSEC
  0
SECTION
  2
TABLES
  0
TABLE
  2
VPORT
 70
     1
  0
VPORT
  2
*ACTIVE
 70
     0
 10
0.0
 20
0.0
 11
1.0
 21
1.0
 12
69.586799678680535
 22
46.269078505840177
 13
0.0
 23
0.0
 14
5.0
 24
5.0
 15
10.0
 25
10.0
 16
0.0
 26
0.0
 36
1.0
 17
0.0
 27
0.0
 37
0.0
 40
102.3649441466105
 41
1.368715083798882
 42
50.0
 43
0.0
 44
0.0
 50
0.0
 51
0.0
 71
     0
 72
   500
 73
     1
 74
     0
 75
     0
 76
     0
 77
     0
 78
     2
  0
ENDTAB
  0
TABLE
  2
LTYPE
 70
     4
  0
LTYPE
  2
CONTINUOUS
 70
     0
  3
Solid Line
 72
    65
 73
     0
 40
0.0
  0
LTYPE
  2
CENTER
 70
     0
  3
____ _ ____ _ ____ _ ____ _ ____ _ ____ _ ____
 72
    65
 73
     4
 40
2.0
 49
1.25
 49
-0.25
 49
0.25
 49
-0.25
  0
LTYPE
  2
HIDDEN
 70
     0
  3
_ _ _ _ _ _ _ _ _ _ _ _ _ _ _ _ _ _ _ _ _ _ _
 72
    65
 73
     2
 40
0.375
 49
0.25
 49
-0.125
  0
LTYPE
  2
PHANTOM2
 70
     0
  3
___ _ _ ___ _ _ ___ _ _ ___ _ _
 72
    65
 73
     6
 40
1.25
 49
0.625
 49
-0.125
 49
0.125
 49
-0.125
 49
0.125
 49
-0.125
  0
ENDTAB
  0
TABLE
  2
LAYER
 70
     4
  0
LAYER
  2
0
 70
     0
 62
     7
  6
CONTINUOUS
  0
LAYER
  2
1
 70
     0
 62
     1
  6
CENTER
  0
LAYER
  2
2
 70
     0
 62
     2
  6
HIDDEN
  0
LAYER
  2
3
 70
     0
 62
     3
  6
CONTINUOUS
  0
ENDTAB
  0
TABLE
  2
STYLE
 70
     2
  0
STYLE
  2
STANDARD
 70
     0
 40
0.0
 41
1.0
 50
0.0
 71
     0
 42
0.2
  3
TXT
  4
BIGFONT
  0
STYLE
  2
STANDARD1
 70
     0
 40
0.0
 41
1.0
 50
0.0
 71
     0
 42
3.0
  3
txt
  4

  0
ENDTAB
  0
TABLE
  2
VIEW
 70
     1
  0
VIEW
  2
ALL
 70
     0
 40
270.0
 10
220.99159663865549
 20
135.0
 41
0.0
 11
0.0
 21
0.0
 31
1.0
 12
0.0
 22
0.0
 32
0.0
 42
0.0
 43
0.0
 44
0.0
 50
0.0
 71
     0
  0
ENDTAB
  0
TABLE
  2
UCS
 70
     0
  0
ENDTAB
  0
TABLE
  2
APPID
 70
     5
  0
APPID
  2
ACAD
 70
     0
  0
APPID
  2
_CALL_MAC$
 70
     0
  0
APPID
  2
ACAD_MLEADERVER
 70
     0
  0
APPID
  2
ACAD_NAV_VCDISPLAY
 70
     0
  0
APPID
  2
ACAD_EXEMPT_FROM_CAD_STANDARDS
 70
     0
  0
ENDTAB
  0
TABLE
  2
DIMSTYLE
 70
     2
  0
DIMSTYLE
  2
STANDARD
 70
     0
  3

  4

  5

  6

  7

 40
1.0
 41
0.18
 42
0.0625
 43
0.38
 44
0.18
 45
0.0
 46
0.0
 47
0.0
 48
0.0
140
0.18
141
0.09
142
0.0
143
25.399999999999999
144
1.0
145
0.0
146
1.0
147
0.09
 71
     0
 72
     0
 73
     1
 74
     1
 75
     0
 76
     0
 77
     0
 78
     0
170
     0
171
     2
172
     0
173
     0
174
     0
175
     0
176
     0
177
     0
178
     0
  0
DIMSTYLE
  2
ISO-25
 70
     0
  3

  4

  5

  6

  7

 40
1.0
 41
2.5
 42
0.625
 43
3.75
 44
1.25
 45
0.0
 46
0.0
 47
0.0
 48
0.0
140
2.5
141
2.5
142
0.0
143
0.0393700787
144
1.0
145
0.0
146
1.0
147
0.625
 71
     0
 72
     0
 73
     0
 74
     0
 75
     0
 76
     0
 77
     1
 78
     8
170
     0
171
     3
172
     1
173
     0
174
     0
175
     0
176
     0
177
     0
178
     0
  0
ENDTAB
  0
ENDSEC
  0
SECTION
  2
BLOCKS
  0
BLOCK
  8
0
  2
$MODEL_SPACE
 70
     0
 10
0.0
 20
0.0
 30
0.0
  3
$MODEL_SPACE
  1

  0
ENDBLK
  5
6E2
  8
0
  0
BLOCK
 67
     1
  8
0
  2
$PAPER_SPACE
 70
     0
 10
0.0
 20
0.0
 30
0.0
  3
$PAPER_SPACE
  1

  0
ENDBLK
  5
6E0
 67
     1
  8
0
  0
ENDSEC
  0
SECTION
  2
ENTITIES
  0
TEXT
  5
8F7
  8
0
 62
     3
 10
0.0
 20
0.0
 30
0.0
 40
10.0
  1
AMBV12F
  7
STANDARD1
  0
LINE
  5
1417
  8
0
 10
61.5
 20
47.0
 30
0.0
 11
61.5
 21
39.0
 31
0.0
  0
LINE
  5
1418
  8
0
 10
66.5
 20
39.0
 30
0.0
 11
66.5
 21
47.0
 31
0.0
  0
LINE
  5
1419
  8
0
 10
61.5
 20
39.0
 30
0.0
 11
87.0
 21
39.0
 31
0.0
  0
LINE
  5
141A
  8
0
 10
61.5
 20
47.0
 30
0.0
 11
98.500000000000014
 21
47.0
 31
0.0
  0
LINE
  5
141B
  8
0
 10
61.5
 20
38.0
 30
0.0
 11
61.5
 21
35.0
 31
0.0
  0
LINE
  5
141C
  8
0
 10
66.5
 20
35.0
 30
0.0
 11
66.5
 21
38.0
 31
0.0
  0
LINE
  5
141D
  8
0
 10
87.0
 20
38.0
 30
0.0
 11
61.5
 21
38.0
 31
0.0
  0
LINE
  5
141E
  8
0
 10
61.5
 20
35.0
 30
0.0
 11
98.500000000000014
 21
34.999999999999993
 31
0.0
  0
LINE
  5
141F
  8
0
 10
93.499999999999986
 20
47.0
 30
0.0
 11
93.499999999999986
 21
35.0
 31
0.0
  0
LINE
  5
1420
  8
0
 10
87.0
 20
39.0
 30
0.0
 11
87.0
 21
38.0
 31
0.0
  0
LINE
  5
1421
  8
0
 10
98.500000000000014
 20
35.0
 30
0.0
 11
98.500000000000014
 21
47.0
 31
0.0
  0
ARC
  5
1422
  8
0
 10
66.5
 20
80.0
 30
0.0
 40
5.0
 50
180.0
 51
270.0
  0
LINE
  5
1423
  8
0
 10
61.5
 20
88.0
 30
0.0
 11
61.5
 21
80.0
 31
0.0
  0
ARC
  5
1424
  8
0
 10
66.5
 20
88.0
 30
0.0
 40
5.0000000000000133
 50
90.0
 51
180.0
  0
LINE
  5
1425
  8
0
 10
93.499999999999986
 20
93.0
 30
0.0
 11
66.5
 21
93.0
 31
0.0
  0
ARC
  5
1426
  8
0
 10
93.499999999999986
 20
88.0
 30
0.0
 40
5.0000000000000133
 50
0.0
 51
90.0
  0
LINE
  5
1427
  8
0
 10
98.500000000000014
 20
80.0
 30
0.0
 11
98.500000000000014
 21
88.0
 31
0.0
  0
ARC
  5
1428
  8
0
 10
93.499999999999986
 20
80.0
 30
0.0
 40
5.0
 50
270.0
 51
0.0
  0
LINE
  5
1429
  8
0
 10
66.5
 20
75.0
 30
0.0
 11
93.499999999999986
 21
75.0
 31
0.0
  0
CIRCLE
  5
142A
  8
0
 10
92.0
 20
84.0
 30
0.0
 40
5.0
  0
CIRCLE
  5
142B
  8
0
 10
68.0
 20
84.0
 30
0.0
 40
5.0
  0
CIRCLE
  5
142C
  8
0
 10
68.0
 20
84.0
 30
0.0
 40
2.7499999999999711
  0
CIRCLE
  5
142D
  8
0
 10
92.0
 20
84.0
 30
0.0
 40
2.7499999999999711
  0
LINE
  5
142E
  8
0
 10
139.0
 20
35.0
 30
0.0
 11
139.0
 21
47.0
 31
0.0
  0
LINE
  5
142F
  8
0
 10
134.0
 20
47.0
 30
0.0
 11
134.0
 21
35.0
 31
0.0
  0
LINE
  5
1430
  8
0
 10
126.0
 20
35.0
 30
0.0
 11
126.0
 21
47.0
 31
0.0
  0
LINE
  5
1431
  8
0
 10
121.0
 20
47.0
 30
0.0
 11
121.0
 21
35.0
 31
0.0
  0
LINE
  5
1432
  8
0
 10
139.0
 20
47.0
 30
0.0
 11
121.0
 21
47.0
 31
0.0
  0
LINE
  5
1433
  8
0
 10
121.0
 20
35.0
 30
0.0
 11
139.0
 21
34.999999999999993
 31
0.0
  0
LINE
  5
1434
  8
0
 10
21.0
 20
39.000000000000007
 30
0.0
 11
39.0
 21
39.000000000000007
 31
0.0
  0
LINE
  5
1435
  8
0
 10
21.0
 20
47.000000000000007
 30
0.0
 11
21.0
 21
35.000000000000007
 31
0.0
  0
LINE
  5
1436
  8
0
 10
21.0
 20
47.000000000000007
 30
0.0
 11
39.0
 21
47.000000000000007
 31
0.0
  0
LINE
  5
1437
  8
0
 10
26.0
 20
39.000000000000007
 30
0.0
 11
26.0
 21
47.000000000000007
 31
0.0
  0
LINE
  5
1438
  8
0
 10
39.0
 20
37.999999999999993
 30
0.0
 11
21.0
 21
38.000000000000007
 31
0.0
  0
LINE
  5
1439
  8
0
 10
26.0
 20
35.000000000000007
 30
0.0
 11
26.0
 21
38.000000000000007
 31
0.0
  0
LINE
  5
143A
  8
0
 10
21.0
 20
35.000000000000007
 30
0.0
 11
39.0
 21
35.0
 31
0.0
  0
LINE
  5
143B
  8
0
 10
34.0
 20
38.000000000000007
 30
0.0
 11
34.0
 21
35.000000000000007
 31
0.0
  0
LINE
  5
143C
  8
0
 10
34.0
 20
47.000000000000007
 30
0.0
 11
34.0
 21
39.000000000000007
 31
0.0
  0
LINE
  5
143D
  8
0
 10
39.0
 20
35.0
 30
0.0
 11
39.0
 21
47.000000000000007
 31
0.0
  0
LINE
  5
143E
  8
2
 10
87.0
 20
47.0
 30
0.0
 11
87.000000000000014
 21
43.099999999999987
 31
0.0
  0
LINE
  5
143F
  8
2
 10
97.000000000000014
 20
47.000000000000007
 30
0.0
 11
97.000000000000014
 21
43.100000000000001
 31
0.0
  0
LINE
  5
1440
  8
2
 10
89.250000000000014
 20
43.100000000000001
 30
0.0
 11
89.250000000000014
 21
34.999999999999993
 31
0.0
  0
LINE
  5
1441
  8
2
 10
94.749999999999972
 20
43.100000000000001
 30
0.0
 11
94.749999999999972
 21
34.999999999999993
 31
0.0
  0
LINE
  5
1442
  8
2
 10
87.0
 20
43.100000000000001
 30
0.0
 11
97.0
 21
43.100000000000001
 31
0.0
  0
LINE
  5
1443
  8
2
 10
63.0
 20
47.0
 30
0.0
 11
63.000000000000007
 21
43.099999999999987
 31
0.0
  0
LINE
  5
1444
  8
2
 10
73.000000000000014
 20
47.000000000000007
 30
0.0
 11
73.000000000000014
 21
43.100000000000001
 31
0.0
  0
LINE
  5
1445
  8
2
 10
65.250000000000028
 20
43.100000000000001
 30
0.0
 11
65.250000000000028
 21
39.0
 31
0.0
  0
LINE
  5
1446
  8
2
 10
70.749999999999972
 20
43.100000000000001
 30
0.0
 11
70.749999999999972
 21
39.0
 31
0.0
  0
LINE
  5
1447
  8
2
 10
63.0
 20
43.100000000000001
 30
0.0
 11
73.0
 21
43.100000000000001
 31
0.0
  0
LINE
  5
144A
  8
2
 10
125.0
 20
47.0
 30
0.0
 11
125.0
 21
43.099999999999987
 31
0.0
  0
LINE
  5
144B
  8
2
 10
135.0
 20
47.000000000000007
 30
0.0
 11
135.0
 21
43.100000000000001
 31
0.0
  0
LINE
  5
144C
  8
2
 10
127.25
 20
43.100000000000001
 30
0.0
 11
127.25
 21
34.999999999999993
 31
0.0
  0
LINE
  5
144D
  8
2
 10
132.74999999999989
 20
43.100000000000001
 30
0.0
 11
132.74999999999989
 21
34.999999999999993
 31
0.0
  0
LINE
  5
144E
  8
2
 10
125.0
 20
43.100000000000001
 30
0.0
 11
135.0
 21
43.100000000000001
 31
0.0
  0
LINE
  5
1450
  8
2
 10
25.0
 20
47.000000000000007
 30
0.0
 11
25.000000000000021
 21
43.100000000000001
 31
0.0
  0
LINE
  5
1451
  8
2
 10
35.000000000000021
 20
47.000000000000007
 30
0.0
 11
35.000000000000021
 21
43.100000000000009
 31
0.0
  0
LINE
  5
1452
  8
2
 10
27.250000000000028
 20
43.100000000000009
 30
0.0
 11
27.250000000000028
 21
39.0
 31
0.0
  0
LINE
  5
1453
  8
2
 10
32.749999999999972
 20
43.100000000000009
 30
0.0
 11
32.749999999999972
 21
39.0
 31
0.0
  0
LINE
  5
1454
  8
2
 10
25.0
 20
43.100000000000009
 30
0.0
 11
35.0
 21
43.100000000000009
 31
0.0
  0
LINE
  5
1456
  8
2
 10
32.749999999999972
 20
37.999999999999993
 30
0.0
 11
32.749999999999972
 21
35.0
 31
0.0
  0
LINE
  5
1457
  8
2
 10
27.250000000000028
 20
38.0
 30
0.0
 11
27.250000000000028
 21
35.0
 31
0.0
  0
LINE
  5
1458
  8
2
 10
70.749999999999972
 20
38.0
 30
0.0
 11
70.749999999999972
 21
34.999999999999993
 31
0.0
  0
LINE
  5
1459
  8
2
 10
65.250000000000028
 20
38.0
 30
0.0
 11
65.250000000000028
 21
34.999999999999993
 31
0.0
  0
LINE
  5
14AE
  8
1
 10
59.0
 20
84.0
 30
0.0
 11
101.0
 21
84.0
 31
0.0
  0
LINE
  5
14AF
  8
1
 10
80.0
 20
95.5
 30
0.0
 11
80.0
 21
72.5
 31
0.0
  0
LINE
  5
14B0
  8
1
 10
68.0
 20
91.5
 30
0.0
 11
68.0
 21
76.5
 31
0.0
  0
LINE
  5
14B1
  8
1
 10
92.0
 20
91.5
 30
0.0
 11
92.0
 21
76.5
 31
0.0
  0
LINE
  5
14B5
  8
1
 10
30.0
 20
49.500000000000007
 30
0.0
 11
30.0
 21
32.5
 31
0.0
  0
LINE
  5
14B6
  8
1
 10
130.0
 20
49.5
 30
0.0
 11
130.0
 21
32.5
 31
0.0
  0
LINE
  5
14B7
  8
1
 10
68.0
 20
49.5
 30
0.0
 11
68.0
 21
32.5
 31
0.0
  0
LINE
  5
14B8
  8
1
 10
92.0
 20
49.5
 30
0.0
 11
92.0
 21
32.5
 31
0.0
  0
LINE
  5
1512
  8
2
 10
73.999999999999986
 20
35.000000000000092
 30
0.0
 11
74.0
 21
38.000000000000007
 31
0.0
  0
LINE
  5
1513
  8
2
 10
85.999999999999986
 20
35.0
 30
0.0
 11
85.999999999999986
 21
38.0
 31
0.0
  0
LINE
  5
1514
  8
2
 10
74.67650000000026
 20
35.676500000000267
 30
0.0
 11
74.67650000000026
 21
38.0
 31
0.0
  0
LINE
  5
1515
  8
2
 10
85.323499999999797
 20
35.676500000000267
 30
0.0
 11
85.323499999999797
 21
38.0
 31
0.0
  0
LINE
  5
1516
  8
2
 10
85.999999999999972
 20
34.999999999999993
 30
0.0
 11
85.323499999999683
 21
35.676500000000267
 31
0.0
  0
LINE
  5
1517
  8
2
 10
85.323499999999797
 20
35.676500000000267
 30
0.0
 11
74.676500000000203
 21
35.676500000000267
 31
0.0
  0
LINE
  5
1518
  8
2
 10
73.999999999999901
 20
35.0
 30
0.0
 11
74.676500000000203
 21
35.676500000000267
 31
0.0
  0
LINE
  5
1519
  8
2
 10
85.999999999999972
 20
47.0
 30
0.0
 11
85.323499999999683
 21
46.323499999999719
 31
0.0
  0
LINE
  5
151A
  8
2
 10
85.323499999999797
 20
46.323499999999719
 30
0.0
 11
74.676500000000203
 21
46.323499999999719
 31
0.0
  0
LINE
  5
151B
  8
2
 10
73.999999999999901
 20
47.0
 30
0.0
 11
74.676500000000203
 21
46.323499999999719
 31
0.0
  0
LINE
  5
1522
  8
2
 10
85.999999999999986
 20
39.0
 30
0.0
 11
85.999999999999986
 21
47.000000000000007
 31
0.0
  0
LINE
  5
1523
  8
2
 10
85.323499999999797
 20
39.0
 30
0.0
 11
85.323499999999797
 21
46.323499999999768
 31
0.0
  0
LINE
  5
1524
  8
2
 10
74.67650000000026
 20
39.0
 30
0.0
 11
74.67650000000026
 21
46.323499999999719
 31
0.0
  0
LINE
  5
1525
  8
2
 10
74.0
 20
39.0
 30
0.0
 11
73.999999999999986
 21
46.999999999999922
 31
0.0
  0
CIRCLE
  5
1526
  8
0
 10
80.0
 20
84.0
 30
0.0
 40
5.323499999999683
  0
CIRCLE
  5
1527
  8
3
 10
80.0
 20
84.0
 30
0.0
 40
5.9999999999999849
  0
LINE
  5
15B3
  8
1
 10
80.0
 20
49.5
 30
0.0
 11
80.0
 21
32.5
 31
0.0
  0
ENDSEC
  0
EOF
