  0
SECTION
  2
HEADER
  9
$ACADVER
  1
AC1009
  9
$INSBASE
 10
0.0
 20
0.0
 30
0.0
  9
$EXTMIN
 10
-0.0204638472032742
 20
-2.960436562073669
 30
0.0
  9
$EXTMAX
 10
471.23124123470319
 20
669.50661171856711
 30
0.0
  9
$LIMMIN
 10
0.0
 20
0.0
  9
$LIMMAX
 10
390.0
 20
270.0
  9
$ORTHOMODE
 70
     1
  9
$REGENMODE
 70
     1
  9
$FILLMODE
 70
     1
  9
$QTEXTMODE
 70
     0
  9
$MIRRTEXT
 70
     1
  9
$DRAGMODE
 70
     2
  9
$LTSCALE
 40
5.0
  9
$OSMODE
 70
  3071
  9
$ATTMODE
 70
     1
  9
$TEXTSIZE
 40
2.5
  9
$TRACEWID
 40
1.0
  9
$TEXTSTYLE
  7
STANDARD
  9
$CLAYER
  8
4
  9
$CELTYPE
  6
BYLAYER
  9
$CECOLOR
 62
   256
  9
$DIMSCALE
 40
1.0
  9
$DIMASZ
 40
3.0
  9
$DIMEXO
 40
1.0
  9
$DIMDLI
 40
6.0
  9
$DIMRND
 40
0.0
  9
$DIMDLE
 40
0.0
  9
$DIMEXE
 40
1.0
  9
$DIMTP
 40
495.0
  9
$DIMTM
 40
0.0
  9
$DIMTXT
 40
2.5
  9
$DIMCEN
 40
0.0
  9
$DIMTSZ
 40
0.0
  9
$DIMTOL
 70
     0
  9
$DIMLIM
 70
     0
  9
$DIMTIH
 70
     0
  9
$DIMTOH
 70
     0
  9
$DIMSE1
 70
     0
  9
$DIMSE2
 70
     0
  9
$DIMTAD
 70
     1
  9
$DIMZIN
 70
     8
  9
$DIMBLK
  1

  9
$DIMASO
 70
     0
  9
$DIMSHO
 70
     1
  9
$DIMPOST
  1

  9
$DIMAPOST
  1

  9
$DIMALT
 70
     0
  9
$DIMALTD
 70
     2
  9
$DIMALTF
 40
25.399999999999999
  9
$DIMLFAC
 40
1.0
  9
$DIMTOFL
 70
     1
  9
$DIMTVP
 40
0.0
  9
$DIMTIX
 70
     1
  9
$DIMSOXD
 70
     0
  9
$DIMSAH
 70
     0
  9
$DIMBLK1
  1

  9
$DIMBLK2
  1

  9
$DIMSTYLE
  2
ITM
  9
$DIMCLRD
 70
   256
  9
$DIMCLRE
 70
   256
  9
$DIMCLRT
 70
   256
  9
$DIMTFAC
 40
1.0
  9
$DIMGAP
 40
1.0
  9
$LUNITS
 70
     2
  9
$LUPREC
 70
     2
  9
$SKETCHINC
 40
1.0
  9
$FILLETRAD
 40
0.4
  9
$AUNITS
 70
     0
  9
$AUPREC
 70
     0
  9
$MENU
  1
.
  9
$ELEVATION
 40
0.0
  9
$PELEVATION
 40
0.0
  9
$THICKNESS
 40
0.0
  9
$LIMCHECK
 70
     0
  9
$BLIPMODE
 70
     0
  9
$CHAMFERA
 40
1.1999999999999991
  9
$CHAMFERB
 40
1.1999999999999991
  9
$SKPOLY
 70
     0
  9
$TDCREATE
 40
2453354.0921258219
  9
$TDUPDATE
 40
2456597.5592201389
  9
$TDINDWG
 40
513.65917988429999
  9
$TDUSRTIMER
 40
513.65890190970003
  9
$USRTIMER
 70
     1
  9
$ANGBASE
 50
0.0
  9
$ANGDIR
 70
     0
  9
$PDMODE
 70
     0
  9
$PDSIZE
 40
0.0
  9
$PLINEWID
 40
0.0
  9
$COORDS
 70
     1
  9
$SPLFRAME
 70
     0
  9
$SPLINETYPE
 70
     6
  9
$SPLINESEGS
 70
     8
  9
$ATTDIA
 70
     0
  9
$ATTREQ
 70
     1
  9
$HANDLING
 70
     1
  9
$HANDSEED
  5
362
  9
$SURFTAB1
 70
     6
  9
$SURFTAB2
 70
     6
  9
$SURFTYPE
 70
     6
  9
$SURFU
 70
     6
  9
$SURFV
 70
     6
  9
$UCSNAME
  2

  9
$UCSORG
 10
0.0
 20
0.0
 30
0.0
  9
$UCSXDIR
 10
1.0
 20
0.0
 30
0.0
  9
$UCSYDIR
 10
0.0
 20
1.0
 30
0.0
  9
$PUCSNAME
  2

  9
$PUCSORG
 10
0.0
 20
0.0
 30
0.0
  9
$PUCSXDIR
 10
1.0
 20
0.0
 30
0.0
  9
$PUCSYDIR
 10
0.0
 20
1.0
 30
0.0
  9
$USERI1
 70
     4
  9
$USERI2
 70
     1
  9
$USERI3
 70
     1
  9
$USERI4
 70
     0
  9
$USERI5
 70
     0
  9
$USERR1
 40
1.0
  9
$USERR2
 40
3.0
  9
$USERR3
 40
3.2000000000000002
  9
$USERR4
 40
3.0
  9
$USERR5
 40
10.0
  9
$WORLDVIEW
 70
     1
  9
$SHADEDGE
 70
     3
  9
$SHADEDIF
 70
    70
  9
$TILEMODE
 70
     1
  9
$MAXACTVP
 70
    16
  9
$PLIMCHECK
 70
     0
  9
$PEXTMIN
 10
0.0
 20
0.0
 30
0.0
  9
$PEXTMAX
 10
0.0
 20
0.0
 30
0.0
  9
$PLIMMIN
 10
0.0
 20
0.0
  9
$PLIMMAX
 10
12.0
 20
9.0
  9
$UNITMODE
 70
     0
  9
$VISRETAIN
 70
     0
  9
$PLINEGEN
 70
     0
  9
$PSLTSCALE
 70
     1
  0
ENDSEC
  0
SECTION
  2
TABLES
  0
TABLE
  2
VPORT
 70
     1
  0
VPORT
  2
*ACTIVE
 70
     0
 10
0.0
 20
0.0
 11
1.0
 21
1.0
 12
254.23217361639479
 22
333.272007692572
 13
0.0
 23
0.0
 14
5.0
 24
5.0
 15
10.0
 25
10.0
 16
0.0
 26
0.0
 36
1.0
 17
0.0
 27
0.0
 37
0.0
 40
678.54155510010605
 41
1.831871345029239
 42
50.0
 43
0.0
 44
0.0
 50
0.0
 51
0.0
 71
    16
 72
   500
 73
     1
 74
     1
 75
     0
 76
     0
 77
     0
 78
     1
  0
ENDTAB
  0
TABLE
  2
LTYPE
 70
     3
  0
LTYPE
  2
CONTINUOUS
 70
     0
  3
Solid line
 72
    65
 73
     0
 40
0.0
  0
LTYPE
  2
CENTER
 70
     0
  3
____ _ ____ _ ____ _ ____ _ ____ _ ____ _ ____
 72
    65
 73
     4
 40
2.0
 49
1.25
 49
-0.25
 49
0.25
 49
-0.25
  0
LTYPE
  2
PHANTOM2
 70
     0
  3
___ _ _ ___ _ _ ___ _ _ ___ _ _
 72
    65
 73
     6
 40
1.25
 49
0.625
 49
-0.125
 49
0.125
 49
-0.125
 49
0.125
 49
-0.125
  0
ENDTAB
  0
TABLE
  2
LAYER
 70
     4
  0
LAYER
  2
0
 70
     0
 62
     7
  6
CONTINUOUS
  0
LAYER
  2
1
 70
     0
 62
     1
  6
CENTER
  0
LAYER
  2
WAKU
 70
     0
 62
     5
  6
CONTINUOUS
  0
LAYER
  2
4
 70
     0
 62
     4
  6
CONTINUOUS
  0
ENDTAB
  0
TABLE
  2
STYLE
 70
     3
  0
STYLE
  2
STANDARD
 70
     0
 40
0.0
 41
1.0
 50
0.0
 71
     0
 42
2.5
  3
ROMANS
  4
EXTFONT
  0
STYLE
  2
K
 70
     0
 40
0.0
 41
0.75
 50
0.0
 71
     0
 42
3.2000000000000002
  3
ROMANS.shx
  4
EXTFONT.shx
  0
STYLE
  2
STANDARD1
 70
     0
 40
0.0
 41
1.0
 50
0.0
 71
     0
 42
3.0
  3
txt
  4

  0
ENDTAB
  0
TABLE
  2
VIEW
 70
     0
  0
ENDTAB
  0
TABLE
  2
UCS
 70
     0
  0
ENDTAB
  0
TABLE
  2
APPID
 70
     3
  0
APPID
  2
ACAD
 70
     0
  0
APPID
  2
ACAD_MLEADERVER
 70
     0
  0
APPID
  2
ACAD_NAV_VCDISPLAY
 70
     0
  0
ENDTAB
  0
TABLE
  2
DIMSTYLE
 70
     2
  0
DIMSTYLE
  2
ITM
 70
     0
  3

  4

  5

  6

  7

 40
0.0
 41
2.5
 42
1.0
 43
6.0
 44
1.0
 45
0.0
 46
0.0
 47
495.0
 48
0.0
140
3.0
141
0.0
142
0.0
143
25.399999999999999
144
1.0
145
0.0
146
1.0
147
1.0
 71
     0
 72
     0
 73
     0
 74
     0
 75
     0
 76
     0
 77
     3
 78
     8
170
     0
171
     2
172
     1
173
     0
174
     0
175
     0
176
     0
177
     0
178
     0
  0
DIMSTYLE
  2
STANDARD
 70
     0
  3

  4

  5

  6

  7

 40
1.0
 41
0.18
 42
0.0625
 43
0.38
 44
0.18
 45
0.0
 46
0.0
 47
0.0
 48
0.0
140
0.18
141
0.09
142
0.0
143
25.399999999999999
144
1.0
145
0.0
146
1.0
147
0.09
 71
     0
 72
     0
 73
     1
 74
     1
 75
     0
 76
     0
 77
     0
 78
     0
170
     0
171
     2
172
     0
173
     0
174
     0
175
     0
176
     0
177
     0
178
     0
  0
ENDTAB
  0
ENDSEC
  0
SECTION
  2
BLOCKS
  0
BLOCK
  8
0
  2
$MODEL_SPACE
 70
     0
 10
0.0
 20
0.0
 30
0.0
  3
$MODEL_SPACE
  1

  0
ENDBLK
  5
12
  8
0
  0
BLOCK
 67
     1
  8
0
  2
$PAPER_SPACE
 70
     0
 10
0.0
 20
0.0
 30
0.0
  3
$PAPER_SPACE
  1

  0
ENDBLK
  5
19
 67
     1
  8
0
  0
BLOCK
  8
0
  2
ARROW1
 70
     0
 10
0.0
 20
0.0
 30
0.0
  3
ARROW1
  1

  0
SOLID
  5
4B
  8
WAKU
  6
CONTINUOUS
 62
     4
 10
-1.0
 20
0.1666666666666714
 30
0.0
 11
-1.0
 21
-0.1666666666666714
 31
0.0
 12
0.0
 22
0.0
 32
0.0
 13
0.0
 23
0.0
 33
0.0
  0
ENDBLK
  5
4D
  8
0
  0
ENDSEC
  0
SECTION
  2
ENTITIES
  0
CIRCLE
  5
74
  8
0
 10
240.9316881820626
 20
565.51447975732231
 30
0.0
 40
3.5
  0
CIRCLE
  5
75
  8
0
 10
240.9316881820626
 20
634.81094431360361
 30
0.0
 40
3.5
  0
CIRCLE
  5
76
  8
0
 10
171.63522362578061
 20
634.81094431360361
 30
0.0
 40
3.5
  0
CIRCLE
  5
77
  8
0
 10
171.63522362578061
 20
565.51447975732231
 30
0.0
 40
3.5
  0
LINE
  5
78
  8
0
 10
175.52431092230691
 20
638.70003161012983
 30
0.0
 11
171.47661318190441
 21
642.74772935053227
 31
0.0
  0
LINE
  5
79
  8
0
 10
241.0902986259388
 20
642.74772935053227
 30
0.0
 11
237.0426008855363
 21
638.70003161012983
 31
0.0
  0
LINE
  5
7A
  8
0
 10
237.0426008855363
 20
561.62539246079609
 30
0.0
 11
241.0902986259388
 21
557.57769472039365
 31
0.0
  0
LINE
  5
7B
  8
0
 10
248.86847321899091
 20
565.35586931344551
 30
0.0
 11
244.8207754785883
 21
569.40356705384818
 31
0.0
  0
LINE
  5
7C
  8
0
 10
244.82077547858839
 20
630.92185701707785
 30
0.0
 11
248.86847321899091
 21
634.9695547574803
 31
0.0
  0
ARC
  5
7D
  8
0
 10
171.6352236257809
 20
634.81094431360384
 30
0.0
 40
5.5000000000000044
 50
225.0
 51
45.0
  0
LINE
  5
7E
  8
0
 10
163.6984385888523
 20
634.9695547574803
 30
0.0
 11
167.7461363292548
 21
630.92185701707785
 31
0.0
  0
ARC
  5
7F
  8
0
 10
240.93168818206229
 20
634.81094431360384
 30
0.0
 40
5.5000000000000044
 50
135.0
 51
315.00000000000063
  0
ARC
  5
80
  8
0
 10
240.93168818206229
 20
565.51447975732196
 30
0.0
 40
5.5000000000000044
 50
45.0
 51
225.0
  0
LINE
  5
81
  8
0
 10
167.7461363292548
 20
569.40356705384806
 30
0.0
 11
163.6984385888523
 21
565.35586931344551
 31
0.0
  0
ARC
  5
82
  8
0
 10
171.6352236257809
 20
565.51447975732196
 30
0.0
 40
5.5000000000000044
 50
315.00000000000063
 51
135.0
  0
LINE
  5
83
  8
0
 10
171.47661318190441
 20
557.57769472039365
 30
0.0
 11
175.52431092230691
 21
561.62539246079609
 31
0.0
  0
CIRCLE
  5
84
  8
0
 10
157.28345590392161
 20
600.16271203546307
 30
0.0
 40
2.500000000000028
  0
CIRCLE
  5
85
  8
0
 10
188.10599286657981
 20
644.04698982974844
 30
0.0
 40
5.5
  0
CIRCLE
  5
86
  8
0
 10
162.39917810963621
 20
618.34017507280373
 30
0.0
 40
5.5000000000000284
  0
CIRCLE
  5
87
  8
0
 10
162.39917810963701
 20
581.98524899812037
 30
0.0
 40
5.4999999999999707
  0
CIRCLE
  5
88
  8
0
 10
188.1059928665818
 20
556.2784342411768
 30
0.0
 40
5.5
  0
CIRCLE
  5
89
  8
0
 10
224.46091894126499
 20
556.27843424117748
 30
0.0
 40
5.500000000000056
  0
CIRCLE
  5
8A
  8
0
 10
250.16773369820871
 20
581.98524899812242
 30
0.0
 40
5.5
  0
CIRCLE
  5
8B
  8
0
 10
250.16773369820791
 20
618.34017507280555
 30
0.0
 40
5.4999999999999432
  0
CIRCLE
  5
8C
  8
0
 10
224.460918941263
 20
644.04698982974924
 30
0.0
 40
5.5
  0
CIRCLE
  5
8D
  8
0
 10
224.46091894126371
 20
556.27843424117759
 30
0.0
 40
4.9999999999999432
  0
LINE
  5
8E
  8
0
 10
222.9609189412634
 20
555.41240883739317
 30
0.0
 11
224.460918941264
 21
554.54638343360864
 31
0.0
  0
LINE
  5
8F
  8
0
 10
224.4609189412634
 20
554.54638343360853
 30
0.0
 11
225.960918941264
 21
555.41240883739329
 31
0.0
  0
LINE
  5
90
  8
0
 10
225.96091894126371
 20
555.41240883739283
 30
0.0
 11
225.96091894126371
 21
557.14445964496235
 31
0.0
  0
LINE
  5
91
  8
0
 10
224.460918941264
 20
558.01048504874655
 30
0.0
 11
222.96091894126329
 21
557.1444596449619
 31
0.0
  0
LINE
  5
92
  8
0
 10
225.96091894126391
 20
557.1444596449619
 30
0.0
 11
224.4609189412634
 21
558.01048504874655
 31
0.0
  0
LINE
  5
93
  8
0
 10
222.96091894126371
 20
557.14445964496235
 30
0.0
 11
222.96091894126371
 21
555.41240883739283
 31
0.0
  0
CIRCLE
  5
94
  8
0
 10
250.1677336982074
 20
581.98524899812196
 30
0.0
 40
5.0
  0
LINE
  5
95
  8
0
 10
249.7194459621231
 20
580.31221639064643
 30
0.0
 11
251.3924785695994
 21
580.76050412673055
 31
0.0
  0
LINE
  5
96
  8
0
 10
251.39247856959889
 20
580.76050412673021
 30
0.0
 11
251.8407663056831
 21
582.43353673420643
 31
0.0
  0
LINE
  5
97
  8
0
 10
251.8407663056833
 20
582.43353673420586
 30
0.0
 11
250.61602143429121
 21
583.65828160559795
 31
0.0
  0
LINE
  5
98
  8
0
 10
248.94298882681591
 20
583.20999386951394
 30
0.0
 11
248.4947010907317
 21
581.53696126203772
 31
0.0
  0
LINE
  5
99
  8
0
 10
250.61602143429181
 20
583.65828160559772
 30
0.0
 11
248.94298882681539
 21
583.2099938695136
 31
0.0
  0
LINE
  5
9A
  8
0
 10
248.4947010907315
 20
581.53696126203829
 30
0.0
 11
249.7194459621237
 21
580.31221639064609
 31
0.0
  0
CIRCLE
  5
9B
  8
0
 10
250.16773369820689
 20
618.34017507280521
 30
0.0
 40
5.0
  0
LINE
  5
9C
  8
0
 10
251.03375910199119
 20
616.84017507280475
 30
0.0
 11
251.8997845057759
 21
618.34017507280555
 31
0.0
  0
LINE
  5
9D
  8
0
 10
251.8997845057759
 20
618.34017507280498
 30
0.0
 11
251.03375910199111
 21
619.84017507280555
 31
0.0
  0
LINE
  5
9E
  8
0
 10
251.03375910199171
 20
619.84017507280532
 30
0.0
 11
249.3017082944221
 21
619.84017507280521
 31
0.0
  0
LINE
  5
9F
  8
0
 10
248.43568289063791
 20
618.34017507280555
 30
0.0
 11
249.3017082944227
 21
616.84017507280475
 31
0.0
  0
LINE
  5
A0
  8
0
 10
249.30170829442261
 20
619.84017507280555
 30
0.0
 11
248.43568289063791
 21
618.34017507280475
 31
0.0
  0
LINE
  5
A1
  8
0
 10
249.3017082944221
 20
616.84017507280532
 30
0.0
 11
251.03375910199171
 21
616.84017507280532
 31
0.0
  0
CIRCLE
  5
A2
  8
0
 10
162.3991781096359
 20
618.34017507280419
 30
0.0
 40
4.99999999999996
  0
LINE
  5
A3
  8
0
 10
162.84746584572019
 20
620.01320768027995
 30
0.0
 11
161.17443323824401
 21
619.56491994419571
 31
0.0
  0
LINE
  5
A4
  8
0
 10
161.1744332382444
 20
619.56491994419616
 30
0.0
 11
160.72614550216019
 21
617.89188733671983
 31
0.0
  0
LINE
  5
A5
  8
0
 10
160.72614550215999
 20
617.89188733672029
 30
0.0
 11
161.95089037355211
 21
616.66714246532842
 31
0.0
  0
LINE
  5
A6
  8
0
 10
163.62392298102739
 20
617.11543020141232
 30
0.0
 11
164.07221071711149
 21
618.78846280888865
 31
0.0
  0
LINE
  5
A7
  8
0
 10
161.95089037355149
 20
616.66714246532842
 30
0.0
 11
163.62392298102779
 21
617.11543020141266
 31
0.0
  0
LINE
  5
A8
  8
0
 10
164.07221071711169
 20
618.78846280888786
 30
0.0
 11
162.8474658457196
 21
620.01320768027995
 31
0.0
  0
CIRCLE
  5
A9
  8
0
 10
162.3991781096361
 20
581.98524899812105
 30
0.0
 40
5.0000000000000284
  0
LINE
  5
AA
  8
0
 10
161.5331527058519
 20
583.48524899812139
 30
0.0
 11
160.66712730206709
 21
581.98524899812082
 31
0.0
  0
LINE
  5
AB
  8
0
 10
160.66712730206709
 20
581.98524899812128
 30
0.0
 11
161.5331527058519
 21
580.48524899812071
 31
0.0
  0
LINE
  5
AC
  8
0
 10
161.53315270585139
 20
580.48524899812105
 30
0.0
 11
163.265203513421
 21
580.48524899812105
 31
0.0
  0
LINE
  5
AD
  8
0
 10
164.13122891720519
 20
581.98524899812082
 30
0.0
 11
163.2652035134204
 21
583.48524899812139
 31
0.0
  0
LINE
  5
AE
  8
0
 10
163.2652035134204
 20
580.48524899812071
 30
0.0
 11
164.13122891720519
 21
581.98524899812128
 31
0.0
  0
LINE
  5
AF
  8
0
 10
163.265203513421
 20
583.48524899812105
 30
0.0
 11
161.53315270585139
 21
583.48524899812105
 31
0.0
  0
CIRCLE
  5
B0
  8
0
 10
188.10599286658049
 20
556.27843424117725
 30
0.0
 40
5.0
  0
LINE
  5
B1
  8
0
 10
186.43296025910479
 20
556.7267219772616
 30
0.0
 11
186.881247995189
 21
555.05368936978516
 31
0.0
  0
LINE
  5
B2
  8
0
 10
186.8812479951886
 20
555.05368936978573
 30
0.0
 11
188.5542806026649
 21
554.6054016337016
 31
0.0
  0
LINE
  5
B3
  8
0
 10
188.55428060266431
 20
554.60540163370138
 30
0.0
 11
189.77902547405631
 21
555.83014650509347
 31
0.0
  0
LINE
  5
B4
  8
0
 10
189.33073773797241
 20
557.50317911256866
 30
0.0
 11
187.6577051304962
 21
557.95146684865279
 31
0.0
  0
LINE
  5
B5
  8
0
 10
189.7790254740562
 20
555.8301465050929
 30
0.0
 11
189.33073773797199
 21
557.50317911256911
 31
0.0
  0
LINE
  5
B6
  8
0
 10
187.65770513049671
 20
557.95146684865313
 30
0.0
 11
186.43296025910459
 21
556.72672197726092
 31
0.0
  0
CIRCLE
  5
B7
  8
0
 10
188.10599286657981
 20
644.04698982974855
 30
0.0
 40
5.0
  0
LINE
  5
B8
  8
0
 10
189.6059928665801
 20
644.91301523353275
 30
0.0
 11
188.1059928665795
 21
645.77904063731762
 31
0.0
  0
LINE
  5
B9
  8
0
 10
188.1059928665801
 20
645.77904063731762
 30
0.0
 11
186.6059928665795
 21
644.91301523353275
 31
0.0
  0
LINE
  5
BA
  8
0
 10
186.60599286657981
 20
644.91301523353332
 30
0.0
 11
186.60599286657981
 21
643.18096442596368
 31
0.0
  0
LINE
  5
BB
  8
0
 10
188.1059928665795
 20
642.31493902217937
 30
0.0
 11
189.6059928665801
 21
643.18096442596425
 31
0.0
  0
LINE
  5
BC
  8
0
 10
186.6059928665795
 20
643.18096442596425
 30
0.0
 11
188.1059928665801
 21
642.31493902217937
 31
0.0
  0
LINE
  5
BD
  8
0
 10
189.60599286657981
 20
643.18096442596368
 30
0.0
 11
189.60599286657981
 21
644.91301523353332
 31
0.0
  0
CIRCLE
  5
BE
  8
0
 10
224.46091894126241
 20
644.0469898297489
 30
0.0
 40
5.0
  0
LINE
  5
BF
  8
0
 10
226.13395154873811
 20
643.59870209366454
 30
0.0
 11
225.6856638126539
 21
645.27173470114076
 31
0.0
  0
LINE
  5
C0
  8
0
 10
225.6856638126543
 20
645.27173470114042
 30
0.0
 11
224.012631205178
 21
645.72002243722466
 31
0.0
  0
LINE
  5
C1
  8
0
 10
224.01263120517851
 20
645.72002243722477
 30
0.0
 11
222.7878863337865
 21
644.49527756583245
 31
0.0
  0
LINE
  5
C2
  8
0
 10
223.23617406987049
 20
642.82224495835726
 30
0.0
 11
224.90920667734679
 21
642.37395722227325
 31
0.0
  0
LINE
  5
C3
  8
0
 10
222.7878863337867
 20
644.49527756583325
 30
0.0
 11
223.23617406987091
 21
642.82224495835703
 31
0.0
  0
LINE
  5
C4
  8
0
 10
224.90920667734611
 20
642.37395722227291
 30
0.0
 11
226.1339515487382
 21
643.59870209366522
 31
0.0
  0
CIRCLE
  5
C5
  8
0
 10
159.245722638697
 20
593.55198973985989
 30
0.0
 40
3.750000000000056
  0
LINE
  5
C6
  8
0
 10
160.49572263865059
 20
594.27367757636284
 30
0.0
 11
159.24572263869979
 21
594.99536541280872
 31
0.0
  0
LINE
  5
C7
  8
0
 10
160.49572263869979
 20
592.83030190337115
 30
0.0
 11
160.49572263865059
 21
594.27367757636284
 31
0.0
  0
LINE
  5
C8
  8
0
 10
159.24572263869121
 20
592.10861406690094
 30
0.0
 11
160.49572263869979
 21
592.83030190337115
 31
0.0
  0
LINE
  5
C9
  8
0
 10
157.99572263869419
 20
592.83030190337115
 30
0.0
 11
159.24572263869121
 21
592.10861406690094
 31
0.0
  0
LINE
  5
CA
  8
0
 10
157.99572263869419
 20
594.27367757634852
 30
0.0
 11
157.99572263869419
 21
592.83030190337115
 31
0.0
  0
LINE
  5
CB
  8
0
 10
159.24572263869979
 20
594.99536541280872
 30
0.0
 11
157.99572263869419
 21
594.27367757634852
 31
0.0
  0
CIRCLE
  5
CC
  8
0
 10
159.245722638697
 20
593.55198973985989
 30
0.0
 40
1.75
  0
CIRCLE
  5
CD
  8
0
 10
253.32118916914621
 20
606.77343433106626
 30
0.0
 40
3.7499999999999432
  0
LINE
  5
CE
  8
0
 10
254.57118916914899
 20
606.05174649457763
 30
0.0
 11
254.57118916909971
 21
607.49512216756921
 31
0.0
  0
LINE
  5
CF
  8
0
 10
254.57118916909971
 20
607.49512216756921
 30
0.0
 11
253.32118916914899
 21
608.21681000401497
 31
0.0
  0
LINE
  5
D0
  8
0
 10
253.32118916914041
 20
605.33005865810708
 30
0.0
 11
254.57118916914899
 21
606.05174649457763
 31
0.0
  0
LINE
  5
D1
  8
0
 10
252.07118916914339
 20
606.05174649457763
 30
0.0
 11
253.32118916914041
 21
605.33005865810708
 31
0.0
  0
LINE
  5
D2
  8
0
 10
252.07118916914339
 20
607.49512216755477
 30
0.0
 11
252.07118916914339
 21
606.05174649457763
 31
0.0
  0
LINE
  5
D3
  8
0
 10
253.32118916914899
 20
608.21681000401497
 30
0.0
 11
252.07118916914339
 21
607.49512216755477
 31
0.0
  0
CIRCLE
  5
D4
  8
0
 10
253.32118916914621
 20
606.77343433106626
 30
0.0
 40
1.7499999999999429
  0
CIRCLE
  5
D5
  8
0
 10
206.28345590392161
 20
600.16271203546307
 30
0.0
 40
35.000000000000057
  0
ARC
  5
D6
  8
0
 10
206.28345590392161
 20
600.16271203546307
 30
0.0
 40
9.5000000000000142
 50
234.08472028739169
 51
305.91527971260882
  0
LINE
  5
D7
  8
0
 10
211.49774593114739
 20
592.82710166467757
 30
0.0
 11
228.17927629863999
 21
576.14557129718526
 31
0.0
  0
LINE
  5
D8
  8
0
 10
184.38763550920351
 20
576.14557129718514
 30
0.0
 11
201.06916587669591
 21
592.82710166467757
 31
0.0
  0
LINE
  5
D9
  8
0
 10
230.30059664219959
 20
578.26689164074514
 30
0.0
 11
213.619066274707
 21
594.94842200823734
 31
0.0
  0
LINE
  5
DA
  8
0
 10
213.61906627470691
 20
605.37700206268869
 30
0.0
 11
230.30059664219911
 21
622.05853243018134
 31
0.0
  0
ARC
  5
DB
  8
0
 10
206.28345590392161
 20
600.16271203546307
 30
0.0
 40
9.5000000000000373
 50
324.08472028739237
 51
35.91527971261057
  0
ARC
  5
DC
  8
0
 10
206.28345590392161
 20
600.16271203546307
 30
0.0
 40
9.5000000000000142
 50
144.08472028739101
 51
215.91527971261061
  0
LINE
  5
DD
  8
0
 10
182.2663151656437
 20
622.058532430181
 30
0.0
 11
198.94784553313619
 21
605.37700206268858
 31
0.0
  0
LINE
  5
DE
  8
0
 10
198.94784553313619
 20
594.94842200823723
 30
0.0
 11
182.2663151656439
 21
578.26689164074457
 31
0.0
  0
LINE
  5
DF
  8
0
 10
228.17927629863959
 20
624.179852773741
 30
0.0
 11
211.49774593114731
 21
607.49832240624835
 31
0.0
  0
LINE
  5
E0
  8
0
 10
201.06916587669579
 20
607.49832240624835
 30
0.0
 11
184.38763550920339
 21
624.17985277374066
 31
0.0
  0
ARC
  5
E1
  8
0
 10
206.28345590392161
 20
600.16271203546307
 30
0.0
 40
9.5000000000000497
 50
54.084720287391711
 51
125.9152797126083
  0
CIRCLE
  5
E2
  8
0
 10
206.28345590392161
 20
600.16271203546307
 30
0.0
 40
1.649999999999977
  0
CIRCLE
  5
E3
  8
0
 10
206.28345590392161
 20
600.16271203546307
 30
0.0
 40
2.3500000000000218
  0
LINE
  5
E4
  8
1
 10
206.28345590392161
 20
458.46977613161579
 30
0.0
 11
206.28345590392161
 21
323.40887752454051
 31
0.0
  0
LINE
  5
E7
  8
1
 10
157.28345590392161
 20
372.99121643992959
 30
0.0
 11
157.28345590392161
 21
339.99121643992959
 31
0.0
  0
LINE
  5
E8
  8
1
 10
253.78345590392161
 20
398.9912164399297
 30
0.0
 11
266.24708017774623
 21
398.9912164399297
 31
0.0
  0
LINE
  5
E9
  8
0
 10
236.62875536554239
 20
335.99121643992959
 30
0.0
 11
175.93815644230079
 21
335.99121643992959
 31
0.0
  0
LINE
  5
EA
  8
0
 10
174.78345590392161
 20
337.99121643992947
 30
0.0
 11
237.78345590392169
 21
337.99121643992947
 31
0.0
  0
LINE
  5
EB
  8
0
 10
237.78345590392169
 20
353.4912164399297
 30
0.0
 11
174.78345590392161
 21
353.4912164399297
 31
0.0
  0
LINE
  5
EC
  8
0
 10
167.74613632925451
 20
400.99121643992959
 30
0.0
 11
167.74613632925451
 21
414.99121643992959
 31
0.0
  0
LINE
  5
ED
  8
0
 10
151.78345590392161
 20
408.99121643992947
 30
0.0
 11
260.78345590392172
 21
408.99121643992947
 31
0.0
  0
LINE
  5
EE
  8
0
 10
258.78345590392161
 20
403.79974284779092
 30
0.0
 11
258.78345590392161
 21
394.18269003206831
 31
0.0
  0
POLYLINE
  5
EF
  8
0
 66
     1
 10
0.0
 20
0.0
 30
0.0
 70
   128
  0
VERTEX
  5
305
  8
0
 10
258.78345590392161
 20
403.79974284779092
 30
0.0
  0
VERTEX
  5
306
  8
0
 10
259.0618147909862
 20
404.8244583589759
 30
0.0
  0
VERTEX
  5
307
  8
0
 10
259.3657333524165
 20
405.67454922442141
 30
0.0
  0
VERTEX
  5
308
  8
0
 10
259.67759570734711
 20
406.32575190149981
 30
0.0
  0
VERTEX
  5
309
  8
0
 10
259.98204191167451
 20
406.76383632699248
 30
0.0
  0
VERTEX
  5
30A
  8
0
 10
260.26706352254598
 20
406.97320695516851
 30
0.0
  0
VERTEX
  5
30B
  8
0
 10
260.5201409665795
 20
406.94391969665918
 30
0.0
  0
VERTEX
  5
30C
  8
0
 10
260.72927833711623
 20
406.67790659465061
 30
0.0
  0
VERTEX
  5
30D
  8
0
 10
260.89790513402261
 20
406.1854103071733
 30
0.0
  0
VERTEX
  5
30E
  8
0
 10
261.02319732204461
 20
405.49495211680028
 30
0.0
  0
VERTEX
  5
30F
  8
0
 10
261.1139758089808
 20
404.61918275116818
 30
0.0
  0
VERTEX
  5
310
  8
0
 10
261.17479972052291
 20
403.59082371593507
 30
0.0
  0
VERTEX
  5
311
  8
0
 10
261.21322898888621
 20
402.4335776790104
 30
0.0
  0
VERTEX
  5
312
  8
0
 10
261.23521382654678
 20
401.17698272994238
 30
0.0
  0
VERTEX
  5
313
  8
0
 10
261.2453419221294
 20
399.85908478177231
 30
0.0
  0
VERTEX
  5
314
  8
0
 10
261.24664303059978
 20
398.51334707962877
 30
0.0
  0
VERTEX
  5
315
  8
0
 10
261.23913832038829
 20
397.1810673354064
 30
0.0
  0
VERTEX
  5
316
  8
0
 10
261.22097000780929
 20
395.89981141656568
 30
0.0
  0
VERTEX
  5
317
  8
0
 10
261.18766797279932
 20
394.70580954153502
 30
0.0
  0
VERTEX
  5
318
  8
0
 10
261.13348747032961
 20
393.6356106436757
 30
0.0
  0
VERTEX
  5
319
  8
0
 10
261.05228209115842
 20
392.71643545544612
 30
0.0
  0
VERTEX
  5
31A
  8
0
 10
260.9381438442158
 20
391.97833464520181
 30
0.0
  0
VERTEX
  5
31B
  8
0
 10
260.78742179978121
 20
391.43586164635229
 30
0.0
  0
VERTEX
  5
31C
  8
0
 10
260.59759281058672
 20
391.1054616589297
 30
0.0
  0
VERTEX
  5
31D
  8
0
 10
260.37116494430802
 20
390.99125256721419
 30
0.0
  0
VERTEX
  5
31E
  8
0
 10
260.10850001346779
 20
391.09937431552811
 30
0.0
  0
VERTEX
  5
31F
  8
0
 10
259.82152397189128
 20
391.42434948598282
 30
0.0
  0
VERTEX
  5
320
  8
0
 10
259.51320944967978
 20
391.97446879003661
 30
0.0
  0
VERTEX
  5
321
  8
0
 10
259.20551207741232
 20
392.72642600943811
 30
0.0
  0
VERTEX
  5
322
  8
0
 10
258.78345590392161
 20
394.18269003206831
 30
0.0
  0
SEQEND
  5
323
  8
0
  0
LINE
  5
F0
  8
0
 10
171.47661318190401
 20
400.99121643992959
 30
0.0
 11
171.47661318190401
 21
414.99121643992959
 31
0.0
  0
LINE
  5
F1
  8
0
 10
163.69843858885201
 20
400.99121643992959
 30
0.0
 11
171.47661318190401
 21
400.99121643992959
 31
0.0
  0
LINE
  5
F2
  8
0
 10
163.69843858885201
 20
400.99121643992959
 30
0.0
 11
163.69843858885201
 21
414.99121643992959
 31
0.0
  0
LINE
  5
F3
  8
0
 10
260.28345590392161
 20
354.99121643992959
 30
0.0
 11
152.28345590392161
 21
354.99121643992959
 31
0.0
  0
LINE
  5
F4
  8
0
 10
152.28345590392161
 20
414.99121643992959
 30
0.0
 11
260.28345590392161
 21
414.99121643992959
 31
0.0
  0
LINE
  5
F5
  8
0
 10
160.995722638697
 20
417.19121643992952
 30
0.0
 11
157.495722638697
 21
417.19121643992952
 31
0.0
  0
LINE
  5
F6
  8
0
 10
255.07118916914621
 20
417.19121643992952
 30
0.0
 11
251.57118916914621
 21
417.19121643992952
 31
0.0
  0
LINE
  5
F7
  8
0
 10
171.78345590392161
 20
426.99121643992959
 30
0.0
 11
240.78345590392161
 21
426.99121643992959
 31
0.0
  0
LINE
  5
F8
  8
0
 10
153.96309557280421
 20
354.99121643992959
 30
0.0
 11
153.96309557280421
 21
346.81404600258571
 31
0.0
  0
LINE
  5
F9
  8
0
 10
160.60381623503901
 20
354.99121643992959
 30
0.0
 11
160.60381623503901
 21
346.81404600258583
 31
0.0
  0
LINE
  5
FA
  8
0
 10
159.55140509635271
 20
344.99121643992959
 30
0.0
 11
155.01550671149039
 21
344.99121643992959
 31
0.0
  0
POLYLINE
  5
FB
  8
0
 66
     1
 10
0.0
 20
0.0
 30
0.0
 70
   128
  0
VERTEX
  5
324
  8
0
 10
160.60381623503901
 20
346.81404600258583
 30
0.0
  0
VERTEX
  5
325
  8
0
 10
160.13756639880589
 20
346.20055545659602
 30
0.0
  0
VERTEX
  5
326
  8
0
 10
159.84083286863469
 20
346.04897584244861
 30
0.0
  0
VERTEX
  5
327
  8
0
 10
159.5345622755369
 20
346.1119909238235
 30
0.0
  0
VERTEX
  5
328
  8
0
 10
159.17522703112459
 20
346.45784388494178
 30
0.0
  0
VERTEX
  5
329
  8
0
 10
158.7581306549944
 20
347.16079921834751
 30
0.0
  0
VERTEX
  5
32A
  8
0
 10
158.3834559039216
 20
347.99121643992959
 30
0.0
  0
SEQEND
  5
32B
  8
0
  0
POLYLINE
  5
FC
  8
0
 66
     1
 10
0.0
 20
0.0
 30
0.0
 70
   128
  0
VERTEX
  5
32C
  8
0
 10
153.96309557280421
 20
346.81404600258571
 30
0.0
  0
VERTEX
  5
32D
  8
0
 10
154.4293454090373
 20
346.20055545659602
 30
0.0
  0
VERTEX
  5
32E
  8
0
 10
154.72607893920841
 20
346.04897584244861
 30
0.0
  0
VERTEX
  5
32F
  8
0
 10
155.03234953230631
 20
346.1119909238235
 30
0.0
  0
VERTEX
  5
330
  8
0
 10
155.39168477671859
 20
346.45784388494178
 30
0.0
  0
VERTEX
  5
331
  8
0
 10
155.8087811528487
 20
347.16079921834751
 30
0.0
  0
VERTEX
  5
332
  8
0
 10
156.18345590392161
 20
347.99121643992959
 30
0.0
  0
SEQEND
  5
333
  8
0
  0
LINE
  5
FD
  8
0
 10
156.18345590392161
 20
354.99121643992959
 30
0.0
 11
156.18345590392161
 21
347.99121643992959
 31
0.0
  0
LINE
  5
FE
  8
0
 10
158.3834559039216
 20
347.99121643992959
 30
0.0
 11
156.18345590392161
 21
347.99121643992959
 31
0.0
  0
LINE
  5
FF
  8
0
 10
158.3834559039216
 20
354.99121643992959
 30
0.0
 11
158.3834559039216
 21
347.99121643992959
 31
0.0
  0
LINE
  5
100
  8
0
 10
238.78345590392161
 20
434.99121643992947
 30
0.0
 11
230.30059664219959
 21
434.99121643992947
 31
0.0
  0
LINE
  5
101
  8
0
 10
174.28345590392161
 20
444.99121643992959
 30
0.0
 11
238.28345590392161
 21
444.99121643992959
 31
0.0
  0
LINE
  5
102
  8
0
 10
230.14687833818169
 20
434.2083737274549
 30
0.0
 11
230.30059664219959
 21
433.99121643992947
 31
0.0
  0
ARC
  5
103
  8
0
 10
230.5746502844448
 20
434.49121643992947
 30
0.0
 40
0.512824373455223
 50
146.52733158361929
 51
213.47266841637179
  0
LINE
  5
104
  8
0
 10
230.30059664219959
 20
434.99121643992947
 30
0.0
 11
230.14687833818169
 21
434.77405915240422
 31
0.0
  0
LINE
  5
105
  8
0
 10
230.30059664219959
 20
434.99121643992947
 30
0.0
 11
230.30059664219959
 21
444.49121643992959
 31
0.0
  0
LINE
  5
106
  8
0
 10
230.30059664219959
 20
444.49121643992959
 30
0.0
 11
229.94666018029301
 21
444.99121643992959
 31
0.0
  0
LINE
  5
107
  8
0
 10
182.2663151656439
 20
434.99121643992947
 30
0.0
 11
173.78345590392161
 21
434.99121643992947
 31
0.0
  0
LINE
  5
108
  8
0
 10
182.62025162755049
 20
444.99121643992959
 30
0.0
 11
182.2663151656439
 21
444.49121643992959
 31
0.0
  0
LINE
  5
109
  8
0
 10
182.2663151656439
 20
444.49121643992959
 30
0.0
 11
182.2663151656439
 21
434.99121643992947
 31
0.0
  0
LINE
  5
10A
  8
0
 10
182.4200334696618
 20
434.77405915240422
 30
0.0
 11
182.2663151656439
 21
434.99121643992947
 31
0.0
  0
ARC
  5
10B
  8
0
 10
181.99226152339821
 20
434.49121643992947
 30
0.0
 40
0.5128243734556497
 50
326.52733158366181
 51
33.472668416349912
  0
LINE
  5
10C
  8
0
 10
182.2663151656439
 20
433.99121643992947
 30
0.0
 11
182.4200334696618
 21
434.2083737274549
 31
0.0
  0
ARC
  5
10D
  8
0
 10
228.4533299408856
 20
434.49121643992947
 30
0.0
 40
0.5128243734556023
 50
146.52733158364711
 51
213.47266841634411
  0
ARC
  5
10E
  8
0
 10
184.1135818669589
 20
434.49121643992947
 30
0.0
 40
0.5128243734547489
 50
326.52733158359592
 51
33.472668416415857
  0
LINE
  5
10F
  8
0
 10
184.38763550920351
 20
444.49121643992959
 30
0.0
 11
184.74157197111009
 21
444.99121643992959
 31
0.0
  0
LINE
  5
110
  8
0
 10
227.82533983673341
 20
444.99121643992959
 30
0.0
 11
228.17927629863999
 21
444.49121643992959
 31
0.0
  0
LINE
  5
111
  8
0
 10
228.17927629863999
 20
433.99121643992947
 30
0.0
 11
228.02555799462209
 21
434.2083737274549
 31
0.0
  0
LINE
  5
112
  8
0
 10
184.54135381322141
 20
434.2083737274549
 30
0.0
 11
184.38763550920351
 21
433.99121643992947
 31
0.0
  0
LINE
  5
113
  8
0
 10
184.38763550920351
 20
434.99121643992947
 30
0.0
 11
184.38763550920351
 21
444.49121643992959
 31
0.0
  0
LINE
  5
114
  8
0
 10
228.17927629863999
 20
444.49121643992959
 30
0.0
 11
228.17927629863999
 21
434.99121643992947
 31
0.0
  0
LINE
  5
115
  8
0
 10
182.2663151656439
 20
433.99121643992947
 30
0.0
 11
182.2663151656439
 21
426.99121643992959
 31
0.0
  0
LINE
  5
116
  8
0
 10
182.2663151656439
 20
433.99121643992947
 30
0.0
 11
173.78345590392161
 21
433.99121643992947
 31
0.0
  0
LINE
  5
117
  8
0
 10
238.78345590392161
 20
433.99121643992947
 30
0.0
 11
230.30059664219959
 21
433.99121643992947
 31
0.0
  0
LINE
  5
118
  8
0
 10
230.30059664219959
 20
426.99121643992959
 30
0.0
 11
230.30059664219959
 21
433.99121643992947
 31
0.0
  0
LINE
  5
119
  8
0
 10
228.17927629863999
 20
433.99121643992947
 30
0.0
 11
228.17927629863999
 21
426.99121643992959
 31
0.0
  0
LINE
  5
11A
  8
0
 10
228.17927629863999
 20
433.99121643992947
 30
0.0
 11
184.38763550920351
 21
433.99121643992947
 31
0.0
  0
LINE
  5
11B
  8
0
 10
184.38763550920351
 20
426.99121643992959
 30
0.0
 11
184.38763550920351
 21
433.99121643992947
 31
0.0
  0
LINE
  5
11C
  8
0
 10
228.02555799462209
 20
434.77405915240422
 30
0.0
 11
228.17927629863999
 21
434.99121643992947
 31
0.0
  0
LINE
  5
11D
  8
0
 10
228.17927629863999
 20
434.99121643992947
 30
0.0
 11
184.38763550920351
 21
434.99121643992947
 31
0.0
  0
LINE
  5
11E
  8
0
 10
184.38763550920351
 20
434.99121643992947
 30
0.0
 11
184.54135381322141
 21
434.77405915240422
 31
0.0
  0
LINE
  5
11F
  8
0
 10
175.28345590392161
 20
354.99121643992959
 30
0.0
 11
175.28345590392161
 21
354.19832322111608
 31
0.0
  0
LINE
  5
120
  8
0
 10
237.28345590392169
 20
354.19832322111608
 30
0.0
 11
237.28345590392169
 21
354.99121643992959
 31
0.0
  0
ARC
  5
121
  8
0
 10
174.78345590392161
 20
354.19832322111608
 30
0.0
 40
0.5
 50
315.0
 51
0.0
  0
ARC
  5
122
  8
0
 10
237.78345590392161
 20
354.19832322111608
 30
0.0
 40
0.5000000000000443
 50
180.0
 51
224.9999999999954
  0
LINE
  5
123
  8
0
 10
175.13700929451491
 20
353.84476983052292
 30
0.0
 11
174.78345590392161
 21
353.4912164399297
 31
0.0
  0
LINE
  5
124
  8
0
 10
237.78345590392161
 20
353.4912164399297
 30
0.0
 11
237.4299025133283
 21
353.84476983052292
 31
0.0
  0
LINE
  5
125
  8
0
 10
236.62875536554239
 20
335.99121643992959
 30
0.0
 11
237.78345590392161
 21
337.99121643992947
 31
0.0
  0
LINE
  5
126
  8
0
 10
174.78345590392161
 20
337.99121643992947
 30
0.0
 11
175.93815644230079
 21
335.99121643992959
 31
0.0
  0
LINE
  5
127
  8
0
 10
237.78345590392161
 20
337.99121643992947
 30
0.0
 11
237.78345590392161
 21
353.4912164399297
 31
0.0
  0
LINE
  5
128
  8
0
 10
174.78345590392161
 20
353.4912164399297
 30
0.0
 11
174.78345590392161
 21
337.99121643992947
 31
0.0
  0
LINE
  5
129
  8
0
 10
151.78345590392161
 20
408.99121643992947
 30
0.0
 11
151.28345590392161
 21
408.49121643992947
 31
0.0
  0
LINE
  5
12A
  8
0
 10
261.28345590392161
 20
408.49121643992947
 30
0.0
 11
260.78345590392161
 21
408.99121643992947
 31
0.0
  0
LINE
  5
12B
  8
0
 10
151.28345590392161
 20
408.49121643992947
 30
0.0
 11
151.28345590392161
 21
355.9912164399297
 31
0.0
  0
LINE
  5
12C
  8
0
 10
261.28345590392161
 20
355.9912164399297
 30
0.0
 11
261.28345590392161
 21
408.49121643992947
 31
0.0
  0
LINE
  5
12D
  8
0
 10
260.28345590392161
 20
354.99121643992959
 30
0.0
 11
261.28345590392161
 21
355.9912164399297
 31
0.0
  0
LINE
  5
12E
  8
0
 10
151.28345590392161
 20
355.9912164399297
 30
0.0
 11
152.28345590392161
 21
354.99121643992959
 31
0.0
  0
LINE
  5
12F
  8
0
 10
261.28345590392161
 20
409.49121643992959
 30
0.0
 11
261.28345590392161
 21
413.99121643992947
 31
0.0
  0
LINE
  5
130
  8
0
 10
151.28345590392161
 20
413.99121643992947
 30
0.0
 11
151.28345590392161
 21
409.49121643992959
 31
0.0
  0
LINE
  5
131
  8
0
 10
151.28345590392161
 20
409.49121643992959
 30
0.0
 11
151.78345590392161
 21
408.99121643992947
 31
0.0
  0
LINE
  5
132
  8
0
 10
152.28345590392161
 20
414.99121643992959
 30
0.0
 11
151.28345590392161
 21
413.99121643992947
 31
0.0
  0
LINE
  5
133
  8
0
 10
260.78345590392161
 20
408.99121643992947
 30
0.0
 11
261.28345590392161
 21
409.49121643992959
 31
0.0
  0
LINE
  5
134
  8
0
 10
261.28345590392161
 20
413.99121643992947
 30
0.0
 11
260.28345590392161
 21
414.99121643992959
 31
0.0
  0
ARC
  5
135
  8
0
 10
157.98298377963951
 20
414.7391608572546
 30
0.0
 40
2.5000000000000071
 50
101.2391422554477
 51
174.2134797323647
  0
ARC
  5
136
  8
0
 10
160.5084614977545
 20
414.7391608572546
 30
0.0
 40
2.5000000000000502
 50
5.7865202676352352
 51
78.760857744552283
  0
ARC
  5
137
  8
0
 10
252.05845031008869
 20
414.7391608572546
 30
0.0
 40
2.5000000000000502
 50
101.2391422554477
 51
174.2134797323647
  0
ARC
  5
138
  8
0
 10
254.5839280282037
 20
414.7391608572546
 30
0.0
 40
2.5000000000000071
 50
5.7865202676352352
 51
78.760857744552283
  0
LINE
  5
139
  8
0
 10
171.28345590392149
 20
415.49121643992959
 30
0.0
 11
171.78345590392149
 21
414.99121643992959
 31
0.0
  0
LINE
  5
13A
  8
0
 10
171.78345590392161
 20
426.99121643992959
 30
0.0
 11
171.28345590392149
 21
426.49121643992947
 31
0.0
  0
LINE
  5
13B
  8
0
 10
241.28345590392169
 20
426.49121643992947
 30
0.0
 11
240.78345590392161
 21
426.99121643992959
 31
0.0
  0
LINE
  5
13C
  8
0
 10
171.28345590392149
 20
426.49121643992947
 30
0.0
 11
171.28345590392149
 21
415.49121643992959
 31
0.0
  0
LINE
  5
13D
  8
0
 10
241.28345590392169
 20
415.49121643992959
 30
0.0
 11
241.28345590392169
 21
426.49121643992947
 31
0.0
  0
LINE
  5
13E
  8
0
 10
159.55140509635271
 20
344.99121643992959
 30
0.0
 11
160.60381623503901
 21
346.81404600258583
 31
0.0
  0
LINE
  5
13F
  8
0
 10
153.96309557280421
 20
346.81404600258571
 30
0.0
 11
155.01550671149039
 21
344.99121643992959
 31
0.0
  0
ARC
  5
140
  8
0
 10
238.8491413288709
 20
434.49121643992947
 30
0.0
 40
0.4000000000000193
 50
135.0
 51
225.0
  0
ARC
  5
141
  8
0
 10
173.71777047897231
 20
434.49121643992947
 30
0.0
 40
0.4000000000000193
 50
315.00000000000063
 51
45.0
  0
LINE
  5
142
  8
0
 10
238.56629861639621
 20
434.77405915240422
 30
0.0
 11
238.78345590392161
 21
434.99121643992947
 31
0.0
  0
LINE
  5
143
  8
0
 10
238.78345590392161
 20
434.99121643992947
 30
0.0
 11
238.78345590392161
 21
444.49121643992959
 31
0.0
  0
LINE
  5
144
  8
0
 10
238.78345590392161
 20
444.49121643992959
 30
0.0
 11
238.28345590392161
 21
444.99121643992959
 31
0.0
  0
LINE
  5
145
  8
0
 10
238.78345590392161
 20
433.99121643992947
 30
0.0
 11
238.56629861639621
 21
434.2083737274549
 31
0.0
  0
LINE
  5
146
  8
0
 10
174.28345590392161
 20
444.99121643992959
 30
0.0
 11
173.78345590392161
 21
444.49121643992959
 31
0.0
  0
LINE
  5
147
  8
0
 10
173.78345590392161
 20
434.99121643992947
 30
0.0
 11
174.00061319144689
 21
434.77405915240422
 31
0.0
  0
LINE
  5
148
  8
0
 10
173.78345590392161
 20
444.49121643992959
 30
0.0
 11
173.78345590392161
 21
434.99121643992947
 31
0.0
  0
LINE
  5
149
  8
0
 10
174.00061319144689
 20
434.2083737274549
 30
0.0
 11
173.78345590392161
 21
433.99121643992947
 31
0.0
  0
LINE
  5
14A
  8
0
 10
238.78345590392161
 20
426.99121643992959
 30
0.0
 11
238.78345590392161
 21
433.99121643992947
 31
0.0
  0
LINE
  5
14B
  8
0
 10
173.78345590392161
 20
433.99121643992947
 30
0.0
 11
173.78345590392161
 21
426.99121643992959
 31
0.0
  0
CIRCLE
  5
14C
  8
0
 10
206.28345590392161
 20
600.16271203546307
 30
0.0
 40
32.5
  0
CIRCLE
  5
14D
  8
0
 10
206.28345590392161
 20
600.16271203546307
 30
0.0
 40
8.9999999999999822
  0
CIRCLE
  5
14E
  8
0
 10
206.28345590392161
 20
600.16271203546307
 30
0.0
 40
55.0
  0
CIRCLE
  5
14F
  8
0
 10
188.10599286657981
 20
644.04698982974844
 30
0.0
 40
1.732050807569095
  0
CIRCLE
  5
150
  8
0
 10
224.46091894126241
 20
644.0469898297489
 30
0.0
 40
1.7320508075690819
  0
CIRCLE
  5
151
  8
0
 10
162.3991781096361
 20
618.34017507280419
 30
0.0
 40
1.7320508075690519
  0
CIRCLE
  5
152
  8
0
 10
162.3991781096359
 20
581.98524899812116
 30
0.0
 40
1.73205080756904
  0
CIRCLE
  5
153
  8
0
 10
188.10599286658081
 20
556.27843424117725
 30
0.0
 40
1.7320508075690699
  0
CIRCLE
  5
154
  8
0
 10
224.4609189412638
 20
556.27843424117748
 30
0.0
 40
1.7320508075688461
  0
CIRCLE
  5
155
  8
0
 10
250.16773369820771
 20
581.98524899812196
 30
0.0
 40
1.7320508075690211
  0
CIRCLE
  5
156
  8
0
 10
250.16773369820669
 20
618.3401750728051
 30
0.0
 40
1.732050807569061
  0
LINE
  5
157
  8
0
 10
241.28345590392169
 20
415.49121643992959
 30
0.0
 11
240.78345590392161
 21
414.99121643992959
 31
0.0
  0
LINE
  5
158
  8
0
 10
248.86847321899111
 20
400.99121643992959
 30
0.0
 11
248.86847321899111
 21
414.99121643992959
 31
0.0
  0
LINE
  5
159
  8
0
 10
241.0902986259392
 20
400.99121643992959
 30
0.0
 11
241.0902986259392
 21
414.99121643992959
 31
0.0
  0
LINE
  5
15A
  8
0
 10
244.8207754785887
 20
400.99121643992959
 30
0.0
 11
244.8207754785887
 21
414.99121643992959
 31
0.0
  0
LINE
  5
15B
  8
0
 10
248.86847321899111
 20
400.99121643992959
 30
0.0
 11
241.0902986259392
 21
400.99121643992959
 31
0.0
  0
LINE
  5
15C
  8
0
 10
458.81625854977278
 20
400.99121643992959
 30
0.0
 11
451.03808395672093
 21
400.99121643992959
 31
0.0
  0
LINE
  5
15D
  8
0
 10
454.76856080937029
 20
400.99121643992959
 30
0.0
 11
454.76856080937029
 21
414.99121643992959
 31
0.0
  0
LINE
  5
15E
  8
0
 10
451.03808395672093
 20
400.99121643992959
 30
0.0
 11
451.03808395672093
 21
414.99121643992959
 31
0.0
  0
LINE
  5
15F
  8
0
 10
458.81625854977278
 20
400.99121643992959
 30
0.0
 11
458.81625854977278
 21
414.99121643992959
 31
0.0
  0
LINE
  5
160
  8
0
 10
451.2312412347033
 20
415.49121643992959
 30
0.0
 11
450.7312412347033
 21
414.99121643992959
 31
0.0
  0
LINE
  5
161
  8
0
 10
383.7312412347033
 20
433.99121643992947
 30
0.0
 11
383.7312412347033
 21
426.99121643992959
 31
0.0
  0
LINE
  5
162
  8
0
 10
448.7312412347033
 20
426.99121643992959
 30
0.0
 11
448.7312412347033
 21
433.99121643992947
 31
0.0
  0
LINE
  5
163
  8
0
 10
383.94839852222867
 20
434.2083737274549
 30
0.0
 11
383.7312412347033
 21
433.99121643992947
 31
0.0
  0
LINE
  5
164
  8
0
 10
383.7312412347033
 20
444.49121643992959
 30
0.0
 11
383.7312412347033
 21
434.99121643992947
 31
0.0
  0
LINE
  5
165
  8
0
 10
383.7312412347033
 20
434.99121643992947
 30
0.0
 11
383.94839852222867
 21
434.77405915240422
 31
0.0
  0
LINE
  5
166
  8
0
 10
384.2312412347033
 20
444.99121643992959
 30
0.0
 11
383.7312412347033
 21
444.49121643992959
 31
0.0
  0
LINE
  5
167
  8
0
 10
448.7312412347033
 20
433.99121643992947
 30
0.0
 11
448.51408394717788
 21
434.2083737274549
 31
0.0
  0
LINE
  5
168
  8
0
 10
448.7312412347033
 20
444.49121643992959
 30
0.0
 11
448.2312412347033
 21
444.99121643992959
 31
0.0
  0
LINE
  5
169
  8
0
 10
448.7312412347033
 20
434.99121643992947
 30
0.0
 11
448.7312412347033
 21
444.49121643992959
 31
0.0
  0
LINE
  5
16A
  8
0
 10
448.51408394717788
 20
434.77405915240422
 30
0.0
 11
448.7312412347033
 21
434.99121643992947
 31
0.0
  0
ARC
  5
16B
  8
0
 10
383.66555580975398
 20
434.49121643992947
 30
0.0
 40
0.4000000000000193
 50
315.00000000000063
 51
45.0
  0
ARC
  5
16C
  8
0
 10
448.79692665965251
 20
434.49121643992947
 30
0.0
 40
0.4000000000000193
 50
135.0
 51
225.0
  0
LINE
  5
16D
  8
0
 10
451.2312412347033
 20
415.49121643992959
 30
0.0
 11
451.2312412347033
 21
426.49121643992947
 31
0.0
  0
LINE
  5
16E
  8
0
 10
381.23124123470319
 20
426.49121643992947
 30
0.0
 11
381.23124123470319
 21
415.49121643992959
 31
0.0
  0
LINE
  5
16F
  8
0
 10
451.2312412347033
 20
426.49121643992947
 30
0.0
 11
450.73124123470319
 21
426.99121643992959
 31
0.0
  0
LINE
  5
170
  8
0
 10
381.7312412347033
 20
426.99121643992959
 30
0.0
 11
381.23124123470319
 21
426.49121643992947
 31
0.0
  0
LINE
  5
171
  8
0
 10
381.23124123470319
 20
415.49121643992959
 30
0.0
 11
381.73124123470319
 21
414.99121643992959
 31
0.0
  0
LINE
  5
172
  8
0
 10
471.23124123470319
 20
413.99121643992947
 30
0.0
 11
470.2312412347033
 21
414.99121643992959
 31
0.0
  0
LINE
  5
173
  8
0
 10
470.73124123470319
 20
408.99121643992947
 30
0.0
 11
471.23124123470319
 21
409.49121643992959
 31
0.0
  0
LINE
  5
174
  8
0
 10
362.2312412347033
 20
414.99121643992959
 30
0.0
 11
361.2312412347033
 21
413.99121643992947
 31
0.0
  0
LINE
  5
175
  8
0
 10
361.2312412347033
 20
409.49121643992959
 30
0.0
 11
361.7312412347033
 21
408.99121643992947
 31
0.0
  0
LINE
  5
176
  8
0
 10
361.2312412347033
 20
413.99121643992947
 30
0.0
 11
361.2312412347033
 21
409.49121643992959
 31
0.0
  0
LINE
  5
177
  8
0
 10
471.23124123470319
 20
409.49121643992959
 30
0.0
 11
471.23124123470319
 21
413.99121643992947
 31
0.0
  0
LINE
  5
178
  8
0
 10
361.2312412347033
 20
355.9912164399297
 30
0.0
 11
362.2312412347033
 21
354.99121643992959
 31
0.0
  0
LINE
  5
179
  8
0
 10
470.2312412347033
 20
354.99121643992959
 30
0.0
 11
471.23124123470319
 21
355.9912164399297
 31
0.0
  0
LINE
  5
17A
  8
0
 10
471.23124123470319
 20
355.9912164399297
 30
0.0
 11
471.23124123470319
 21
408.49121643992947
 31
0.0
  0
LINE
  5
17B
  8
0
 10
361.2312412347033
 20
408.49121643992947
 30
0.0
 11
361.2312412347033
 21
355.9912164399297
 31
0.0
  0
LINE
  5
17C
  8
0
 10
471.23124123470319
 20
408.49121643992947
 30
0.0
 11
470.73124123470319
 21
408.99121643992947
 31
0.0
  0
LINE
  5
17D
  8
0
 10
361.7312412347033
 20
408.99121643992947
 30
0.0
 11
361.2312412347033
 21
408.49121643992947
 31
0.0
  0
LINE
  5
17E
  8
0
 10
384.73124123470342
 20
353.4912164399297
 30
0.0
 11
384.73124123470342
 21
337.99121643992947
 31
0.0
  0
LINE
  5
17F
  8
0
 10
447.7312412347033
 20
337.99121643992947
 30
0.0
 11
447.7312412347033
 21
353.4912164399297
 31
0.0
  0
LINE
  5
180
  8
0
 10
384.73124123470342
 20
337.99121643992947
 30
0.0
 11
385.88594177308249
 21
335.99121643992959
 31
0.0
  0
LINE
  5
181
  8
0
 10
446.57654069632412
 20
335.99121643992959
 30
0.0
 11
447.7312412347033
 21
337.99121643992947
 31
0.0
  0
LINE
  5
182
  8
0
 10
447.7312412347033
 20
353.4912164399297
 30
0.0
 11
447.37768784411003
 21
353.84476983052292
 31
0.0
  0
LINE
  5
183
  8
0
 10
385.08479462529658
 20
353.84476983052292
 30
0.0
 11
384.73124123470342
 21
353.4912164399297
 31
0.0
  0
ARC
  5
184
  8
0
 10
447.7312412347033
 20
354.19832322111608
 30
0.0
 40
0.5000000000000443
 50
180.0
 51
224.9999999999954
  0
ARC
  5
185
  8
0
 10
384.73124123470342
 20
354.19832322111608
 30
0.0
 40
0.5
 50
315.0
 51
0.0
  0
LINE
  5
186
  8
0
 10
447.2312412347033
 20
354.19832322111608
 30
0.0
 11
447.2312412347033
 21
354.99121643992959
 31
0.0
  0
LINE
  5
187
  8
0
 10
385.2312412347033
 20
354.99121643992959
 30
0.0
 11
385.2312412347033
 21
354.19832322111608
 31
0.0
  0
LINE
  5
188
  8
0
 10
394.33542083998532
 20
434.99121643992947
 30
0.0
 11
394.48913914400322
 21
434.77405915240422
 31
0.0
  0
LINE
  5
189
  8
0
 10
438.12706162942169
 20
434.99121643992947
 30
0.0
 11
394.33542083998532
 21
434.99121643992947
 31
0.0
  0
LINE
  5
18A
  8
0
 10
437.97334332540368
 20
434.77405915240422
 30
0.0
 11
438.12706162942169
 21
434.99121643992947
 31
0.0
  0
LINE
  5
18B
  8
0
 10
394.33542083998532
 20
426.99121643992959
 30
0.0
 11
394.33542083998532
 21
433.99121643992947
 31
0.0
  0
LINE
  5
18C
  8
0
 10
438.12706162942169
 20
433.99121643992947
 30
0.0
 11
394.33542083998532
 21
433.99121643992947
 31
0.0
  0
LINE
  5
18D
  8
0
 10
438.12706162942169
 20
433.99121643992947
 30
0.0
 11
438.12706162942169
 21
426.99121643992959
 31
0.0
  0
LINE
  5
18E
  8
0
 10
440.24838197298129
 20
426.99121643992959
 30
0.0
 11
440.24838197298129
 21
433.99121643992947
 31
0.0
  0
LINE
  5
18F
  8
0
 10
448.7312412347033
 20
433.99121643992947
 30
0.0
 11
440.24838197298129
 21
433.99121643992947
 31
0.0
  0
LINE
  5
190
  8
0
 10
392.2141004964256
 20
433.99121643992947
 30
0.0
 11
383.7312412347033
 21
433.99121643992947
 31
0.0
  0
LINE
  5
191
  8
0
 10
392.2141004964256
 20
433.99121643992947
 30
0.0
 11
392.2141004964256
 21
426.99121643992959
 31
0.0
  0
LINE
  5
192
  8
0
 10
438.12706162942169
 20
444.49121643992959
 30
0.0
 11
438.12706162942169
 21
434.99121643992947
 31
0.0
  0
LINE
  5
193
  8
0
 10
394.33542083998532
 20
434.99121643992947
 30
0.0
 11
394.33542083998532
 21
444.49121643992959
 31
0.0
  0
LINE
  5
194
  8
0
 10
394.48913914400322
 20
434.2083737274549
 30
0.0
 11
394.33542083998532
 21
433.99121643992947
 31
0.0
  0
LINE
  5
195
  8
0
 10
438.12706162942169
 20
433.99121643992947
 30
0.0
 11
437.97334332540368
 21
434.2083737274549
 31
0.0
  0
LINE
  5
196
  8
0
 10
437.77312516751499
 20
444.99121643992959
 30
0.0
 11
438.12706162942169
 21
444.49121643992959
 31
0.0
  0
LINE
  5
197
  8
0
 10
394.33542083998532
 20
444.49121643992959
 30
0.0
 11
394.6893573018919
 21
444.99121643992959
 31
0.0
  0
ARC
  5
198
  8
0
 10
394.06136719774059
 20
434.49121643992947
 30
0.0
 40
0.5128243734547489
 50
326.52733158359592
 51
33.472668416415857
  0
ARC
  5
199
  8
0
 10
438.40111527166732
 20
434.49121643992947
 30
0.0
 40
0.5128243734556023
 50
146.52733158364711
 51
213.47266841634411
  0
LINE
  5
19A
  8
0
 10
392.2141004964256
 20
433.99121643992947
 30
0.0
 11
392.3678188004435
 21
434.2083737274549
 31
0.0
  0
ARC
  5
19B
  8
0
 10
391.94004685417991
 20
434.49121643992947
 30
0.0
 40
0.5128243734556497
 50
326.52733158366181
 51
33.472668416349912
  0
LINE
  5
19C
  8
0
 10
392.3678188004435
 20
434.77405915240422
 30
0.0
 11
392.2141004964256
 21
434.99121643992947
 31
0.0
  0
LINE
  5
19D
  8
0
 10
392.2141004964256
 20
444.49121643992959
 30
0.0
 11
392.2141004964256
 21
434.99121643992947
 31
0.0
  0
LINE
  5
19E
  8
0
 10
392.56803695833219
 20
444.99121643992959
 30
0.0
 11
392.2141004964256
 21
444.49121643992959
 31
0.0
  0
LINE
  5
19F
  8
0
 10
392.2141004964256
 20
434.99121643992947
 30
0.0
 11
383.7312412347033
 21
434.99121643992947
 31
0.0
  0
LINE
  5
1A0
  8
0
 10
440.24838197298129
 20
444.49121643992959
 30
0.0
 11
439.89444551107471
 21
444.99121643992959
 31
0.0
  0
LINE
  5
1A1
  8
0
 10
440.24838197298129
 20
434.99121643992947
 30
0.0
 11
440.24838197298129
 21
444.49121643992959
 31
0.0
  0
LINE
  5
1A2
  8
0
 10
440.24838197298129
 20
434.99121643992947
 30
0.0
 11
440.09466366896339
 21
434.77405915240422
 31
0.0
  0
ARC
  5
1A3
  8
0
 10
440.52243561522653
 20
434.49121643992947
 30
0.0
 40
0.512824373455223
 50
146.52733158361929
 51
213.47266841637179
  0
LINE
  5
1A4
  8
0
 10
440.09466366896339
 20
434.2083737274549
 30
0.0
 11
440.24838197298129
 21
433.99121643992947
 31
0.0
  0
LINE
  5
1A5
  8
0
 10
384.2312412347033
 20
444.99121643992959
 30
0.0
 11
448.2312412347033
 21
444.99121643992959
 31
0.0
  0
LINE
  5
1A6
  8
0
 10
448.7312412347033
 20
434.99121643992947
 30
0.0
 11
440.24838197298129
 21
434.99121643992947
 31
0.0
  0
LINE
  5
1A7
  8
0
 10
381.7312412347033
 20
426.99121643992959
 30
0.0
 11
450.73124123470319
 21
426.99121643992959
 31
0.0
  0
LINE
  5
1A8
  8
0
 10
362.2312412347033
 20
414.99121643992959
 30
0.0
 11
470.2312412347033
 21
414.99121643992959
 31
0.0
  0
LINE
  5
1A9
  8
0
 10
470.2312412347033
 20
354.99121643992959
 30
0.0
 11
362.2312412347033
 21
354.99121643992959
 31
0.0
  0
LINE
  5
1AA
  8
0
 10
373.64622391963383
 20
400.99121643992959
 30
0.0
 11
373.64622391963383
 21
414.99121643992959
 31
0.0
  0
LINE
  5
1AB
  8
0
 10
373.64622391963383
 20
400.99121643992959
 30
0.0
 11
381.4243985126858
 21
400.99121643992959
 31
0.0
  0
LINE
  5
1AC
  8
0
 10
381.4243985126858
 20
400.99121643992959
 30
0.0
 11
381.4243985126858
 21
414.99121643992959
 31
0.0
  0
LINE
  5
1AD
  8
0
 10
361.7312412347033
 20
408.99121643992947
 30
0.0
 11
470.7312412347033
 21
408.99121643992947
 31
0.0
  0
LINE
  5
1AE
  8
0
 10
377.69392166003632
 20
400.99121643992959
 30
0.0
 11
377.69392166003632
 21
414.99121643992959
 31
0.0
  0
LINE
  5
1AF
  8
0
 10
447.7312412347033
 20
353.4912164399297
 30
0.0
 11
384.73124123470342
 21
353.4912164399297
 31
0.0
  0
LINE
  5
1B0
  8
0
 10
384.73124123470342
 20
337.99121643992947
 30
0.0
 11
447.7312412347033
 21
337.99121643992947
 31
0.0
  0
LINE
  5
1B1
  8
0
 10
446.57654069632412
 20
335.99121643992959
 30
0.0
 11
385.88594177308249
 21
335.99121643992959
 31
0.0
  0
LINE
  5
1B2
  8
1
 10
416.23124123470319
 20
458.46977613161579
 30
0.0
 11
416.23124123470319
 21
323.40887752454051
 31
0.0
  0
LINE
  5
1B3
  8
0
 10
424.59196353030632
 20
417.19121643992952
 30
0.0
 11
421.09196353030632
 21
417.19121643992952
 31
0.0
  0
ARC
  5
1B4
  8
0
 10
424.10470238936392
 20
414.7391608572546
 30
0.0
 40
2.4999999999999898
 50
5.7865202676336152
 51
78.760857744552283
  0
ARC
  5
1B5
  8
0
 10
421.57922467124871
 20
414.7391608572546
 30
0.0
 40
2.499999999999996
 50
101.23914225544451
 51
174.2134797323647
  0
ARC
  5
1B6
  8
0
 10
406.23081130038719
 20
398.99121643992947
 30
0.0
 40
7.9996564008670328
 50
216.94811908239339
 51
143.0518809176065
  0
LINE
  5
1B7
  8
0
 10
399.83764492394801
 20
403.79974284779092
 30
0.0
 11
399.83764492394801
 21
394.18269003206831
 31
0.0
  0
CIRCLE
  5
1B8
  8
0
 10
406.23124123470302
 20
398.9912164399297
 30
0.0
 40
4.5297965000000033
  0
ARC
  5
1B9
  8
0
 10
406.23124123470302
 20
398.9912164399297
 30
0.0
 40
4.2500000000000364
 50
288.13547337148231
 51
251.86452662852099
  0
LINE
  5
1BA
  8
0
 10
406.8557410345428
 20
401.49121643992959
 30
0.0
 11
405.60674143486318
 21
401.49121643992959
 31
0.0
  0
ARC
  5
1BB
  8
0
 10
406.23124123470308
 20
398.67403355669848
 30
0.0
 40
4.0415450526994237
 50
250.89385219405139
 51
289.10614780594858
  0
LINE
  5
1BC
  8
0
 10
404.90836557917072
 20
394.9523428345787
 30
0.0
 11
404.90836557917072
 21
394.85512187756802
 31
0.0
  0
ARC
  5
1BD
  8
0
 10
406.23362685463292
 20
398.79773515833728
 30
0.0
 40
4.060715485377079
 50
251.03035205802689
 51
289.3403618012365
  0
LINE
  5
1BE
  8
0
 10
407.55411689023532
 20
394.85512187756802
 30
0.0
 11
407.55411689023532
 21
394.9523428345787
 31
0.0
  0
CIRCLE
  5
1BF
  8
0
 10
406.23124123470302
 20
400.99121643992959
 30
0.0
 40
0.8000000000000113
  0
LINE
  5
1C0
  8
0
 10
426.95998118629802
 20
362.82127413632452
 30
0.0
 11
425.50250128310819
 21
362.82127413632452
 31
0.0
  0
ARC
  5
1C1
  8
0
 10
426.23167116901868
 20
364.99121643992947
 30
0.0
 40
7.9996564008670781
 50
36.948119082391173
 51
323.05188091761107
  0
LINE
  5
1C2
  8
0
 10
432.62483754545798
 20
360.18269003206819
 30
0.0
 11
432.62483754545798
 21
369.79974284779098
 31
0.0
  0
CIRCLE
  5
1C3
  8
0
 10
426.23124123470308
 20
364.99121643992959
 30
0.0
 40
4.5297965000000309
  0
ARC
  5
1C4
  8
0
 10
426.23124123470308
 20
364.67403355669819
 30
0.0
 40
4.0415450526990933
 50
250.89385219404781
 51
289.10614780595222
  0
LINE
  5
1C5
  8
0
 10
424.90836557917072
 20
360.9523428345787
 30
0.0
 11
424.90836557917072
 21
360.85512187756802
 31
0.0
  0
ARC
  5
1C6
  8
0
 10
426.23362685463292
 20
364.79773515833722
 30
0.0
 40
4.0607154853770098
 50
251.0303520580236
 51
289.3403618012365
  0
LINE
  5
1C7
  8
0
 10
427.55411689023532
 20
360.85512187756802
 30
0.0
 11
427.55411689023532
 21
360.9523428345787
 31
0.0
  0
ARC
  5
1C8
  8
0
 10
426.23124123470308
 20
364.99121643992959
 30
0.0
 40
4.2500000000000364
 50
288.13547337148231
 51
251.86452662852099
  0
CIRCLE
  5
1C9
  8
0
 10
426.23124123470308
 20
362.49121643992959
 30
0.0
 40
0.8000000000000113
  0
LINE
  5
1CA
  8
1
 10
426.23124123470308
 20
375.69182766627631
 30
0.0
 11
426.23124123470308
 21
354.29060521358292
 31
0.0
  0
LINE
  5
1CB
  8
1
 10
415.53063000835641
 20
364.99121643992959
 30
0.0
 11
436.93185246104969
 21
364.99121643992959
 31
0.0
  0
LINE
  5
1CC
  8
1
 10
395.5306300083563
 20
398.9912164399297
 30
0.0
 11
416.93185246104969
 21
398.9912164399297
 31
0.0
  0
LINE
  5
1CD
  8
1
 10
406.23124123470302
 20
409.69182766627631
 30
0.0
 11
406.23124123470302
 21
388.29060521358292
 31
0.0
  0
LINE
  5
1CE
  8
1
 10
136.93955622081751
 20
600.16271203546307
 30
0.0
 11
275.6273555870257
 21
600.16271203546285
 31
0.0
  0
LINE
  5
1CF
  8
1
 10
206.28345590392161
 20
669.50661171856711
 30
0.0
 11
206.28345590392161
 21
530.81881235235892
 31
0.0
  0
CIRCLE
  5
1D0
  8
1
 10
206.28345590392161
 20
600.16271203546307
 30
0.0
 40
47.49999999999941
  0
LINE
  5
1D1
  8
1
 10
234.14761243521119
 20
628.02686856675223
 30
0.0
 11
245.17432886918189
 21
639.05358500072293
 31
0.0
  0
LINE
  5
1D2
  8
1
 10
178.419299372632
 20
628.02686856675223
 30
0.0
 11
167.39258293866129
 21
639.05358500072293
 31
0.0
  0
LINE
  5
1D3
  8
1
 10
234.14761243521119
 20
572.29855550417392
 30
0.0
 11
245.17432886918189
 21
561.27183907020299
 31
0.0
  0
LINE
  5
1D4
  8
1
 10
178.419299372632
 20
572.29855550417392
 30
0.0
 11
167.39258293866129
 21
561.27183907020299
 31
0.0
  0
TEXT
  5
2A6
  8
0
 62
     3
 10
0.0
 20
0.0
 30
0.0
 40
10.0
  1
AMCH080-5W
  7
STANDARD1
  0
ENDSEC
  0
EOF
