  0
SECTION
  2
HEADER
  9
$ACADVER
  1
AC1009
  9
$INSBASE
 10
0.0
 20
0.0
 30
0.0
  9
$EXTMIN
 10
-0.0204638472032742
 20
-2.960436562073669
 30
0.0
  9
$EXTMAX
 10
309.8770702002696
 20
236.36788967596121
 30
0.0
  9
$LIMMIN
 10
0.0
 20
0.0
  9
$LIMMAX
 10
770.0
 20
540.0
  9
$ORTHOMODE
 70
     1
  9
$REGENMODE
 70
     1
  9
$FILLMODE
 70
     1
  9
$QTEXTMODE
 70
     0
  9
$MIRRTEXT
 70
     0
  9
$DRAGMODE
 70
     2
  9
$LTSCALE
 40
5.0
  9
$OSMODE
 70
    37
  9
$ATTMODE
 70
     1
  9
$TEXTSIZE
 40
4.000000000000048
  9
$TRACEWID
 40
0.05
  9
$TEXTSTYLE
  7
STANDARD
  9
$CLAYER
  8
0
  9
$CELTYPE
  6
BYLAYER
  9
$CECOLOR
 62
   256
  9
$DIMSCALE
 40
1.0
  9
$DIMASZ
 40
3.0
  9
$DIMEXO
 40
2.0
  9
$DIMDLI
 40
0.38
  9
$DIMRND
 40
0.0
  9
$DIMDLE
 40
0.0
  9
$DIMEXE
 40
2.0
  9
$DIMTP
 40
0.0
  9
$DIMTM
 40
0.0
  9
$DIMTXT
 40
3.0
  9
$DIMCEN
 40
0.0
  9
$DIMTSZ
 40
0.0
  9
$DIMTOL
 70
     0
  9
$DIMLIM
 70
     0
  9
$DIMTIH
 70
     0
  9
$DIMTOH
 70
     0
  9
$DIMSE1
 70
     0
  9
$DIMSE2
 70
     0
  9
$DIMTAD
 70
     1
  9
$DIMZIN
 70
     0
  9
$DIMBLK
  1

  9
$DIMASO
 70
     0
  9
$DIMSHO
 70
     0
  9
$DIMPOST
  1

  9
$DIMAPOST
  1

  9
$DIMALT
 70
     0
  9
$DIMALTD
 70
     2
  9
$DIMALTF
 40
25.399999999999999
  9
$DIMLFAC
 40
1.0
  9
$DIMTOFL
 70
     0
  9
$DIMTVP
 40
1.6000000000000001
  9
$DIMTIX
 70
     1
  9
$DIMSOXD
 70
     0
  9
$DIMSAH
 70
     0
  9
$DIMBLK1
  1

  9
$DIMBLK2
  1

  9
$DIMSTYLE
  2
STANDARD
  9
$DIMCLRD
 70
     4
  9
$DIMCLRE
 70
     4
  9
$DIMCLRT
 70
     4
  9
$DIMTFAC
 40
1.0
  9
$DIMGAP
 40
0.09
  9
$LUNITS
 70
     2
  9
$LUPREC
 70
     1
  9
$SKETCHINC
 40
0.1
  9
$FILLETRAD
 40
0.0
  9
$AUNITS
 70
     0
  9
$AUPREC
 70
     0
  9
$MENU
  1
E:\r13\win\SUPPORT\ACAD
  9
$ELEVATION
 40
0.0
  9
$PELEVATION
 40
0.0
  9
$THICKNESS
 40
0.0
  9
$LIMCHECK
 70
     0
  9
$BLIPMODE
 70
     0
  9
$CHAMFERA
 40
1.1999999999999991
  9
$CHAMFERB
 40
1.1999999999999991
  9
$SKPOLY
 70
     0
  9
$TDCREATE
 40
2450158.583426042
  9
$TDUPDATE
 40
2458835.707255011
  9
$TDINDWG
 40
1.2803627894
  9
$TDUSRTIMER
 40
1.2803627894
  9
$USRTIMER
 70
     1
  9
$ANGBASE
 50
0.0
  9
$ANGDIR
 70
     0
  9
$PDMODE
 70
     0
  9
$PDSIZE
 40
0.0
  9
$PLINEWID
 40
0.0
  9
$COORDS
 70
     1
  9
$SPLFRAME
 70
     0
  9
$SPLINETYPE
 70
     6
  9
$SPLINESEGS
 70
     8
  9
$ATTDIA
 70
     0
  9
$ATTREQ
 70
     1
  9
$HANDLING
 70
     1
  9
$HANDSEED
  5
1901B
  9
$SURFTAB1
 70
     6
  9
$SURFTAB2
 70
     6
  9
$SURFTYPE
 70
     6
  9
$SURFU
 70
     6
  9
$SURFV
 70
     6
  9
$UCSNAME
  2

  9
$UCSORG
 10
0.0
 20
0.0
 30
0.0
  9
$UCSXDIR
 10
1.0
 20
0.0
 30
0.0
  9
$UCSYDIR
 10
0.0
 20
1.0
 30
0.0
  9
$PUCSNAME
  2

  9
$PUCSORG
 10
0.0
 20
0.0
 30
0.0
  9
$PUCSXDIR
 10
1.0
 20
0.0
 30
0.0
  9
$PUCSYDIR
 10
0.0
 20
1.0
 30
0.0
  9
$USERI1
 70
     3
  9
$USERI2
 70
     1
  9
$USERI3
 70
     0
  9
$USERI4
 70
     0
  9
$USERI5
 70
     0
  9
$USERR1
 40
2.0
  9
$USERR2
 40
3.0
  9
$USERR3
 40
3.0
  9
$USERR4
 40
3.0
  9
$USERR5
 40
10.0
  9
$WORLDVIEW
 70
     1
  9
$SHADEDGE
 70
     3
  9
$SHADEDIF
 70
    70
  9
$TILEMODE
 70
     1
  9
$MAXACTVP
 70
    16
  9
$PLIMCHECK
 70
     0
  9
$PEXTMIN
 10
1.0000000000000000E+020
 20
1.0000000000000000E+020
 30
1.0000000000000000E+020
  9
$PEXTMAX
 10
-1.0000000000000000E+020
 20
-1.0000000000000000E+020
 30
-1.0000000000000000E+020
  9
$PLIMMIN
 10
0.0
 20
0.0
  9
$PLIMMAX
 10
12.0
 20
9.0
  9
$UNITMODE
 70
     0
  9
$VISRETAIN
 70
     0
  9
$PLINEGEN
 70
     0
  9
$PSLTSCALE
 70
     0
  0
ENDSEC
  0
SECTION
  2
TABLES
  0
TABLE
  2
VPORT
 70
     1
  0
VPORT
  2
*ACTIVE
 70
     0
 10
0.0
 20
0.0
 11
1.0
 21
1.0
 12
207.67077047739579
 22
118.98300045310199
 13
0.0
 23
0.0
 14
10.0
 24
10.0
 15
10.0
 25
10.0
 16
0.0
 26
0.0
 36
1.0
 17
0.0
 27
0.0
 37
0.0
 40
432.1942195648615
 41
2.3366214549938338
 42
50.0
 43
0.0
 44
0.0
 50
0.0
 51
0.0
 71
     0
 72
   500
 73
     1
 74
     0
 75
     0
 76
     1
 77
     0
 78
     2
  0
ENDTAB
  0
TABLE
  2
LTYPE
 70
     5
  0
LTYPE
  2
CONTINUOUS
 70
     0
  3
Solid Line
 72
    65
 73
     0
 40
0.0
  0
LTYPE
  2
CENTER
 70
     0
  3
Center ____ _ ____ _ ____ _ ____ _ ____ _ ____
 72
    65
 73
     4
 40
2.0
 49
1.25
 49
-0.25
 49
0.25
 49
-0.25
  0
LTYPE
  2
HIDDEN
 70
     0
  3
Hidden __ __ __ __ __ __ __ __ __ __ __ __ __ __
 72
    65
 73
     2
 40
1.905
 49
1.27
 49
-0.635
  0
LTYPE
  2
PHANTOM2
 70
     0
  3
___ _ _ ___ _ _ ___ _ _ ___ _ _
 72
    65
 73
     6
 40
1.25
 49
0.625
 49
-0.125
 49
0.125
 49
-0.125
 49
0.125
 49
-0.125
  0
LTYPE
  2
SASEN1
 70
     0
  3
SASEN1 ___ _ ___ _ ___ _ ___
 72
    65
 73
     4
 40
8.0
 49
5.0
 49
-1.0
 49
1.0
 49
-1.0
  0
ENDTAB
  0
TABLE
  2
LAYER
 70
     9
  0
LAYER
  2
0
 70
     0
 62
     7
  6
CONTINUOUS
  0
LAYER
  2
1
 70
     0
 62
     1
  6
CENTER
  0
LAYER
  2
DEFPOINTS
 70
     0
 62
     7
  6
CONTINUOUS
  0
LAYER
  2
2
 70
     0
 62
     2
  6
HIDDEN
  0
LAYER
  2
3
 70
     0
 62
     3
  6
CONTINUOUS
  0
LAYER
  2
10_CHOKU02
 70
     0
 62
     7
  6
CONTINUOUS
  0
LAYER
  2
20_CHOKU01
 70
     0
 62
     4
  6
CONTINUOUS
  0
LAYER
  2
40_SASEN01-1-50-10-10
 70
     0
 62
     1
  6
SASEN1
  0
LAYER
  2
60_DIM_NOTE
 70
     0
 62
     6
  6
CONTINUOUS
  0
ENDTAB
  0
TABLE
  2
STYLE
 70
     5
  0
STYLE
  2
STANDARD
 70
     0
 40
0.0
 41
1.0
 50
0.0
 71
     0
 42
4.000000000000048
  3
SIMPLEX
  4
BIGFONT
  0
STYLE
  2
STANDARD1
 70
     0
 40
0.0
 41
1.0
 50
0.0
 71
     0
 42
3.0
  3
txt
  4

  0
STYLE
  2
1Y
 70
     0
 40
0.0
 41
1.0
 50
0.0
 71
     0
 42
2.5
  3
1TXT.shx
  4
EXTFONT.shx
  0
STYLE
  2
1121Y
 70
     0
 40
0.0
 41
1.0
 50
0.0
 71
     0
 42
2.5
  3
121TXT.shx
  4
EXTFONT.shx
  0
STYLE
  2
IMAO_TXT_W100
 70
     0
 40
0.0
 41
1.0
 50
0.0
 71
     0
 42
2.5
  3
txt
  4

  0
ENDTAB
  0
TABLE
  2
VIEW
 70
     2
  0
VIEW
  2
ALL
 70
     0
 40
179.5384664489153
 10
146.94997169852391
 20
89.769233224457665
 41
0.0
 11
0.0
 21
0.0
 31
1.0
 12
0.0
 22
0.0
 32
0.0
 42
50.0
 43
0.0
 44
0.0
 50
0.0
 71
     0
  0
VIEW
  2
OLE1
 70
     0
 40
416.77598031552918
 10
797.82189005210319
 20
128.633165621448
 41
626.04324469336882
 11
0.0
 21
0.0
 31
1.0
 12
0.0
 22
0.0
 32
0.0
 42
50.0
 43
0.0
 44
0.0
 50
0.0
 71
     0
  0
ENDTAB
  0
TABLE
  2
UCS
 70
     0
  0
ENDTAB
  0
TABLE
  2
APPID
 70
    11
  0
APPID
  2
ACAD
 70
     0
  0
APPID
  2
DCO15
 70
     0
  0
APPID
  2
ACAD_EXEMPT_FROM_CAD_STANDARDS
 70
     0
  0
APPID
  2
ACAD_MLEADERVER
 70
     0
  0
APPID
  2
ACAD_PSEXT
 70
     0
  0
APPID
  2
ACAD_DSTYLE_DIMJAG
 70
     0
  0
APPID
  2
ACAD_DSTYLE_DIMTALN
 70
     0
  0
APPID
  2
ACAD_NAV_VCDISPLAY
 70
     0
  0
APPID
  2
ACAD_DSTYLE_DIMBREAK
 70
     0
  0
APPID
  2
ACAECLAYERSTANDARD
 70
     0
  0
APPID
  2
ACCMTRANSPARENCY
 70
     0
  0
ENDTAB
  0
TABLE
  2
DIMSTYLE
 70
     3
  0
DIMSTYLE
  2
STANDARD
 70
     0
  3

  4

  5

  6

  7

 40
1.0
 41
0.18
 42
0.0625
 43
0.38
 44
0.18
 45
0.0
 46
0.0
 47
0.0
 48
0.0
140
0.18
141
0.09
142
0.0
143
25.399999999999999
144
1.0
145
0.0
146
1.0
147
0.09
 71
     0
 72
     0
 73
     1
 74
     1
 75
     0
 76
     0
 77
     0
 78
     0
170
     0
171
     2
172
     0
173
     0
174
     0
175
     0
176
     0
177
     0
178
     0
  0
DIMSTYLE
  2
IMAO_DIM_HAN
 70
     0
  3

  4

  5

  6

  7

 40
1.0
 41
1.5
 42
1.0
 43
4.0
 44
1.0
 45
0.0
 46
0.0
 47
0.0
 48
0.0
140
1.8
141
0.09
142
0.0
143
25.399999999999999
144
1.0
145
0.0
146
1.0
147
0.9
 71
     0
 72
     0
 73
     0
 74
     0
 75
     0
 76
     0
 77
     1
 78
     8
170
     0
171
     2
172
     1
173
     0
174
     0
175
     0
176
   256
177
     0
178
   256
  0
DIMSTYLE
  2
IMAO_DIM_ZEN
 70
     0
  3

  4

  5

  6

  7

 40
1.0
 41
1.5
 42
1.0
 43
4.0
 44
1.0
 45
0.0
 46
0.0
 47
0.0
 48
0.0
140
1.8
141
0.09
142
0.0
143
25.399999999999999
144
1.0
145
0.0
146
1.0
147
0.65
 71
     0
 72
     0
 73
     0
 74
     0
 75
     0
 76
     0
 77
     1
 78
     8
170
     0
171
     2
172
     1
173
     0
174
     0
175
     0
176
   256
177
     0
178
   256
  0
ENDTAB
  0
ENDSEC
  0
SECTION
  2
BLOCKS
  0
BLOCK
  8
0
  2
$MODEL_SPACE
 70
     0
 10
0.0
 20
0.0
 30
0.0
  3
$MODEL_SPACE
  1

  0
ENDBLK
  5
644
  8
0
  0
BLOCK
 67
     1
  8
0
  2
$PAPER_SPACE
 70
     0
 10
0.0
 20
0.0
 30
0.0
  3
$PAPER_SPACE
  1

  0
ENDBLK
  5
642
 67
     1
  8
0
  0
ENDSEC
  0
SECTION
  2
ENTITIES
  0
LINE
  5
10E63
  8
1
 10
287.87707031947889
 20
147.3678903688652
 30
0.0
 11
287.87707031947889
 21
101.367891918586
 31
0.0
  0
LINE
  5
12DD2
  8
1
 10
109.8770661024504
 20
133.42045088671341
 30
0.0
 11
109.8770661024504
 21
124.3678910245163
 31
0.0
  0
LINE
  5
13A62
  8
1
 10
100.8770690975836
 20
34.367892037795293
 30
0.0
 11
220.87707222682749
 21
34.36789203779535
 31
0.0
  0
CIRCLE
  5
13F6D
  8
0
 10
109.87706686240961
 20
214.367890249656
 30
0.0
 40
1.6209999999997531
  0
LINE
  5
13F6E
  8
1
 10
100.8770673094445
 20
214.3678902496562
 30
0.0
 11
220.87707043868829
 21
214.3678902496562
 31
0.0
  0
CIRCLE
  5
13F6F
  8
3
 10
109.87706686240961
 20
214.367890249656
 30
0.0
 40
1.9999995678662961
  0
LINE
  5
13F70
  8
1
 10
109.87706686240961
 20
218.3678898175223
 30
0.0
 11
109.87706686240961
 21
210.3678906817897
 31
0.0
  0
CIRCLE
  5
1472E
  8
0
 10
109.87706686240939
 20
34.367892037795229
 30
0.0
 40
1.620999999999867
  0
CIRCLE
  5
1472F
  8
3
 10
109.87706686240939
 20
34.367892037795229
 30
0.0
 40
2.0000000949950438
  0
LINE
  5
14730
  8
1
 10
109.87706686240951
 20
38.367891605661612
 30
0.0
 11
109.87706686240951
 21
30.367892469928961
 31
0.0
  0
CIRCLE
  5
1473C
  8
0
 10
205.87706686240949
 20
34.367892037795457
 30
0.0
 40
4.0
  0
CIRCLE
  5
1473D
  8
0
 10
205.87706686240949
 20
34.367892037795457
 30
0.0
 40
6.0999999999999943
  0
CIRCLE
  5
1473E
  8
0
 10
205.87706686240949
 20
34.367892037795457
 30
0.0
 40
4.5
  0
LINE
  5
1473F
  8
1
 10
205.87706686240949
 20
43.412938770981611
 30
0.0
 11
205.87706686240949
 21
25.322845304609078
 31
0.0
  0
CIRCLE
  5
14741
  8
0
 10
178.87706865054881
 20
34.3678920377954
 30
0.0
 40
4.0
  0
CIRCLE
  5
14742
  8
0
 10
178.87706865054881
 20
34.3678920377954
 30
0.0
 40
6.0999999999999943
  0
CIRCLE
  5
14743
  8
0
 10
178.87706865054881
 20
34.3678920377954
 30
0.0
 40
4.5
  0
LINE
  5
14744
  8
1
 10
178.87706865054881
 20
43.412938770981548
 30
0.0
 11
178.87706865054881
 21
25.322845304609022
 31
0.0
  0
LINE
  5
14762
  8
1
 10
205.87706686240949
 20
138.867891918586
 30
0.0
 11
205.87706686240949
 21
129.867891918586
 31
0.0
  0
LINE
  5
14763
  8
1
 10
210.37706686240949
 20
134.367891918586
 30
0.0
 11
201.37706686240949
 21
134.367891918586
 31
0.0
  0
LINE
  5
1476E
  8
1
 10
205.87706686240949
 20
104.367891918586
 30
0.0
 11
205.87706686240949
 21
108.86789194233469
 31
0.0
  0
LINE
  5
1476F
  8
1
 10
178.87706686240949
 20
104.367891918586
 30
0.0
 11
178.87706686240949
 21
108.86789194233469
 31
0.0
  0
LINE
  5
14770
  8
1
 10
143.37706686240949
 20
104.367891918586
 30
0.0
 11
143.37706686240949
 21
116.36789229856559
 31
0.0
  0
LINE
  5
14771
  8
1
 10
148.37706686240949
 20
104.367891918586
 30
0.0
 11
148.37706686240949
 21
116.36789229856559
 31
0.0
  0
LINE
  5
14772
  8
1
 10
155.37706686240949
 20
104.367891918586
 30
0.0
 11
155.37706686240949
 21
116.36789229856559
 31
0.0
  0
LINE
  5
14773
  8
1
 10
160.37706686240949
 20
104.367891918586
 30
0.0
 11
160.37706686240949
 21
116.36789229856559
 31
0.0
  0
CIRCLE
  5
147E2
  8
0
 10
178.87706686240949
 20
134.367891918586
 30
0.0
 40
2.0669999999999988
  0
CIRCLE
  5
147E3
  8
3
 10
178.87706686240949
 20
134.367891918586
 30
0.0
 40
2.5
  0
CIRCLE
  5
147EC
  8
2
 10
205.87706686240949
 20
134.367891918586
 30
0.0
 40
2.0669999999999988
  0
CIRCLE
  5
147ED
  8
2
 10
205.87706686240949
 20
134.367891918586
 30
0.0
 40
2.5
  0
LINE
  5
162DD
  8
0
 10
125.87706686240971
 20
142.36789036886529
 30
0.0
 11
168.3770659385375
 21
142.36789036886529
 31
0.0
  0
LINE
  5
162F2
  8
0
 10
125.87706686240961
 20
106.3678919185861
 30
0.0
 11
125.87706686240971
 21
142.36789036886529
 31
0.0
  0
LINE
  5
162F6
  8
0
 10
132.30674515721719
 20
116.63861785428359
 30
0.0
 11
131.10630248916669
 21
115.94554249541591
 31
0.0
  0
LINE
  5
162F7
  8
0
 10
129.42697654721661
 20
116.3165888597234
 30
0.0
 11
129.4269148470961
 21
116.66953124450281
 31
0.0
  0
ARC
  5
162F8
  8
0
 10
129.0669148967996
 20
116.6694682902757
 30
0.0
 40
0.360000000000004
 50
0.0100000006500873
 51
109.39200386633701
  0
ARC
  5
162F9
  8
0
 10
129.87706686111221
 20
114.3678919185859
 30
0.0
 40
2.8000000000000012
 50
109.39200386633701
 51
154.62062100888781
  0
ARC
  5
162FA
  8
0
 10
127.5641334594106
 20
115.4651334960396
 30
0.0
 40
0.2400000000000086
 50
154.6206210088921
 51
250.0000000000035
  0
LINE
  5
162FB
  8
0
 10
127.4820485828571
 20
115.239607434438
 30
0.0
 11
127.9976816127204
 21
115.0519319658144
 31
0.0
  0
LINE
  5
162FC
  8
0
 10
127.9976816127204
 20
113.68385169999431
 30
0.0
 11
127.4820485828571
 21
113.496176697032
 31
0.0
  0
ARC
  5
162FD
  8
0
 10
127.5641334594106
 20
113.2706503411323
 30
0.0
 40
0.2399999999999963
 50
109.9999999999995
 51
205.3793789911152
  0
ARC
  5
162FE
  8
0
 10
129.87706686111221
 20
114.3678919185859
 30
0.0
 40
2.8000000000000131
 50
205.37937899111219
 51
250.6079961337598
  0
ARC
  5
162FF
  8
0
 10
129.0669148968054
 20
112.06631554688801
 30
0.0
 40
0.3599999999942641
 50
250.6079961331109
 51
359.99000000000132
  0
LINE
  5
16300
  8
0
 10
129.4269148470961
 20
112.06625288696721
 30
0.0
 11
129.42697654721661
 21
112.4191952717467
 31
0.0
  0
LINE
  5
16301
  8
0
 10
131.10630248916669
 20
112.79024163605411
 30
0.0
 11
132.30674515721719
 21
112.0971658115251
 31
0.0
  0
ARC
  5
16302
  8
0
 10
132.2367451312187
 20
111.9759223394088
 30
0.0
 40
0.1400000000000213
 50
314.6106345888839
 51
59.999999999996639
  0
ARC
  5
16303
  8
0
 10
129.87706686240949
 20
114.367891918586
 30
0.0
 40
3.5000000000000182
 50
45.389365411125247
 51
314.61063458887469
  0
ARC
  5
16304
  8
0
 10
132.2367451312187
 20
116.7598614977631
 30
0.0
 40
0.1400000000000213
 50
300.00000000000779
 51
45.389365411125247
  0
CIRCLE
  5
16305
  8
0
 10
129.87706686240961
 20
114.367891918586
 30
0.0
 40
1.9999999999999909
  0
ARC
  5
16306
  8
0
 10
129.87706686240961
 20
114.367891918586
 30
0.0
 40
24.50000000000005
 50
99.396477376840394
 51
120.0000000000005
  0
LINE
  5
16307
  8
0
 10
120.8770669741683
 20
127.36789163546401
 30
0.0
 11
116.8770672498398
 21
127.36789163546401
 31
0.0
  0
ARC
  5
16308
  8
0
 10
116.87706686240961
 20
122.367891918586
 30
0.0
 40
5.0
 50
90.0
 51
126.8698976458447
  0
LINE
  5
16309
  8
0
 10
105.87706686240961
 20
126.3678914715512
 30
0.0
 11
113.87706675810141
 21
126.3678914715512
 31
0.0
  0
LINE
  5
1630A
  8
0
 10
117.6270669071131
 20
135.5855150927766
 30
0.0
 11
109.8770661024504
 21
131.11105028884251
 31
0.0
  0
ARC
  5
1630B
  8
0
 10
120.87706686240961
 20
122.367891918586
 30
0.0
 40
5.0
 50
0.0
 51
90.0
  0
LINE
  5
1630C
  8
0
 10
105.8770673094444
 20
126.3678914715512
 30
0.0
 11
105.8770673094444
 21
128.8016478379233
 31
0.0
  0
POLYLINE
  5
1630D
  8
0
 66
     1
 10
0.0
 20
0.0
 30
0.0
 70
   128
  0
VERTEX
  5
18E61
  8
0
 10
105.8770673094444
 20
128.8016478379233
 30
0.0
  0
VERTEX
  5
18E62
  8
0
 10
105.9378361074381
 20
128.83673448459939
 30
0.0
  0
VERTEX
  5
18E63
  8
0
 10
106.11829662007619
 20
128.9409234036668
 30
0.0
  0
VERTEX
  5
18E64
  8
0
 10
106.4129652200394
 20
129.1110499610169
 30
0.0
  0
VERTEX
  5
18E65
  8
0
 10
106.8128881720953
 20
129.34194531636069
 30
0.0
  0
VERTEX
  5
18E66
  8
0
 10
107.3059173045807
 20
129.6265947480662
 30
0.0
  0
VERTEX
  5
18E67
  8
0
 10
107.87706763727
 20
129.9563499947055
 30
0.0
  0
VERTEX
  5
18E68
  8
0
 10
108.5089867679529
 20
130.32118816273049
 30
0.0
  0
VERTEX
  5
18E69
  8
0
 10
109.18247455043119
 20
130.71002651350329
 30
0.0
  0
VERTEX
  5
18E6A
  8
0
 10
109.8770661024504
 20
131.11105028884251
 30
0.0
  0
SEQEND
  5
18E6B
  8
0
  0
LINE
  5
16310
  8
0
 10
139.53176734281109
 20
129.36789196328951
 30
0.0
 11
138.95441719574259
 21
130.36789212720231
 31
0.0
  0
LINE
  5
16311
  8
0
 10
137.79971690160559
 20
130.36789212720231
 30
0.0
 11
137.22236675453709
 21
129.36789196328951
 31
0.0
  0
LINE
  5
16312
  8
0
 10
137.22236675453709
 20
129.36789196328951
 30
0.0
 11
137.79971690160559
 21
128.36789179937671
 31
0.0
  0
LINE
  5
16313
  8
0
 10
137.79971690160559
 20
128.36789179937671
 30
0.0
 11
138.95441719574259
 21
128.36789179937671
 31
0.0
  0
LINE
  5
16314
  8
0
 10
138.95441719574259
 20
128.36789179937671
 30
0.0
 11
139.53176734281109
 21
129.36789196328951
 31
0.0
  0
LINE
  5
16315
  8
0
 10
138.95441719574259
 20
130.36789212720231
 30
0.0
 11
137.79971690160559
 21
130.36789212720231
 31
0.0
  0
CIRCLE
  5
16316
  8
0
 10
138.37706686240961
 20
129.367891918586
 30
0.0
 40
2.9999999999999432
  0
CIRCLE
  5
16317
  8
0
 10
153.37706686240961
 20
129.367891918586
 30
0.0
 40
2.9999999999999432
  0
LINE
  5
16318
  8
0
 10
154.531767007535
 20
129.36789196328951
 30
0.0
 11
153.95441779178901
 21
130.36789212720231
 31
0.0
  0
LINE
  5
16319
  8
0
 10
153.95441779178901
 20
130.36789212720231
 30
0.0
 11
152.79971749765201
 21
130.36789212720231
 31
0.0
  0
LINE
  5
1631A
  8
0
 10
152.79971749765201
 20
130.36789212720231
 30
0.0
 11
152.22236641926099
 21
129.36789196328951
 31
0.0
  0
LINE
  5
1631B
  8
0
 10
152.79971749765201
 20
128.36789179937671
 30
0.0
 11
153.95441779178901
 21
128.36789179937671
 31
0.0
  0
LINE
  5
1631C
  8
0
 10
153.95441779178901
 20
128.36789179937671
 30
0.0
 11
154.531767007535
 21
129.36789196328951
 31
0.0
  0
LINE
  5
1631D
  8
0
 10
152.22236641926099
 20
129.36789196328951
 30
0.0
 11
152.79971749765201
 21
128.36789179937671
 31
0.0
  0
CIRCLE
  5
16324
  8
0
 10
153.37706686240961
 20
129.367891918586
 30
0.0
 40
3.1999999999999882
  0
CIRCLE
  5
16325
  8
0
 10
138.37706686240961
 20
129.367891918586
 30
0.0
 40
3.1999999999999882
  0
LINE
  5
16351
  8
0
 10
215.87707043868809
 20
106.367891918586
 30
0.0
 11
125.87706686240961
 21
106.367891918586
 31
0.0
  0
LINE
  5
16352
  8
0
 10
215.87707043868821
 20
134.3678927828534
 30
0.0
 11
215.87707043868809
 21
106.367891918586
 31
0.0
  0
LINE
  5
16358
  8
0
 10
125.87706686240961
 20
139.36789173977209
 30
0.0
 11
207.2168135760478
 21
139.36789173977209
 31
0.0
  0
LINE
  5
1635A
  8
0
 10
207.2168135760478
 20
139.36789173977209
 30
0.0
 11
215.87707043868821
 21
134.3678927828534
 31
0.0
  0
ARC
  5
16569
  8
0
 10
155.87706593853741
 20
214.3678902496562
 30
0.0
 40
12.50000000000003
 50
0.0
 51
90.0
  0
ARC
  5
1656D
  8
0
 10
155.87706593853741
 20
214.3678902496562
 30
0.0
 40
12.50000000000005
 50
270.0
 51
0.0
  0
CIRCLE
  5
16572
  8
0
 10
135.87706686240961
 20
222.867890249656
 30
0.0
 40
3.1999999999999882
  0
LINE
  5
1657A
  8
0
 10
125.87706686240961
 20
198.367890063392
 30
0.0
 11
125.87706686240961
 21
230.3678904359204
 31
0.0
  0
CIRCLE
  5
1657B
  8
0
 10
135.87706686240961
 20
205.867890249656
 30
0.0
 40
3.1999999999999882
  0
ARC
  5
1658E
  8
0
 10
109.87706686240961
 20
216.367890249656
 30
0.0
 40
4.0
 50
90.0
 51
180.0
  0
ARC
  5
1658F
  8
0
 10
109.87706686240961
 20
212.367890249656
 30
0.0
 40
4.0
 50
180.0
 51
270.0
  0
LINE
  5
16590
  8
0
 10
105.8770673094444
 20
212.3678901546611
 30
0.0
 11
105.8770673094444
 21
216.3678903446509
 31
0.0
  0
LINE
  5
16592
  8
0
 10
125.87706686240961
 20
208.36789019750191
 30
0.0
 11
109.8770661024504
 21
208.36789019750191
 31
0.0
  0
LINE
  5
16593
  8
0
 10
125.87706686240961
 20
220.36789030181009
 30
0.0
 11
109.8770661024504
 21
220.36789030181009
 31
0.0
  0
CIRCLE
  5
16594
  8
0
 10
155.87706686240961
 20
205.867890249656
 30
0.0
 40
3.000000000000056
  0
LINE
  5
16595
  8
0
 10
157.03176645619189
 20
205.86788978772
 30
0.0
 11
156.45441724044599
 21
206.86789041729409
 31
0.0
  0
LINE
  5
16596
  8
0
 10
156.45441724044599
 20
206.86789041729409
 30
0.0
 11
155.29971508366381
 21
206.86789041729409
 31
0.0
  0
LINE
  5
16597
  8
0
 10
155.29971508366381
 20
206.86789041729409
 30
0.0
 11
154.72236586791789
 21
205.86788978772
 31
0.0
  0
LINE
  5
16598
  8
0
 10
154.72236586791789
 20
205.86788978772
 30
0.0
 11
155.29971508366381
 21
204.8678905551298
 31
0.0
  0
LINE
  5
16599
  8
0
 10
155.29971508366381
 20
204.8678905551298
 30
0.0
 11
156.45441724044599
 21
204.8678905551298
 31
0.0
  0
LINE
  5
1659A
  8
0
 10
156.45441724044599
 20
204.8678905551298
 30
0.0
 11
157.03176645619189
 21
205.86788978772
 31
0.0
  0
CIRCLE
  5
1659B
  8
0
 10
135.87706686240961
 20
205.867890249656
 30
0.0
 40
3.000000000000056
  0
LINE
  5
1659C
  8
0
 10
137.0317670149856
 20
205.86788978772
 30
0.0
 11
136.4544168679171
 21
206.86789041729409
 31
0.0
  0
LINE
  5
1659D
  8
0
 10
136.4544168679171
 20
206.86789041729409
 30
0.0
 11
135.2997165737801
 21
206.86789041729409
 31
0.0
  0
LINE
  5
1659E
  8
0
 10
135.2997165737801
 20
206.86789041729409
 30
0.0
 11
134.7223664267116
 21
205.86788978772
 31
0.0
  0
LINE
  5
1659F
  8
0
 10
134.7223664267116
 20
205.86788978772
 30
0.0
 11
135.2997165737801
 21
204.8678905551298
 31
0.0
  0
LINE
  5
165A0
  8
0
 10
135.2997165737801
 20
204.8678905551298
 30
0.0
 11
136.4544168679171
 21
204.8678905551298
 31
0.0
  0
LINE
  5
165A1
  8
0
 10
136.4544168679171
 20
204.8678905551298
 30
0.0
 11
137.0317670149856
 21
205.86788978772
 31
0.0
  0
LINE
  5
165A2
  8
0
 10
157.03176645619189
 20
222.867890711592
 30
0.0
 11
156.45441724044599
 21
223.8678899441822
 31
0.0
  0
LINE
  5
165A3
  8
0
 10
156.45441724044599
 20
223.8678899441822
 30
0.0
 11
155.29971508366381
 21
223.8678899441822
 31
0.0
  0
LINE
  5
165A4
  8
0
 10
155.29971508366381
 20
223.8678899441822
 30
0.0
 11
154.72236586791789
 21
222.867890711592
 31
0.0
  0
LINE
  5
165A5
  8
0
 10
154.72236586791789
 20
222.867890711592
 30
0.0
 11
155.29971508366381
 21
221.86789008201791
 31
0.0
  0
LINE
  5
165A6
  8
0
 10
155.29971508366381
 20
221.86789008201791
 30
0.0
 11
156.45441724044599
 21
221.86789008201791
 31
0.0
  0
LINE
  5
165A7
  8
0
 10
156.45441724044599
 20
221.86789008201791
 30
0.0
 11
157.03176645619189
 21
222.867890711592
 31
0.0
  0
CIRCLE
  5
165A8
  8
0
 10
155.87706686240961
 20
222.867890249656
 30
0.0
 40
3.0
  0
CIRCLE
  5
165A9
  8
0
 10
135.87706686240961
 20
222.867890249656
 30
0.0
 40
3.0
  0
LINE
  5
165AA
  8
0
 10
137.0317670149856
 20
222.867890711592
 30
0.0
 11
136.4544168679171
 21
223.8678899441822
 31
0.0
  0
LINE
  5
165AB
  8
0
 10
136.4544168679171
 20
223.8678899441822
 30
0.0
 11
135.2997165737801
 21
223.8678899441822
 31
0.0
  0
LINE
  5
165AC
  8
0
 10
135.2997165737801
 20
223.8678899441822
 30
0.0
 11
134.7223664267116
 21
222.867890711592
 31
0.0
  0
LINE
  5
165AD
  8
0
 10
134.7223664267116
 20
222.867890711592
 30
0.0
 11
135.2997165737801
 21
221.86789008201791
 31
0.0
  0
LINE
  5
165AE
  8
0
 10
135.2997165737801
 20
221.86789008201791
 30
0.0
 11
136.4544168679171
 21
221.86789008201791
 31
0.0
  0
LINE
  5
165AF
  8
0
 10
136.4544168679171
 20
221.86789008201791
 30
0.0
 11
137.0317670149856
 21
222.867890711592
 31
0.0
  0
LINE
  5
165B0
  8
0
 10
198.87706578952589
 20
209.4860575010045
 30
0.0
 11
198.716304611986
 21
209.4860575010045
 31
0.0
  0
LINE
  5
165B1
  8
0
 10
198.716304611986
 20
209.19132463978369
 30
0.0
 11
198.716304611986
 21
209.4860575010045
 31
0.0
  0
LINE
  5
165B2
  8
0
 10
198.716304611986
 20
209.19132463978369
 30
0.0
 11
198.87706578952589
 21
209.19132463978369
 31
0.0
  0
ARC
  5
165B3
  8
0
 10
198.87706686240949
 20
208.46789024965591
 30
0.0
 40
0.723434605714127
 50
12.839588406914681
 51
90.0
  0
LINE
  5
165B4
  8
0
 10
199.8824620364359
 20
208.62865353347499
 30
0.0
 11
199.58241225463661
 21
208.62865353347499
 31
0.0
  0
ARC
  5
165B5
  8
0
 10
198.87706686240949
 20
208.46789024965591
 30
0.0
 40
1.018167222856972
 50
9.0847202873964399
 51
90.0
  0
ARC
  5
165B6
  8
0
 10
198.6426202430323
 20
217.99832247822701
 30
0.0
 40
1.015934399999991
 50
90.0
 51
270.0
  0
LINE
  5
165B7
  8
0
 10
198.64261836988251
 20
216.98238815525309
 30
0.0
 11
200.12744457704341
 21
216.98238815525309
 31
0.0
  0
LINE
  5
165B8
  8
0
 10
200.12744457704341
 20
216.98238815525309
 30
0.0
 11
200.12744457704341
 21
217.7638760616048
 31
0.0
  0
LINE
  5
165B9
  8
0
 10
200.12744457704341
 20
217.7638760616048
 30
0.0
 11
199.58040804845609
 21
217.7638760616048
 31
0.0
  0
LINE
  5
165BA
  8
0
 10
199.58040804845609
 20
217.7638760616048
 30
0.0
 11
199.58040804845609
 21
218.23276880541579
 31
0.0
  0
LINE
  5
165BB
  8
0
 10
200.12744457704341
 20
218.23276880541579
 30
0.0
 11
199.58040804845609
 21
218.23276880541579
 31
0.0
  0
LINE
  5
165BC
  8
0
 10
200.12744457704341
 20
218.23276880541579
 30
0.0
 11
200.12744457704341
 21
219.0142567117675
 31
0.0
  0
LINE
  5
165BD
  8
0
 10
200.12744457704341
 20
219.0142567117675
 30
0.0
 11
198.64261836988251
 21
219.0142567117675
 31
0.0
  0
ARC
  5
165BE
  8
0
 10
198.6426204624095
 20
214.40347767822701
 30
0.0
 40
1.015934399999991
 50
142.0201275551471
 51
270.0
  0
LINE
  5
165BF
  8
0
 10
198.64261836988251
 20
213.38754332037411
 30
0.0
 11
200.12744457704341
 21
213.38754332037411
 31
0.0
  0
LINE
  5
165C0
  8
0
 10
200.12744457704341
 20
213.38754332037411
 30
0.0
 11
200.12744457704341
 21
214.1690312849334
 31
0.0
  0
LINE
  5
165C1
  8
0
 10
200.12744457704341
 20
214.1690312849334
 30
0.0
 11
198.64261836988251
 21
214.1690312849334
 31
0.0
  0
ARC
  5
165C2
  8
0
 10
198.6426204624095
 20
214.40347767822701
 30
0.0
 40
0.2344464000000244
 50
90.0
 51
270.0
  0
LINE
  5
165C3
  8
0
 10
198.64261836988251
 20
214.6379240869521
 30
0.0
 11
200.12744457704341
 21
214.6379240869521
 31
0.0
  0
LINE
  5
165C4
  8
0
 10
200.12744457704341
 20
214.6379240869521
 30
0.0
 11
200.12744457704341
 21
215.4194121097191
 31
0.0
  0
LINE
  5
165C5
  8
0
 10
200.12744457704341
 20
215.4194121097191
 30
0.0
 11
198.64261836988251
 21
215.4194121097191
 31
0.0
  0
ARC
  5
165C6
  8
0
 10
198.6426204624095
 20
215.65385847822699
 30
0.0
 40
0.2344464000000244
 50
90.0
 51
270.0
  0
LINE
  5
165C7
  8
0
 10
198.64261836988251
 20
215.88830485353009
 30
0.0
 11
200.12744457704341
 21
215.88830485353009
 31
0.0
  0
LINE
  5
165C8
  8
0
 10
200.12744457704341
 20
215.88830485353009
 30
0.0
 11
200.12744457704341
 21
216.66979299271239
 31
0.0
  0
LINE
  5
165C9
  8
0
 10
200.12744457704341
 20
216.66979299271239
 30
0.0
 11
198.64261836988251
 21
216.66979299271239
 31
0.0
  0
ARC
  5
165CA
  8
0
 10
198.6426204624095
 20
215.65385847822699
 30
0.0
 40
1.015934399999991
 50
90.0
 51
217.97987244485489
  0
LINE
  5
165CB
  8
0
 10
200.12744457704341
 20
213.07494804141811
 30
0.0
 11
197.62668700200831
 21
213.07494804141811
 31
0.0
  0
LINE
  5
165CC
  8
0
 10
197.62668700200831
 20
213.07494804141811
 30
0.0
 11
197.62668700200831
 21
212.2934600186511
 31
0.0
  0
LINE
  5
165CD
  8
0
 10
197.62668700200831
 20
212.2934600186511
 30
0.0
 11
200.12744457704341
 21
212.2934600186511
 31
0.0
  0
LINE
  5
165CE
  8
0
 10
200.12744457704341
 20
212.2934600186511
 30
0.0
 11
200.12744457704341
 21
213.07494804141811
 31
0.0
  0
LINE
  5
165CF
  8
0
 10
196.52706326228889
 20
220.36789030181009
 30
0.0
 11
196.52706326228889
 21
208.36789019750191
 31
0.0
  0
LINE
  5
165D0
  8
0
 10
201.2270683167628
 20
208.36789019750191
 30
0.0
 11
201.2270683167628
 21
220.36789030181009
 31
0.0
  0
ARC
  5
165D1
  8
0
 10
198.87706686240949
 20
208.367890249656
 30
0.0
 40
2.3500000000000218
 50
180.0
 51
0.0
  0
LINE
  5
165D2
  8
0
 10
198.716304611986
 20
210.04872860731319
 30
0.0
 11
198.33312870246681
 21
210.04872860731319
 31
0.0
  0
LINE
  5
165D3
  8
0
 10
198.716304611986
 20
209.7807898965641
 30
0.0
 11
198.716304611986
 21
210.04872860731319
 31
0.0
  0
LINE
  5
165D4
  8
0
 10
198.716304611986
 20
209.7807898965641
 30
0.0
 11
198.87706578952589
 21
209.7807898965641
 31
0.0
  0
ARC
  5
165D5
  8
0
 10
198.87706686240949
 20
208.46789024965591
 30
0.0
 40
1.3128998399996019
 50
7.033461315383807
 51
90.0
  0
LINE
  5
165D6
  8
0
 10
200.47663838846009
 20
208.62865353347499
 30
0.0
 11
200.1800903795413
 21
208.62865353347499
 31
0.0
  0
ARC
  5
165D7
  8
0
 10
198.87706686240949
 20
208.46789024965591
 30
0.0
 40
1.607632457142566
 50
5.7391704772714283
 51
32.797168295816313
  0
ARC
  5
165D8
  8
0
 10
198.87706686240949
 20
210.2094920782271
 30
0.0
 40
1.6076324571427361
 50
327.20283170417468
 51
212.7971682958281
  0
ARC
  5
165D9
  8
0
 10
198.87706686240949
 20
208.46789024965591
 30
0.0
 40
1.607632457142572
 50
147.2028317041819
 51
354.26082952272861
  0
LINE
  5
165DA
  8
0
 10
200.47663838846009
 20
208.3071269874437
 30
0.0
 11
200.1800903795413
 21
208.3071269874437
 31
0.0
  0
ARC
  5
165DB
  8
0
 10
198.87706686240949
 20
208.46789024965591
 30
0.0
 40
1.3128998400000009
 50
270.00000000000648
 51
352.96653868461618
  0
LINE
  5
165DC
  8
0
 10
198.87706578952589
 20
207.15499062435461
 30
0.0
 11
198.716304611986
 21
207.15499062435461
 31
0.0
  0
LINE
  5
165DD
  8
0
 10
198.716304611986
 20
207.15499062435461
 30
0.0
 11
198.716304611986
 21
207.44972301991419
 31
0.0
  0
LINE
  5
165DE
  8
0
 10
198.716304611986
 20
207.44972301991419
 30
0.0
 11
198.87706578952589
 21
207.44972301991419
 31
0.0
  0
ARC
  5
165DF
  8
0
 10
198.87706686240949
 20
208.46789024965591
 30
0.0
 40
1.0181672228570371
 50
270.0
 51
350.91527971260041
  0
LINE
  5
165E0
  8
0
 10
199.8824620364359
 20
208.3071269874437
 30
0.0
 11
199.58241225463661
 21
208.3071269874437
 31
0.0
  0
ARC
  5
165E1
  8
0
 10
198.87706686240949
 20
208.46789024965591
 30
0.0
 40
0.723434605714195
 50
270.0
 51
347.16041159308531
  0
LINE
  5
165E2
  8
0
 10
198.87706578952589
 20
207.74445541547371
 30
0.0
 11
198.716304611986
 21
207.74445541547371
 31
0.0
  0
LINE
  5
165E3
  8
0
 10
198.716304611986
 20
207.74445541547371
 30
0.0
 11
198.716304611986
 21
208.0391882766946
 31
0.0
  0
LINE
  5
165E4
  8
0
 10
198.716304611986
 20
208.0391882766946
 30
0.0
 11
198.87706578952589
 21
208.0391882766946
 31
0.0
  0
ARC
  5
165E5
  8
0
 10
198.87706686240949
 20
208.46789024965591
 30
0.0
 40
0.4287019885711061
 50
270.0
 51
90.0
  0
ARC
  5
165E6
  8
0
 10
198.87706686240949
 20
210.2094920782271
 30
0.0
 40
1.3128998400000029
 50
228.44085240813999
 51
270.0
  0
ARC
  5
165E7
  8
0
 10
196.7335569195528
 20
210.2094920782271
 30
0.0
 40
1.607632457142856
 50
322.33177022328778
 51
354.26082952273498
  0
ARC
  5
165E8
  8
0
 10
198.87706686240949
 20
220.367890249656
 30
0.0
 40
2.3500000000000218
 50
0.0
 51
180.0
  0
CIRCLE
  5
165E9
  8
0
 10
198.87706686240949
 20
220.57723287822699
 30
0.0
 40
1.2503807999999019
  0
CIRCLE
  5
165EA
  8
0
 10
198.87706686240949
 20
220.57723287822699
 30
0.0
 40
0.4688927999999919
  0
LINE
  5
165EB
  8
0
 10
198.95521492940699
 20
217.7638760616048
 30
0.0
 11
198.95521492940699
 21
218.23276880541579
 31
0.0
  0
LINE
  5
165EC
  8
0
 10
198.95521492940699
 20
218.23276880541579
 30
0.0
 11
198.64261836988251
 21
218.23276880541579
 31
0.0
  0
ARC
  5
165ED
  8
0
 10
198.6426202430323
 20
217.99832247822701
 30
0.0
 40
0.2344463999999675
 50
90.0
 51
270.0
  0
LINE
  5
165EE
  8
0
 10
198.64261836988251
 20
217.7638760616048
 30
0.0
 11
198.95521492940699
 21
217.7638760616048
 31
0.0
  0
LINE
  5
165EF
  8
0
 10
199.42100287658491
 20
210.3702551533444
 30
0.0
 11
199.03782696706571
 21
210.3702551533444
 31
0.0
  0
ARC
  5
165F0
  8
0
 10
201.0205768052663
 20
210.20949207822699
 30
0.0
 40
1.607632457142798
 50
142.33177022329241
 51
174.2608295227285
  0
ARC
  5
165F1
  8
0
 10
198.87706686240949
 20
210.2094920782271
 30
0.0
 40
1.3128998399999381
 50
48.440852408130809
 51
82.966538684616197
  0
LINE
  5
165F2
  8
0
 10
199.03782696706571
 20
210.3702551533444
 30
0.0
 11
199.03782696706571
 21
211.51251204656199
 31
0.0
  0
ARC
  5
165F3
  8
0
 10
196.7335569195528
 20
210.2094920782271
 30
0.0
 40
1.6076324571427409
 50
5.7391704772714283
 51
37.668229776707619
  0
LINE
  5
165F4
  8
0
 10
198.716304611986
 20
210.3702551533444
 30
0.0
 11
198.716304611986
 21
211.51251204656199
 31
0.0
  0
LINE
  5
165F5
  8
0
 10
198.716304611986
 20
210.3702551533444
 30
0.0
 11
198.33312870246681
 21
210.3702551533444
 31
0.0
  0
ARC
  5
165F6
  8
0
 10
198.87706686240949
 20
210.2094920782271
 30
0.0
 40
1.3128998399999381
 50
97.033461315383803
 51
131.55914759186459
  0
LINE
  5
165F7
  8
0
 10
199.42100287658491
 20
210.04872860731319
 30
0.0
 11
199.16935206634321
 21
210.04872860731319
 31
0.0
  0
LINE
  5
165F8
  8
0
 10
199.42976475936689
 20
209.97752713383869
 30
0.0
 11
199.42100287658491
 21
210.04872860731319
 31
0.0
  0
ARC
  5
165F9
  8
0
 10
198.87706686240949
 20
208.46789024965591
 30
0.0
 40
1.6076324571428831
 50
69.891571451518672
 51
79.524686156678413
  0
ARC
  5
165FA
  8
0
 10
201.0205768052663
 20
210.20949207822699
 30
0.0
 40
1.312899839999931
 50
187.03346131538061
 51
198.0201607483821
  0
LINE
  5
165FB
  8
0
 10
200.1800903795413
 20
210.04872860731319
 30
0.0
 11
199.71755833608421
 21
210.04872860731319
 31
0.0
  0
ARC
  5
165FC
  8
0
 10
198.87706686240949
 20
210.2094920782271
 30
0.0
 40
1.3128998400000349
 50
331.63809460783881
 51
352.96653868461618
  0
ARC
  5
165FD
  8
0
 10
198.87706686240949
 20
208.46789024965591
 30
0.0
 40
1.6076324571428611
 50
44.057874012226407
 51
56.170318352948577
  0
LINE
  5
165FE
  8
0
 10
198.03657324296751
 20
210.04872860731319
 30
0.0
 11
197.57404865009099
 21
210.04872860731319
 31
0.0
  0
ARC
  5
165FF
  8
0
 10
196.7335569195528
 20
210.2094920782271
 30
0.0
 40
1.3128998399999889
 50
324.71873817271597
 51
352.9665386845997
  0
ARC
  5
16600
  8
0
 10
198.87706686240949
 20
210.2094920782271
 30
0.0
 40
1.3128998400000289
 50
187.03346131539709
 51
215.28126182727951
  0
ARC
  5
16601
  8
0
 10
198.87706686240949
 20
210.2094920782271
 30
0.0
 40
1.3128998399999521
 50
144.71873817273229
 51
172.96653868461291
  0
ARC
  5
16602
  8
0
 10
196.7335569195528
 20
210.2094920782271
 30
0.0
 40
1.312899839999667
 50
7.03346131538704
 51
35.28126182727226
  0
LINE
  5
16603
  8
0
 10
198.03657324296751
 20
210.3702551533444
 30
0.0
 11
197.57404865009099
 21
210.3702551533444
 31
0.0
  0
LINE
  5
16604
  8
0
 10
200.1800903795413
 20
210.3702551533444
 30
0.0
 11
199.71755833608421
 21
210.3702551533444
 31
0.0
  0
ARC
  5
16605
  8
0
 10
201.0205768052663
 20
210.20949207822699
 30
0.0
 40
1.312899839999917
 50
144.71873817272049
 51
172.96653868462261
  0
ARC
  5
16606
  8
0
 10
198.87706686240949
 20
210.2094920782271
 30
0.0
 40
1.312899840000016
 50
7.0334613153741099
 51
35.28126182727226
  0
LINE
  5
16607
  8
0
 10
196.27706648093971
 20
220.36789030181009
 30
0.0
 11
196.27706648093971
 21
208.36789019750191
 31
0.0
  0
ARC
  5
16608
  8
0
 10
198.87706686240949
 20
208.367890249656
 30
0.0
 40
2.6000000000000218
 50
180.0
 51
0.0
  0
LINE
  5
16609
  8
0
 10
201.47706509811201
 20
208.36789019750191
 30
0.0
 11
201.47706509811201
 21
220.36789030181009
 31
0.0
  0
ARC
  5
1660A
  8
0
 10
198.87706686240949
 20
220.367890249656
 30
0.0
 40
2.6000000000000218
 50
0.0
 51
180.0
  0
LINE
  5
1660C
  8
0
 10
207.2168135760478
 20
201.8678900633914
 30
0.0
 11
207.2168135760478
 21
226.86789043592049
 31
0.0
  0
LINE
  5
1660E
  8
0
 10
125.87706686240961
 20
226.86789043592049
 30
0.0
 11
215.87707043868809
 21
226.86789043592049
 31
0.0
  0
LINE
  5
16614
  8
0
 10
215.87707043868809
 20
226.86789043592049
 30
0.0
 11
215.87707043868821
 21
201.86789006339151
 31
0.0
  0
LINE
  5
16616
  8
0
 10
215.87707043868821
 20
201.86789006339151
 30
0.0
 11
125.87706686240961
 21
201.8678900633914
 31
0.0
  0
LINE
  5
1663C
  8
0
 10
117.6270669071131
 20
220.36789030181009
 30
0.0
 11
117.6270669071131
 21
208.36789019750191
 31
0.0
  0
LINE
  5
16697
  8
0
 10
21.37706724238922
 20
139.36789173977209
 30
0.0
 11
21.37706724238922
 21
142.36789036886529
 31
0.0
  0
LINE
  5
16698
  8
0
 10
46.377067614918239
 20
139.36789173977209
 30
0.0
 11
21.37706724238922
 21
139.36789173977209
 31
0.0
  0
LINE
  5
16699
  8
0
 10
21.377067242389209
 20
142.36789036886529
 30
0.0
 11
46.377067614918239
 21
142.36789036886529
 31
0.0
  0
LINE
  5
166A0
  8
0
 10
46.377067614918253
 20
142.36789036886529
 30
0.0
 11
46.377067614918239
 21
139.36789173977209
 31
0.0
  0
POLYLINE
  5
166BA
  8
0
 10
27.877067428653849
 20
131.11104972508519
 30
0.0
 66
     1
 70
     8
  0
VERTEX
  8
0
  5
18E95
 10
27.8771
 20
131.111
 30
0.000000
  70
    32
  0
VERTEX
  8
0
  5
18E96
 10
27.8774
 20
131.083
 30
0.000000
  70
    32
  0
VERTEX
  8
0
  5
18E97
 10
27.8783
 20
131.054
 30
0.000000
  70
    32
  0
VERTEX
  8
0
  5
18E98
 10
27.8798
 20
131.026
 30
0.000000
  70
    32
  0
VERTEX
  8
0
  5
18E99
 10
27.8819
 20
130.998
 30
0.000000
  70
    32
  0
VERTEX
  8
0
  5
18E9A
 10
27.8846
 20
130.969
 30
0.000000
  70
    32
  0
VERTEX
  8
0
  5
18E9B
 10
27.8879
 20
130.941
 30
0.000000
  70
    32
  0
VERTEX
  8
0
  5
18E9C
 10
27.8918
 20
130.913
 30
0.000000
  70
    32
  0
VERTEX
  8
0
  5
18E9D
 10
27.8963
 20
130.885
 30
0.000000
  70
    32
  0
VERTEX
  8
0
  5
18E9E
 10
27.9014
 20
130.857
 30
0.000000
  70
    32
  0
VERTEX
  8
0
  5
18E9F
 10
27.9071
 20
130.828
 30
0.000000
  70
    32
  0
VERTEX
  8
0
  5
18EA0
 10
27.9135
 20
130.800
 30
0.000000
  70
    32
  0
VERTEX
  8
0
  5
18EA1
 10
27.9204
 20
130.772
 30
0.000000
  70
    32
  0
VERTEX
  8
0
  5
18EA2
 10
27.9279
 20
130.744
 30
0.000000
  70
    32
  0
VERTEX
  8
0
  5
18EA3
 10
27.9360
 20
130.716
 30
0.000000
  70
    32
  0
VERTEX
  8
0
  5
18EA4
 10
27.9446
 20
130.688
 30
0.000000
  70
    32
  0
VERTEX
  8
0
  5
18EA5
 10
27.9539
 20
130.661
 30
0.000000
  70
    32
  0
VERTEX
  8
0
  5
18EA6
 10
27.9638
 20
130.633
 30
0.000000
  70
    32
  0
VERTEX
  8
0
  5
18EA7
 10
27.9743
 20
130.605
 30
0.000000
  70
    32
  0
VERTEX
  8
0
  5
18EA8
 10
27.9853
 20
130.577
 30
0.000000
  70
    32
  0
VERTEX
  8
0
  5
18EA9
 10
27.9969
 20
130.550
 30
0.000000
  70
    32
  0
VERTEX
  8
0
  5
18EAA
 10
28.0092
 20
130.522
 30
0.000000
  70
    32
  0
VERTEX
  8
0
  5
18EAB
 10
28.0220
 20
130.495
 30
0.000000
  70
    32
  0
VERTEX
  8
0
  5
18EAC
 10
28.0353
 20
130.468
 30
0.000000
  70
    32
  0
VERTEX
  8
0
  5
18EAD
 10
28.0493
 20
130.441
 30
0.000000
  70
    32
  0
VERTEX
  8
0
  5
18EAE
 10
28.0638
 20
130.414
 30
0.000000
  70
    32
  0
VERTEX
  8
0
  5
18EAF
 10
28.0790
 20
130.387
 30
0.000000
  70
    32
  0
VERTEX
  8
0
  5
18EB0
 10
28.0946
 20
130.360
 30
0.000000
  70
    32
  0
VERTEX
  8
0
  5
18EB1
 10
28.1109
 20
130.333
 30
0.000000
  70
    32
  0
VERTEX
  8
0
  5
18EB2
 10
28.1277
 20
130.306
 30
0.000000
  70
    32
  0
VERTEX
  8
0
  5
18EB3
 10
28.1451
 20
130.280
 30
0.000000
  70
    32
  0
VERTEX
  8
0
  5
18EB4
 10
28.1630
 20
130.254
 30
0.000000
  70
    32
  0
VERTEX
  8
0
  5
18EB5
 10
28.1815
 20
130.227
 30
0.000000
  70
    32
  0
VERTEX
  8
0
  5
18EB6
 10
28.2006
 20
130.201
 30
0.000000
  70
    32
  0
VERTEX
  8
0
  5
18EB7
 10
28.2202
 20
130.175
 30
0.000000
  70
    32
  0
VERTEX
  8
0
  5
18EB8
 10
28.2404
 20
130.149
 30
0.000000
  70
    32
  0
VERTEX
  8
0
  5
18EB9
 10
28.2611
 20
130.124
 30
0.000000
  70
    32
  0
VERTEX
  8
0
  5
18EBA
 10
28.2824
 20
130.098
 30
0.000000
  70
    32
  0
VERTEX
  8
0
  5
18EBB
 10
28.3042
 20
130.073
 30
0.000000
  70
    32
  0
VERTEX
  8
0
  5
18EBC
 10
28.3265
 20
130.047
 30
0.000000
  70
    32
  0
VERTEX
  8
0
  5
18EBD
 10
28.3494
 20
130.022
 30
0.000000
  70
    32
  0
VERTEX
  8
0
  5
18EBE
 10
28.3728
 20
129.997
 30
0.000000
  70
    32
  0
VERTEX
  8
0
  5
18EBF
 10
28.3967
 20
129.973
 30
0.000000
  70
    32
  0
VERTEX
  8
0
  5
18EC0
 10
28.4212
 20
129.948
 30
0.000000
  70
    32
  0
VERTEX
  8
0
  5
18EC1
 10
28.4462
 20
129.924
 30
0.000000
  70
    32
  0
VERTEX
  8
0
  5
18EC2
 10
28.4716
 20
129.900
 30
0.000000
  70
    32
  0
VERTEX
  8
0
  5
18EC3
 10
28.4977
 20
129.876
 30
0.000000
  70
    32
  0
VERTEX
  8
0
  5
18EC4
 10
28.5242
 20
129.852
 30
0.000000
  70
    32
  0
VERTEX
  8
0
  5
18EC5
 10
28.5512
 20
129.828
 30
0.000000
  70
    32
  0
VERTEX
  8
0
  5
18EC6
 10
28.5787
 20
129.805
 30
0.000000
  70
    32
  0
VERTEX
  8
0
  5
18EC7
 10
28.6067
 20
129.781
 30
0.000000
  70
    32
  0
VERTEX
  8
0
  5
18EC8
 10
28.6352
 20
129.758
 30
0.000000
  70
    32
  0
VERTEX
  8
0
  5
18EC9
 10
28.6642
 20
129.735
 30
0.000000
  70
    32
  0
VERTEX
  8
0
  5
18ECA
 10
28.6937
 20
129.713
 30
0.000000
  70
    32
  0
VERTEX
  8
0
  5
18ECB
 10
28.7237
 20
129.690
 30
0.000000
  70
    32
  0
VERTEX
  8
0
  5
18ECC
 10
28.7541
 20
129.668
 30
0.000000
  70
    32
  0
VERTEX
  8
0
  5
18ECD
 10
28.7850
 20
129.646
 30
0.000000
  70
    32
  0
VERTEX
  8
0
  5
18ECE
 10
28.8164
 20
129.624
 30
0.000000
  70
    32
  0
VERTEX
  8
0
  5
18ECF
 10
28.8482
 20
129.603
 30
0.000000
  70
    32
  0
VERTEX
  8
0
  5
18ED0
 10
28.8805
 20
129.581
 30
0.000000
  70
    32
  0
VERTEX
  8
0
  5
18ED1
 10
28.9133
 20
129.560
 30
0.000000
  70
    32
  0
VERTEX
  8
0
  5
18ED2
 10
28.9465
 20
129.539
 30
0.000000
  70
    32
  0
VERTEX
  8
0
  5
18ED3
 10
28.9801
 20
129.519
 30
0.000000
  70
    32
  0
VERTEX
  8
0
  5
18ED4
 10
29.0141
 20
129.498
 30
0.000000
  70
    32
  0
VERTEX
  8
0
  5
18ED5
 10
29.0486
 20
129.478
 30
0.000000
  70
    32
  0
VERTEX
  8
0
  5
18ED6
 10
29.0836
 20
129.458
 30
0.000000
  70
    32
  0
VERTEX
  8
0
  5
18ED7
 10
29.1189
 20
129.438
 30
0.000000
  70
    32
  0
VERTEX
  8
0
  5
18ED8
 10
29.1547
 20
129.419
 30
0.000000
  70
    32
  0
VERTEX
  8
0
  5
18ED9
 10
29.1908
 20
129.400
 30
0.000000
  70
    32
  0
VERTEX
  8
0
  5
18EDA
 10
29.2274
 20
129.381
 30
0.000000
  70
    32
  0
VERTEX
  8
0
  5
18EDB
 10
29.2644
 20
129.362
 30
0.000000
  70
    32
  0
VERTEX
  8
0
  5
18EDC
 10
29.3017
 20
129.344
 30
0.000000
  70
    32
  0
VERTEX
  8
0
  5
18EDD
 10
29.3395
 20
129.326
 30
0.000000
  70
    32
  0
VERTEX
  8
0
  5
18EDE
 10
29.3776
 20
129.308
 30
0.000000
  70
    32
  0
VERTEX
  8
0
  5
18EDF
 10
29.4161
 20
129.290
 30
0.000000
  70
    32
  0
VERTEX
  8
0
  5
18EE0
 10
29.4550
 20
129.273
 30
0.000000
  70
    32
  0
VERTEX
  8
0
  5
18EE1
 10
29.4943
 20
129.256
 30
0.000000
  70
    32
  0
VERTEX
  8
0
  5
18EE2
 10
29.5339
 20
129.239
 30
0.000000
  70
    32
  0
VERTEX
  8
0
  5
18EE3
 10
29.5738
 20
129.223
 30
0.000000
  70
    32
  0
VERTEX
  8
0
  5
18EE4
 10
29.6141
 20
129.207
 30
0.000000
  70
    32
  0
VERTEX
  8
0
  5
18EE5
 10
29.6548
 20
129.191
 30
0.000000
  70
    32
  0
VERTEX
  8
0
  5
18EE6
 10
29.6958
 20
129.175
 30
0.000000
  70
    32
  0
VERTEX
  8
0
  5
18EE7
 10
29.7371
 20
129.160
 30
0.000000
  70
    32
  0
VERTEX
  8
0
  5
18EE8
 10
29.7787
 20
129.145
 30
0.000000
  70
    32
  0
VERTEX
  8
0
  5
18EE9
 10
29.8207
 20
129.130
 30
0.000000
  70
    32
  0
VERTEX
  8
0
  5
18EEA
 10
29.8629
 20
129.116
 30
0.000000
  70
    32
  0
VERTEX
  8
0
  5
18EEB
 10
29.9055
 20
129.102
 30
0.000000
  70
    32
  0
VERTEX
  8
0
  5
18EEC
 10
29.9483
 20
129.088
 30
0.000000
  70
    32
  0
VERTEX
  8
0
  5
18EED
 10
29.9915
 20
129.074
 30
0.000000
  70
    32
  0
VERTEX
  8
0
  5
18EEE
 10
30.0349
 20
129.061
 30
0.000000
  70
    32
  0
VERTEX
  8
0
  5
18EEF
 10
30.0786
 20
129.048
 30
0.000000
  70
    32
  0
VERTEX
  8
0
  5
18EF0
 10
30.1226
 20
129.036
 30
0.000000
  70
    32
  0
VERTEX
  8
0
  5
18EF1
 10
30.1668
 20
129.023
 30
0.000000
  70
    32
  0
VERTEX
  8
0
  5
18EF2
 10
30.2113
 20
129.011
 30
0.000000
  70
    32
  0
VERTEX
  8
0
  5
18EF3
 10
30.2561
 20
129.000
 30
0.000000
  70
    32
  0
VERTEX
  8
0
  5
18EF4
 10
30.3011
 20
128.988
 30
0.000000
  70
    32
  0
VERTEX
  8
0
  5
18EF5
 10
30.3463
 20
128.977
 30
0.000000
  70
    32
  0
VERTEX
  8
0
  5
18EF6
 10
30.3918
 20
128.967
 30
0.000000
  70
    32
  0
VERTEX
  8
0
  5
18EF7
 10
30.4375
 20
128.956
 30
0.000000
  70
    32
  0
VERTEX
  8
0
  5
18EF8
 10
30.4834
 20
128.946
 30
0.000000
  70
    32
  0
VERTEX
  8
0
  5
18EF9
 10
30.5295
 20
128.937
 30
0.000000
  70
    32
  0
VERTEX
  8
0
  5
18EFA
 10
30.5758
 20
128.927
 30
0.000000
  70
    32
  0
VERTEX
  8
0
  5
18EFB
 10
30.6223
 20
128.918
 30
0.000000
  70
    32
  0
VERTEX
  8
0
  5
18EFC
 10
30.6690
 20
128.909
 30
0.000000
  70
    32
  0
VERTEX
  8
0
  5
18EFD
 10
30.7159
 20
128.901
 30
0.000000
  70
    32
  0
VERTEX
  8
0
  5
18EFE
 10
30.7630
 20
128.893
 30
0.000000
  70
    32
  0
VERTEX
  8
0
  5
18EFF
 10
30.8102
 20
128.885
 30
0.000000
  70
    32
  0
VERTEX
  8
0
  5
18F00
 10
30.8576
 20
128.878
 30
0.000000
  70
    32
  0
VERTEX
  8
0
  5
18F01
 10
30.9051
 20
128.871
 30
0.000000
  70
    32
  0
VERTEX
  8
0
  5
18F02
 10
30.9528
 20
128.864
 30
0.000000
  70
    32
  0
VERTEX
  8
0
  5
18F03
 10
31.0007
 20
128.858
 30
0.000000
  70
    32
  0
VERTEX
  8
0
  5
18F04
 10
31.0486
 20
128.852
 30
0.000000
  70
    32
  0
VERTEX
  8
0
  5
18F05
 10
31.0967
 20
128.846
 30
0.000000
  70
    32
  0
VERTEX
  8
0
  5
18F06
 10
31.1449
 20
128.841
 30
0.000000
  70
    32
  0
VERTEX
  8
0
  5
18F07
 10
31.1932
 20
128.836
 30
0.000000
  70
    32
  0
VERTEX
  8
0
  5
18F08
 10
31.2416
 20
128.831
 30
0.000000
  70
    32
  0
VERTEX
  8
0
  5
18F09
 10
31.2901
 20
128.827
 30
0.000000
  70
    32
  0
VERTEX
  8
0
  5
18F0A
 10
31.3387
 20
128.823
 30
0.000000
  70
    32
  0
VERTEX
  8
0
  5
18F0B
 10
31.3874
 20
128.819
 30
0.000000
  70
    32
  0
VERTEX
  8
0
  5
18F0C
 10
31.4362
 20
128.816
 30
0.000000
  70
    32
  0
VERTEX
  8
0
  5
18F0D
 10
31.4850
 20
128.813
 30
0.000000
  70
    32
  0
VERTEX
  8
0
  5
18F0E
 10
31.5339
 20
128.810
 30
0.000000
  70
    32
  0
VERTEX
  8
0
  5
18F0F
 10
31.5828
 20
128.808
 30
0.000000
  70
    32
  0
VERTEX
  8
0
  5
18F10
 10
31.6318
 20
128.806
 30
0.000000
  70
    32
  0
VERTEX
  8
0
  5
18F11
 10
31.6808
 20
128.804
 30
0.000000
  70
    32
  0
VERTEX
  8
0
  5
18F12
 10
31.7298
 20
128.803
 30
0.000000
  70
    32
  0
VERTEX
  8
0
  5
18F13
 10
31.7789
 20
128.802
 30
0.000000
  70
    32
  0
VERTEX
  8
0
  5
18F14
 10
31.8280
 20
128.802
 30
0.000000
  70
    32
  0
VERTEX
  8
0
  5
18F15
 10
31.8771
 20
128.802
 30
0.000000
  70
    32
  0
SEQEND
  8
0
  5
18F16
  0
LINE
  5
166BB
  8
0
 10
39.877067480807803
 20
126.3678914715512
 30
0.0
 11
27.877067376499781
 21
126.3678914715512
 31
0.0
  0
POLYLINE
  5
166BE
  8
0
 10
35.877067428653895
 20
128.80164864832665
 30
0.0
 66
     1
 70
     8
  0
VERTEX
  8
0
  5
18F17
 10
35.8771
 20
128.802
 30
0.000000
  70
    32
  0
VERTEX
  8
0
  5
18F18
 10
35.9262
 20
128.802
 30
0.000000
  70
    32
  0
VERTEX
  8
0
  5
18F19
 10
35.9752
 20
128.802
 30
0.000000
  70
    32
  0
VERTEX
  8
0
  5
18F1A
 10
36.0243
 20
128.803
 30
0.000000
  70
    32
  0
VERTEX
  8
0
  5
18F1B
 10
36.0733
 20
128.804
 30
0.000000
  70
    32
  0
VERTEX
  8
0
  5
18F1C
 10
36.1224
 20
128.806
 30
0.000000
  70
    32
  0
VERTEX
  8
0
  5
18F1D
 10
36.1713
 20
128.808
 30
0.000000
  70
    32
  0
VERTEX
  8
0
  5
18F1E
 10
36.2203
 20
128.810
 30
0.000000
  70
    32
  0
VERTEX
  8
0
  5
18F1F
 10
36.2691
 20
128.813
 30
0.000000
  70
    32
  0
VERTEX
  8
0
  5
18F20
 10
36.3180
 20
128.816
 30
0.000000
  70
    32
  0
VERTEX
  8
0
  5
18F21
 10
36.3667
 20
128.819
 30
0.000000
  70
    32
  0
VERTEX
  8
0
  5
18F22
 10
36.4154
 20
128.823
 30
0.000000
  70
    32
  0
VERTEX
  8
0
  5
18F23
 10
36.4640
 20
128.827
 30
0.000000
  70
    32
  0
VERTEX
  8
0
  5
18F24
 10
36.5125
 20
128.831
 30
0.000000
  70
    32
  0
VERTEX
  8
0
  5
18F25
 10
36.5609
 20
128.836
 30
0.000000
  70
    32
  0
VERTEX
  8
0
  5
18F26
 10
36.6092
 20
128.841
 30
0.000000
  70
    32
  0
VERTEX
  8
0
  5
18F27
 10
36.6574
 20
128.846
 30
0.000000
  70
    32
  0
VERTEX
  8
0
  5
18F28
 10
36.7055
 20
128.852
 30
0.000000
  70
    32
  0
VERTEX
  8
0
  5
18F29
 10
36.7535
 20
128.858
 30
0.000000
  70
    32
  0
VERTEX
  8
0
  5
18F2A
 10
36.8013
 20
128.864
 30
0.000000
  70
    32
  0
VERTEX
  8
0
  5
18F2B
 10
36.8490
 20
128.871
 30
0.000000
  70
    32
  0
VERTEX
  8
0
  5
18F2C
 10
36.8965
 20
128.878
 30
0.000000
  70
    32
  0
VERTEX
  8
0
  5
18F2D
 10
36.9439
 20
128.885
 30
0.000000
  70
    32
  0
VERTEX
  8
0
  5
18F2E
 10
36.9911
 20
128.893
 30
0.000000
  70
    32
  0
VERTEX
  8
0
  5
18F2F
 10
37.0382
 20
128.901
 30
0.000000
  70
    32
  0
VERTEX
  8
0
  5
18F30
 10
37.0851
 20
128.909
 30
0.000000
  70
    32
  0
VERTEX
  8
0
  5
18F31
 10
37.1318
 20
128.918
 30
0.000000
  70
    32
  0
VERTEX
  8
0
  5
18F32
 10
37.1783
 20
128.927
 30
0.000000
  70
    32
  0
VERTEX
  8
0
  5
18F33
 10
37.2246
 20
128.937
 30
0.000000
  70
    32
  0
VERTEX
  8
0
  5
18F34
 10
37.2707
 20
128.946
 30
0.000000
  70
    32
  0
VERTEX
  8
0
  5
18F35
 10
37.3166
 20
128.956
 30
0.000000
  70
    32
  0
VERTEX
  8
0
  5
18F36
 10
37.3623
 20
128.967
 30
0.000000
  70
    32
  0
VERTEX
  8
0
  5
18F37
 10
37.4078
 20
128.977
 30
0.000000
  70
    32
  0
VERTEX
  8
0
  5
18F38
 10
37.4530
 20
128.988
 30
0.000000
  70
    32
  0
VERTEX
  8
0
  5
18F39
 10
37.4980
 20
129.000
 30
0.000000
  70
    32
  0
VERTEX
  8
0
  5
18F3A
 10
37.5428
 20
129.011
 30
0.000000
  70
    32
  0
VERTEX
  8
0
  5
18F3B
 10
37.5873
 20
129.023
 30
0.000000
  70
    32
  0
VERTEX
  8
0
  5
18F3C
 10
37.6315
 20
129.036
 30
0.000000
  70
    32
  0
VERTEX
  8
0
  5
18F3D
 10
37.6755
 20
129.048
 30
0.000000
  70
    32
  0
VERTEX
  8
0
  5
18F3E
 10
37.7192
 20
129.061
 30
0.000000
  70
    32
  0
VERTEX
  8
0
  5
18F3F
 10
37.7627
 20
129.074
 30
0.000000
  70
    32
  0
VERTEX
  8
0
  5
18F40
 10
37.8058
 20
129.088
 30
0.000000
  70
    32
  0
VERTEX
  8
0
  5
18F41
 10
37.8487
 20
129.102
 30
0.000000
  70
    32
  0
VERTEX
  8
0
  5
18F42
 10
37.8912
 20
129.116
 30
0.000000
  70
    32
  0
VERTEX
  8
0
  5
18F43
 10
37.9335
 20
129.130
 30
0.000000
  70
    32
  0
VERTEX
  8
0
  5
18F44
 10
37.9754
 20
129.145
 30
0.000000
  70
    32
  0
VERTEX
  8
0
  5
18F45
 10
38.0171
 20
129.160
 30
0.000000
  70
    32
  0
VERTEX
  8
0
  5
18F46
 10
38.0584
 20
129.175
 30
0.000000
  70
    32
  0
VERTEX
  8
0
  5
18F47
 10
38.0993
 20
129.191
 30
0.000000
  70
    32
  0
VERTEX
  8
0
  5
18F48
 10
38.1400
 20
129.207
 30
0.000000
  70
    32
  0
VERTEX
  8
0
  5
18F49
 10
38.1803
 20
129.223
 30
0.000000
  70
    32
  0
VERTEX
  8
0
  5
18F4A
 10
38.2203
 20
129.239
 30
0.000000
  70
    32
  0
VERTEX
  8
0
  5
18F4B
 10
38.2599
 20
129.256
 30
0.000000
  70
    32
  0
VERTEX
  8
0
  5
18F4C
 10
38.2991
 20
129.273
 30
0.000000
  70
    32
  0
VERTEX
  8
0
  5
18F4D
 10
38.3380
 20
129.290
 30
0.000000
  70
    32
  0
VERTEX
  8
0
  5
18F4E
 10
38.3765
 20
129.308
 30
0.000000
  70
    32
  0
VERTEX
  8
0
  5
18F4F
 10
38.4146
 20
129.326
 30
0.000000
  70
    32
  0
VERTEX
  8
0
  5
18F50
 10
38.4524
 20
129.344
 30
0.000000
  70
    32
  0
VERTEX
  8
0
  5
18F51
 10
38.4898
 20
129.362
 30
0.000000
  70
    32
  0
VERTEX
  8
0
  5
18F52
 10
38.5267
 20
129.381
 30
0.000000
  70
    32
  0
VERTEX
  8
0
  5
18F53
 10
38.5633
 20
129.400
 30
0.000000
  70
    32
  0
VERTEX
  8
0
  5
18F54
 10
38.5995
 20
129.419
 30
0.000000
  70
    32
  0
VERTEX
  8
0
  5
18F55
 10
38.6352
 20
129.438
 30
0.000000
  70
    32
  0
VERTEX
  8
0
  5
18F56
 10
38.6706
 20
129.458
 30
0.000000
  70
    32
  0
VERTEX
  8
0
  5
18F57
 10
38.7055
 20
129.478
 30
0.000000
  70
    32
  0
VERTEX
  8
0
  5
18F58
 10
38.7400
 20
129.498
 30
0.000000
  70
    32
  0
VERTEX
  8
0
  5
18F59
 10
38.7741
 20
129.519
 30
0.000000
  70
    32
  0
VERTEX
  8
0
  5
18F5A
 10
38.8077
 20
129.539
 30
0.000000
  70
    32
  0
VERTEX
  8
0
  5
18F5B
 10
38.8409
 20
129.560
 30
0.000000
  70
    32
  0
VERTEX
  8
0
  5
18F5C
 10
38.8736
 20
129.581
 30
0.000000
  70
    32
  0
VERTEX
  8
0
  5
18F5D
 10
38.9059
 20
129.603
 30
0.000000
  70
    32
  0
VERTEX
  8
0
  5
18F5E
 10
38.9377
 20
129.624
 30
0.000000
  70
    32
  0
VERTEX
  8
0
  5
18F5F
 10
38.9691
 20
129.646
 30
0.000000
  70
    32
  0
VERTEX
  8
0
  5
18F60
 10
39.0000
 20
129.668
 30
0.000000
  70
    32
  0
VERTEX
  8
0
  5
18F61
 10
39.0305
 20
129.690
 30
0.000000
  70
    32
  0
VERTEX
  8
0
  5
18F62
 10
39.0604
 20
129.713
 30
0.000000
  70
    32
  0
VERTEX
  8
0
  5
18F63
 10
39.0899
 20
129.735
 30
0.000000
  70
    32
  0
VERTEX
  8
0
  5
18F64
 10
39.1189
 20
129.758
 30
0.000000
  70
    32
  0
VERTEX
  8
0
  5
18F65
 10
39.1474
 20
129.781
 30
0.000000
  70
    32
  0
VERTEX
  8
0
  5
18F66
 10
39.1754
 20
129.805
 30
0.000000
  70
    32
  0
VERTEX
  8
0
  5
18F67
 10
39.2029
 20
129.828
 30
0.000000
  70
    32
  0
VERTEX
  8
0
  5
18F68
 10
39.2300
 20
129.852
 30
0.000000
  70
    32
  0
VERTEX
  8
0
  5
18F69
 10
39.2565
 20
129.876
 30
0.000000
  70
    32
  0
VERTEX
  8
0
  5
18F6A
 10
39.2825
 20
129.900
 30
0.000000
  70
    32
  0
VERTEX
  8
0
  5
18F6B
 10
39.3080
 20
129.924
 30
0.000000
  70
    32
  0
VERTEX
  8
0
  5
18F6C
 10
39.3330
 20
129.948
 30
0.000000
  70
    32
  0
VERTEX
  8
0
  5
18F6D
 10
39.3574
 20
129.973
 30
0.000000
  70
    32
  0
VERTEX
  8
0
  5
18F6E
 10
39.3813
 20
129.997
 30
0.000000
  70
    32
  0
VERTEX
  8
0
  5
18F6F
 10
39.4048
 20
130.022
 30
0.000000
  70
    32
  0
VERTEX
  8
0
  5
18F70
 10
39.4276
 20
130.047
 30
0.000000
  70
    32
  0
VERTEX
  8
0
  5
18F71
 10
39.4500
 20
130.073
 30
0.000000
  70
    32
  0
VERTEX
  8
0
  5
18F72
 10
39.4718
 20
130.098
 30
0.000000
  70
    32
  0
VERTEX
  8
0
  5
18F73
 10
39.4930
 20
130.124
 30
0.000000
  70
    32
  0
VERTEX
  8
0
  5
18F74
 10
39.5137
 20
130.149
 30
0.000000
  70
    32
  0
VERTEX
  8
0
  5
18F75
 10
39.5339
 20
130.175
 30
0.000000
  70
    32
  0
VERTEX
  8
0
  5
18F76
 10
39.5535
 20
130.201
 30
0.000000
  70
    32
  0
VERTEX
  8
0
  5
18F77
 10
39.5726
 20
130.227
 30
0.000000
  70
    32
  0
VERTEX
  8
0
  5
18F78
 10
39.5911
 20
130.254
 30
0.000000
  70
    32
  0
VERTEX
  8
0
  5
18F79
 10
39.6090
 20
130.280
 30
0.000000
  70
    32
  0
VERTEX
  8
0
  5
18F7A
 10
39.6264
 20
130.306
 30
0.000000
  70
    32
  0
VERTEX
  8
0
  5
18F7B
 10
39.6432
 20
130.333
 30
0.000000
  70
    32
  0
VERTEX
  8
0
  5
18F7C
 10
39.6595
 20
130.360
 30
0.000000
  70
    32
  0
VERTEX
  8
0
  5
18F7D
 10
39.6752
 20
130.387
 30
0.000000
  70
    32
  0
VERTEX
  8
0
  5
18F7E
 10
39.6903
 20
130.414
 30
0.000000
  70
    32
  0
VERTEX
  8
0
  5
18F7F
 10
39.7048
 20
130.441
 30
0.000000
  70
    32
  0
VERTEX
  8
0
  5
18F80
 10
39.7188
 20
130.468
 30
0.000000
  70
    32
  0
VERTEX
  8
0
  5
18F81
 10
39.7322
 20
130.495
 30
0.000000
  70
    32
  0
VERTEX
  8
0
  5
18F82
 10
39.7450
 20
130.522
 30
0.000000
  70
    32
  0
VERTEX
  8
0
  5
18F83
 10
39.7572
 20
130.550
 30
0.000000
  70
    32
  0
VERTEX
  8
0
  5
18F84
 10
39.7688
 20
130.577
 30
0.000000
  70
    32
  0
VERTEX
  8
0
  5
18F85
 10
39.7799
 20
130.605
 30
0.000000
  70
    32
  0
VERTEX
  8
0
  5
18F86
 10
39.7903
 20
130.633
 30
0.000000
  70
    32
  0
VERTEX
  8
0
  5
18F87
 10
39.8002
 20
130.661
 30
0.000000
  70
    32
  0
VERTEX
  8
0
  5
18F88
 10
39.8095
 20
130.688
 30
0.000000
  70
    32
  0
VERTEX
  8
0
  5
18F89
 10
39.8182
 20
130.716
 30
0.000000
  70
    32
  0
VERTEX
  8
0
  5
18F8A
 10
39.8263
 20
130.744
 30
0.000000
  70
    32
  0
VERTEX
  8
0
  5
18F8B
 10
39.8338
 20
130.772
 30
0.000000
  70
    32
  0
VERTEX
  8
0
  5
18F8C
 10
39.8407
 20
130.800
 30
0.000000
  70
    32
  0
VERTEX
  8
0
  5
18F8D
 10
39.8470
 20
130.828
 30
0.000000
  70
    32
  0
VERTEX
  8
0
  5
18F8E
 10
39.8527
 20
130.857
 30
0.000000
  70
    32
  0
VERTEX
  8
0
  5
18F8F
 10
39.8578
 20
130.885
 30
0.000000
  70
    32
  0
VERTEX
  8
0
  5
18F90
 10
39.8623
 20
130.913
 30
0.000000
  70
    32
  0
VERTEX
  8
0
  5
18F91
 10
39.8662
 20
130.941
 30
0.000000
  70
    32
  0
VERTEX
  8
0
  5
18F92
 10
39.8695
 20
130.969
 30
0.000000
  70
    32
  0
VERTEX
  8
0
  5
18F93
 10
39.8722
 20
130.998
 30
0.000000
  70
    32
  0
VERTEX
  8
0
  5
18F94
 10
39.8744
 20
131.026
 30
0.000000
  70
    32
  0
VERTEX
  8
0
  5
18F95
 10
39.8759
 20
131.054
 30
0.000000
  70
    32
  0
VERTEX
  8
0
  5
18F96
 10
39.8768
 20
131.083
 30
0.000000
  70
    32
  0
VERTEX
  8
0
  5
18F97
 10
39.8771
 20
131.111
 30
0.000000
  70
    32
  0
SEQEND
  8
0
  5
18F98
  0
LINE
  5
166BF
  8
0
 10
35.877067523648748
 20
128.8016478379233
 30
0.0
 11
31.87706733365895
 21
128.8016478379233
 31
0.0
  0
POLYLINE
  5
166C0
  8
0
 10
35.577067428653841
 20
131.11104972508519
 30
0.0
 66
     1
 70
     8
  0
VERTEX
  8
0
  5
18F99
 10
35.5771
 20
131.111
 30
0.000000
  70
    32
  0
VERTEX
  8
0
  5
18F9A
 10
35.5750
 20
131.159
 30
0.000000
  70
    32
  0
VERTEX
  8
0
  5
18F9B
 10
35.5689
 20
131.207
 30
0.000000
  70
    32
  0
VERTEX
  8
0
  5
18F9C
 10
35.5587
 20
131.255
 30
0.000000
  70
    32
  0
VERTEX
  8
0
  5
18F9D
 10
35.5444
 20
131.303
 30
0.000000
  70
    32
  0
VERTEX
  8
0
  5
18F9E
 10
35.5261
 20
131.350
 30
0.000000
  70
    32
  0
VERTEX
  8
0
  5
18F9F
 10
35.5039
 20
131.396
 30
0.000000
  70
    32
  0
VERTEX
  8
0
  5
18FA0
 10
35.4777
 20
131.442
 30
0.000000
  70
    32
  0
VERTEX
  8
0
  5
18FA1
 10
35.4477
 20
131.487
 30
0.000000
  70
    32
  0
VERTEX
  8
0
  5
18FA2
 10
35.4138
 20
131.531
 30
0.000000
  70
    32
  0
VERTEX
  8
0
  5
18FA3
 10
35.3763
 20
131.574
 30
0.000000
  70
    32
  0
VERTEX
  8
0
  5
18FA4
 10
35.3352
 20
131.616
 30
0.000000
  70
    32
  0
VERTEX
  8
0
  5
18FA5
 10
35.2906
 20
131.656
 30
0.000000
  70
    32
  0
VERTEX
  8
0
  5
18FA6
 10
35.2425
 20
131.696
 30
0.000000
  70
    32
  0
VERTEX
  8
0
  5
18FA7
 10
35.1912
 20
131.734
 30
0.000000
  70
    32
  0
VERTEX
  8
0
  5
18FA8
 10
35.1367
 20
131.770
 30
0.000000
  70
    32
  0
VERTEX
  8
0
  5
18FA9
 10
35.0791
 20
131.805
 30
0.000000
  70
    32
  0
VERTEX
  8
0
  5
18FAA
 10
35.0187
 20
131.838
 30
0.000000
  70
    32
  0
VERTEX
  8
0
  5
18FAB
 10
34.9555
 20
131.870
 30
0.000000
  70
    32
  0
VERTEX
  8
0
  5
18FAC
 10
34.8898
 20
131.899
 30
0.000000
  70
    32
  0
VERTEX
  8
0
  5
18FAD
 10
34.8215
 20
131.927
 30
0.000000
  70
    32
  0
VERTEX
  8
0
  5
18FAE
 10
34.7510
 20
131.953
 30
0.000000
  70
    32
  0
VERTEX
  8
0
  5
18FAF
 10
34.6784
 20
131.977
 30
0.000000
  70
    32
  0
VERTEX
  8
0
  5
18FB0
 10
34.6039
 20
131.998
 30
0.000000
  70
    32
  0
VERTEX
  8
0
  5
18FB1
 10
34.5276
 20
132.018
 30
0.000000
  70
    32
  0
VERTEX
  8
0
  5
18FB2
 10
34.4498
 20
132.035
 30
0.000000
  70
    32
  0
VERTEX
  8
0
  5
18FB3
 10
34.3706
 20
132.050
 30
0.000000
  70
    32
  0
VERTEX
  8
0
  5
18FB4
 10
34.2901
 20
132.063
 30
0.000000
  70
    32
  0
VERTEX
  8
0
  5
18FB5
 10
34.2087
 20
132.074
 30
0.000000
  70
    32
  0
VERTEX
  8
0
  5
18FB6
 10
34.1265
 20
132.082
 30
0.000000
  70
    32
  0
VERTEX
  8
0
  5
18FB7
 10
34.0437
 20
132.088
 30
0.000000
  70
    32
  0
VERTEX
  8
0
  5
18FB8
 10
33.9605
 20
132.091
 30
0.000000
  70
    32
  0
VERTEX
  8
0
  5
18FB9
 10
33.8771
 20
132.093
 30
0.000000
  70
    32
  0
VERTEX
  8
0
  5
18FBA
 10
33.7937
 20
132.091
 30
0.000000
  70
    32
  0
VERTEX
  8
0
  5
18FBB
 10
33.7104
 20
132.088
 30
0.000000
  70
    32
  0
VERTEX
  8
0
  5
18FBC
 10
33.6276
 20
132.082
 30
0.000000
  70
    32
  0
VERTEX
  8
0
  5
18FBD
 10
33.5454
 20
132.074
 30
0.000000
  70
    32
  0
VERTEX
  8
0
  5
18FBE
 10
33.4640
 20
132.063
 30
0.000000
  70
    32
  0
VERTEX
  8
0
  5
18FBF
 10
33.3836
 20
132.050
 30
0.000000
  70
    32
  0
VERTEX
  8
0
  5
18FC0
 10
33.3044
 20
132.035
 30
0.000000
  70
    32
  0
VERTEX
  8
0
  5
18FC1
 10
33.2265
 20
132.018
 30
0.000000
  70
    32
  0
VERTEX
  8
0
  5
18FC2
 10
33.1502
 20
131.998
 30
0.000000
  70
    32
  0
VERTEX
  8
0
  5
18FC3
 10
33.0757
 20
131.977
 30
0.000000
  70
    32
  0
VERTEX
  8
0
  5
18FC4
 10
33.0031
 20
131.953
 30
0.000000
  70
    32
  0
VERTEX
  8
0
  5
18FC5
 10
32.9326
 20
131.927
 30
0.000000
  70
    32
  0
VERTEX
  8
0
  5
18FC6
 10
32.8644
 20
131.899
 30
0.000000
  70
    32
  0
VERTEX
  8
0
  5
18FC7
 10
32.7986
 20
131.870
 30
0.000000
  70
    32
  0
VERTEX
  8
0
  5
18FC8
 10
32.7354
 20
131.838
 30
0.000000
  70
    32
  0
VERTEX
  8
0
  5
18FC9
 10
32.6750
 20
131.805
 30
0.000000
  70
    32
  0
VERTEX
  8
0
  5
18FCA
 10
32.6175
 20
131.770
 30
0.000000
  70
    32
  0
VERTEX
  8
0
  5
18FCB
 10
32.5629
 20
131.734
 30
0.000000
  70
    32
  0
VERTEX
  8
0
  5
18FCC
 10
32.5116
 20
131.696
 30
0.000000
  70
    32
  0
VERTEX
  8
0
  5
18FCD
 10
32.4636
 20
131.656
 30
0.000000
  70
    32
  0
VERTEX
  8
0
  5
18FCE
 10
32.4189
 20
131.616
 30
0.000000
  70
    32
  0
VERTEX
  8
0
  5
18FCF
 10
32.3778
 20
131.574
 30
0.000000
  70
    32
  0
VERTEX
  8
0
  5
18FD0
 10
32.3403
 20
131.531
 30
0.000000
  70
    32
  0
VERTEX
  8
0
  5
18FD1
 10
32.3065
 20
131.487
 30
0.000000
  70
    32
  0
VERTEX
  8
0
  5
18FD2
 10
32.2764
 20
131.442
 30
0.000000
  70
    32
  0
VERTEX
  8
0
  5
18FD3
 10
32.2503
 20
131.396
 30
0.000000
  70
    32
  0
VERTEX
  8
0
  5
18FD4
 10
32.2280
 20
131.350
 30
0.000000
  70
    32
  0
VERTEX
  8
0
  5
18FD5
 10
32.2097
 20
131.303
 30
0.000000
  70
    32
  0
VERTEX
  8
0
  5
18FD6
 10
32.1955
 20
131.255
 30
0.000000
  70
    32
  0
VERTEX
  8
0
  5
18FD7
 10
32.1853
 20
131.207
 30
0.000000
  70
    32
  0
VERTEX
  8
0
  5
18FD8
 10
32.1791
 20
131.159
 30
0.000000
  70
    32
  0
VERTEX
  8
0
  5
18FD9
 10
32.1771
 20
131.111
 30
0.000000
  70
    32
  0
VERTEX
  8
0
  5
18FDA
 10
32.1791
 20
131.063
 30
0.000000
  70
    32
  0
VERTEX
  8
0
  5
18FDB
 10
32.1853
 20
131.015
 30
0.000000
  70
    32
  0
VERTEX
  8
0
  5
18FDC
 10
32.1955
 20
130.967
 30
0.000000
  70
    32
  0
VERTEX
  8
0
  5
18FDD
 10
32.2097
 20
130.920
 30
0.000000
  70
    32
  0
VERTEX
  8
0
  5
18FDE
 10
32.2280
 20
130.873
 30
0.000000
  70
    32
  0
VERTEX
  8
0
  5
18FDF
 10
32.2503
 20
130.826
 30
0.000000
  70
    32
  0
VERTEX
  8
0
  5
18FE0
 10
32.2764
 20
130.780
 30
0.000000
  70
    32
  0
VERTEX
  8
0
  5
18FE1
 10
32.3065
 20
130.735
 30
0.000000
  70
    32
  0
VERTEX
  8
0
  5
18FE2
 10
32.3403
 20
130.691
 30
0.000000
  70
    32
  0
VERTEX
  8
0
  5
18FE3
 10
32.3778
 20
130.648
 30
0.000000
  70
    32
  0
VERTEX
  8
0
  5
18FE4
 10
32.4189
 20
130.606
 30
0.000000
  70
    32
  0
VERTEX
  8
0
  5
18FE5
 10
32.4636
 20
130.566
 30
0.000000
  70
    32
  0
VERTEX
  8
0
  5
18FE6
 10
32.5116
 20
130.526
 30
0.000000
  70
    32
  0
VERTEX
  8
0
  5
18FE7
 10
32.5629
 20
130.488
 30
0.000000
  70
    32
  0
VERTEX
  8
0
  5
18FE8
 10
32.6175
 20
130.452
 30
0.000000
  70
    32
  0
VERTEX
  8
0
  5
18FE9
 10
32.6750
 20
130.417
 30
0.000000
  70
    32
  0
VERTEX
  8
0
  5
18FEA
 10
32.7354
 20
130.384
 30
0.000000
  70
    32
  0
VERTEX
  8
0
  5
18FEB
 10
32.7986
 20
130.352
 30
0.000000
  70
    32
  0
VERTEX
  8
0
  5
18FEC
 10
32.8644
 20
130.323
 30
0.000000
  70
    32
  0
VERTEX
  8
0
  5
18FED
 10
32.9326
 20
130.295
 30
0.000000
  70
    32
  0
VERTEX
  8
0
  5
18FEE
 10
33.0031
 20
130.269
 30
0.000000
  70
    32
  0
VERTEX
  8
0
  5
18FEF
 10
33.0757
 20
130.245
 30
0.000000
  70
    32
  0
VERTEX
  8
0
  5
18FF0
 10
33.1502
 20
130.224
 30
0.000000
  70
    32
  0
VERTEX
  8
0
  5
18FF1
 10
33.2265
 20
130.204
 30
0.000000
  70
    32
  0
VERTEX
  8
0
  5
18FF2
 10
33.3044
 20
130.187
 30
0.000000
  70
    32
  0
VERTEX
  8
0
  5
18FF3
 10
33.3836
 20
130.172
 30
0.000000
  70
    32
  0
VERTEX
  8
0
  5
18FF4
 10
33.4640
 20
130.159
 30
0.000000
  70
    32
  0
VERTEX
  8
0
  5
18FF5
 10
33.5454
 20
130.148
 30
0.000000
  70
    32
  0
VERTEX
  8
0
  5
18FF6
 10
33.6276
 20
130.140
 30
0.000000
  70
    32
  0
VERTEX
  8
0
  5
18FF7
 10
33.7104
 20
130.134
 30
0.000000
  70
    32
  0
VERTEX
  8
0
  5
18FF8
 10
33.7937
 20
130.131
 30
0.000000
  70
    32
  0
VERTEX
  8
0
  5
18FF9
 10
33.8771
 20
130.130
 30
0.000000
  70
    32
  0
VERTEX
  8
0
  5
18FFA
 10
33.9605
 20
130.131
 30
0.000000
  70
    32
  0
VERTEX
  8
0
  5
18FFB
 10
34.0437
 20
130.134
 30
0.000000
  70
    32
  0
VERTEX
  8
0
  5
18FFC
 10
34.1265
 20
130.140
 30
0.000000
  70
    32
  0
VERTEX
  8
0
  5
18FFD
 10
34.2087
 20
130.148
 30
0.000000
  70
    32
  0
VERTEX
  8
0
  5
18FFE
 10
34.2901
 20
130.159
 30
0.000000
  70
    32
  0
VERTEX
  8
0
  5
18FFF
 10
34.3706
 20
130.172
 30
0.000000
  70
    32
  0
VERTEX
  8
0
  5
19000
 10
34.4498
 20
130.187
 30
0.000000
  70
    32
  0
VERTEX
  8
0
  5
19001
 10
34.5276
 20
130.204
 30
0.000000
  70
    32
  0
VERTEX
  8
0
  5
19002
 10
34.6039
 20
130.224
 30
0.000000
  70
    32
  0
VERTEX
  8
0
  5
19003
 10
34.6784
 20
130.245
 30
0.000000
  70
    32
  0
VERTEX
  8
0
  5
19004
 10
34.7510
 20
130.269
 30
0.000000
  70
    32
  0
VERTEX
  8
0
  5
19005
 10
34.8215
 20
130.295
 30
0.000000
  70
    32
  0
VERTEX
  8
0
  5
19006
 10
34.8898
 20
130.323
 30
0.000000
  70
    32
  0
VERTEX
  8
0
  5
19007
 10
34.9555
 20
130.352
 30
0.000000
  70
    32
  0
VERTEX
  8
0
  5
19008
 10
35.0187
 20
130.384
 30
0.000000
  70
    32
  0
VERTEX
  8
0
  5
19009
 10
35.0791
 20
130.417
 30
0.000000
  70
    32
  0
VERTEX
  8
0
  5
1900A
 10
35.1367
 20
130.452
 30
0.000000
  70
    32
  0
VERTEX
  8
0
  5
1900B
 10
35.1912
 20
130.488
 30
0.000000
  70
    32
  0
VERTEX
  8
0
  5
1900C
 10
35.2425
 20
130.526
 30
0.000000
  70
    32
  0
VERTEX
  8
0
  5
1900D
 10
35.2906
 20
130.566
 30
0.000000
  70
    32
  0
VERTEX
  8
0
  5
1900E
 10
35.3352
 20
130.606
 30
0.000000
  70
    32
  0
VERTEX
  8
0
  5
1900F
 10
35.3763
 20
130.648
 30
0.000000
  70
    32
  0
VERTEX
  8
0
  5
19010
 10
35.4138
 20
130.691
 30
0.000000
  70
    32
  0
VERTEX
  8
0
  5
19011
 10
35.4477
 20
130.735
 30
0.000000
  70
    32
  0
VERTEX
  8
0
  5
19012
 10
35.4777
 20
130.780
 30
0.000000
  70
    32
  0
VERTEX
  8
0
  5
19013
 10
35.5039
 20
130.826
 30
0.000000
  70
    32
  0
VERTEX
  8
0
  5
19014
 10
35.5261
 20
130.873
 30
0.000000
  70
    32
  0
VERTEX
  8
0
  5
19015
 10
35.5444
 20
130.920
 30
0.000000
  70
    32
  0
VERTEX
  8
0
  5
19016
 10
35.5587
 20
130.967
 30
0.000000
  70
    32
  0
VERTEX
  8
0
  5
19017
 10
35.5689
 20
131.015
 30
0.000000
  70
    32
  0
VERTEX
  8
0
  5
19018
 10
35.5750
 20
131.063
 30
0.000000
  70
    32
  0
VERTEX
  8
0
  5
19019
 10
35.5771
 20
131.111
 30
0.000000
  70
    32
  0
SEQEND
  8
0
  5
1901A
  0
LINE
  5
166CA
  8
0
 10
28.377067458456061
 20
139.36789173977209
 30
0.0
 11
28.377067458456061
 21
138.68352610962231
 31
0.0
  0
LINE
  5
166CD
  8
0
 10
39.377067398851409
 20
138.68352610962231
 30
0.0
 11
39.377067398851409
 21
139.36789173977209
 31
0.0
  0
LINE
  5
166CF
  8
0
 10
27.877067376499671
 20
109.8678920266195
 30
0.0
 11
27.877067376499731
 21
139.36789173977209
 31
0.0
  0
LINE
  5
166D6
  8
0
 10
21.37706724238922
 20
106.367891918586
 30
0.0
 11
21.37706724238922
 21
139.36789173977209
 31
0.0
  0
LINE
  5
166D9
  8
0
 10
39.877067480807803
 20
109.8678920266195
 30
0.0
 11
39.877067480807852
 21
139.36789173977209
 31
0.0
  0
LINE
  5
166DE
  8
0
 10
46.377067614918239
 20
139.36789173977209
 30
0.0
 11
46.377067614918303
 21
106.367891918586
 31
0.0
  0
LINE
  5
16707
  8
0
 10
21.37706724238922
 20
106.86789194233479
 30
0.0
 11
46.377067614918133
 21
106.86789194233479
 31
0.0
  0
LINE
  5
1670A
  8
0
 10
27.877067376499731
 20
135.5855150927766
 30
0.0
 11
39.877067480807852
 21
135.5855150927766
 31
0.0
  0
LINE
  5
16ECB
  8
0
 10
125.87706686240951
 20
18.367891277836051
 30
0.0
 11
125.87706686240951
 21
50.367892797754557
 31
0.0
  0
LINE
  5
16EDF
  8
0
 10
113.87706675810129
 20
40.367892089949343
 30
0.0
 11
113.87706675810129
 21
28.367891985641219
 31
0.0
  0
ARC
  5
16EE0
  8
0
 10
109.87706686240951
 20
32.367892037795293
 30
0.0
 40
4.0000000000000142
 50
180.0
 51
270.0
  0
LINE
  5
16EE1
  8
0
 10
105.8770673094443
 20
36.367892132790189
 30
0.0
 11
105.8770673094443
 21
32.367891942800391
 31
0.0
  0
ARC
  5
16EE2
  8
0
 10
109.87706686240951
 20
36.367892037795293
 30
0.0
 40
4.0
 50
90.0
 51
180.0
  0
LINE
  5
16EE4
  8
0
 10
109.8770661024502
 20
40.367892089949343
 30
0.0
 11
125.87706686240951
 21
40.367892089949343
 31
0.0
  0
LINE
  5
16EE5
  8
0
 10
109.8770661024502
 20
28.367891985641219
 30
0.0
 11
125.87706686240951
 21
28.367891985641219
 31
0.0
  0
ARC
  5
16F42
  8
0
 10
155.8770659385375
 20
34.367892037795357
 30
0.0
 40
12.5
 50
270.0
 51
90.0
  0
LINE
  5
16F46
  8
0
 10
215.87707043868821
 20
21.867891851530828
 30
0.0
 11
173.37706626636319
 21
21.867891851530828
 31
0.0
  0
LINE
  5
16F49
  8
0
 10
215.87707043868821
 20
46.867892224059858
 30
0.0
 11
215.87707043868821
 21
21.867891851530828
 31
0.0
  0
LINE
  5
16F4E
  8
0
 10
173.3770662663631
 20
46.867892224059858
 30
0.0
 11
215.87707043868821
 21
46.867892224059858
 31
0.0
  0
LINE
  5
17149
  8
0
 10
300.3770705057434
 20
142.3678903688652
 30
0.0
 11
300.3770705057434
 21
139.36789173977201
 31
0.0
  0
LINE
  5
1714E
  8
0
 10
275.37707013321437
 20
139.36789173977201
 30
0.0
 11
275.37707013321437
 21
142.3678903688652
 31
0.0
  0
LINE
  5
17150
  8
0
 10
300.3770705057434
 20
139.36789173977201
 30
0.0
 11
275.37707013321437
 21
139.36789173977201
 31
0.0
  0
LINE
  5
17154
  8
0
 10
275.37707013321437
 20
142.3678903688652
 30
0.0
 11
300.3770705057434
 21
142.3678903688652
 31
0.0
  0
LINE
  5
1716B
  8
0
 10
289.75040740111223
 20
115.58625407861309
 30
0.0
 11
290.27345108111689
 21
113.6927919310494
 31
0.0
  0
ARC
  5
1716C
  8
0
 10
291.4372323700544
 20
116.0522172773746
 30
0.0
 40
1.749999999999996
 50
47.637468180937908
 51
195.44210526315939
  0
ARC
  5
1716D
  8
0
 10
293.5008040854741
 20
118.315086700324
 30
0.0
 40
1.3125000000000271
 50
227.6374681809379
 51
330.00146404087172
  0
ARC
  5
1716E
  8
0
 10
287.87707031947872
 20
121.5617593074371
 30
0.0
 40
7.8061326111489366
 50
330.00146404087172
 51
209.99853595912819
  0
ARC
  5
1716F
  8
0
 10
282.25333655348311
 20
118.315086700324
 30
0.0
 40
1.312500000000012
 50
209.99853595912819
 51
312.3625318190621
  0
ARC
  5
17170
  8
0
 10
284.31690826890292
 20
116.0522172773746
 30
0.0
 40
1.7500000000000151
 50
344.55789473684462
 51
132.3625318190621
  0
LINE
  5
17171
  8
0
 10
285.48068955784038
 20
113.6927919310494
 30
0.0
 11
286.00373323784521
 21
115.58625407861309
 31
0.0
  0
CIRCLE
  5
17172
  8
0
 10
291.4372323700544
 20
116.0522172773746
 30
0.0
 40
0.8499999999999658
  0
CIRCLE
  5
17173
  8
0
 10
284.31690826890292
 20
116.0522172773746
 30
0.0
 40
0.8500000000000227
  0
ARC
  5
17174
  8
0
 10
287.87707031947872
 20
122.367891918586
 30
0.0
 40
8.6999999999999975
 50
254.55789473684459
 51
285.44210526315942
  0
LINE
  5
17178
  8
0
 10
300.37707050574318
 20
134.36789278285329
 30
0.0
 11
275.37707013321409
 21
134.36789278285329
 31
0.0
  0
CIRCLE
  5
17184
  8
0
 10
287.87707031947872
 20
122.367891918586
 30
0.0
 40
9.4999999999999716
  0
LINE
  5
17185
  8
0
 10
300.37707050574318
 20
139.36789173977201
 30
0.0
 11
300.37707050574318
 21
106.3678919185859
 31
0.0
  0
CIRCLE
  5
17187
  8
0
 10
287.87707031947872
 20
122.367891918586
 30
0.0
 40
9.0000000000000284
  0
LINE
  5
1718C
  8
0
 10
275.37707013321409
 20
106.367891918586
 30
0.0
 11
275.3770701332142
 21
139.36789173977201
 31
0.0
  0
LINE
  5
17193
  8
0
 10
309.8770702002696
 20
114.36789229856559
 30
0.0
 11
309.8770702002696
 21
106.3678919185859
 31
0.0
  0
LINE
  5
17195
  8
0
 10
300.37707050574318
 20
114.36789229856559
 30
0.0
 11
309.8770702002696
 21
114.36789229856559
 31
0.0
  0
LINE
  5
1719F
  8
0
 10
309.8770702002696
 20
106.3678919185859
 30
0.0
 11
265.87707043868818
 21
106.367891918586
 31
0.0
  0
LINE
  5
171A0
  8
0
 10
265.87707043868818
 20
106.367891918586
 30
0.0
 11
265.87707043868818
 21
114.36789229856559
 31
0.0
  0
LINE
  5
171A1
  8
0
 10
265.87707043868818
 20
114.36789229856559
 30
0.0
 11
275.37707013321409
 21
114.36789229856559
 31
0.0
  0
CIRCLE
  5
17449
  8
0
 10
155.87706686240961
 20
205.867890249656
 30
0.0
 40
3.200000000000045
  0
CIRCLE
  5
1744A
  8
0
 10
155.87706686240961
 20
222.867890249656
 30
0.0
 40
3.200000000000045
  0
LINE
  5
17489
  8
0
 10
27.877067376499671
 20
138.68352610962231
 30
0.0
 11
39.877067480807803
 21
138.68352610962231
 31
0.0
  0
CIRCLE
  5
1869D
  8
3
 10
205.87706686240949
 20
34.36789203779535
 30
0.0
 40
1.5
  0
TEXT
  5
18718
  8
0
 62
     3
 10
0.0
 20
0.0
 30
0.0
 40
10.0
  1
AMWD16-WS
  7
STANDARD1
  0
LINE
  5
188AF
  8
1
 10
164.6283435390643
 20
231.8687688992747
 30
0.0
 11
139.1270679127779
 21
231.8687688992747
 31
0.0
  0
LINE
  5
188B0
  8
1
 10
160.37707509240019
 20
236.1187688992633
 30
0.0
 11
160.37707509240019
 21
227.6187690706266
 31
0.0
  0
LINE
  5
188B1
  8
1
 10
155.37707509240039
 20
236.1187689799049
 30
0.0
 11
155.37707509240039
 21
227.61876916134841
 31
0.0
  0
LINE
  5
188B2
  8
1
 10
148.3770679329437
 20
236.11832982778901
 30
0.0
 11
148.3770679329437
 21
227.6183298277812
 31
0.0
  0
LINE
  5
188B3
  8
1
 10
143.3779460330652
 20
236.11832973706331
 30
0.0
 11
143.3779460330652
 21
227.61832982778509
 31
0.0
  0
LINE
  5
188B4
  8
1
 10
157.87795323536281
 20
236.1187688992633
 30
0.0
 11
157.87795323536281
 21
227.6187690706266
 31
0.0
  0
LINE
  5
188B5
  8
1
 10
145.87794607590641
 20
236.11832982778901
 30
0.0
 11
145.87794607590641
 21
227.6183298277812
 31
0.0
  0
POLYLINE
  5
188B7
  8
0
 66
     1
 10
0.0
 20
0.0
 30
0.0
 70
     1
  0
VERTEX
  5
18E6D
  8
0
 10
148.37845780254941
 20
229.61832922807071
 30
0.0
  0
VERTEX
  5
18E6E
  8
0
 10
143.37794603306691
 20
229.6183291698689
 30
0.0
 42
-1.000308917070724
  0
VERTEX
  5
18E6F
  8
0
 10
143.37933594547701
 20
234.1183299656781
 30
0.0
  0
VERTEX
  5
18E70
  8
0
 10
148.3775796596247
 20
234.1183299656781
 30
0.0
 42
-1.002224394395316
  0
SEQEND
  5
18E71
  8
0
  0
LINE
  5
188B9
  8
0
 10
125.87706686240961
 20
230.3678904359204
 30
0.0
 11
136.4129654808097
 21
230.3678904359204
 31
0.0
  0
LINE
  5
188BA
  8
0
 10
139.01104160827921
 20
234.86789024220539
 30
0.0
 11
136.4129654808097
 21
230.3678904359204
 31
0.0
  0
LINE
  5
188BB
  8
0
 10
162.63442800623699
 20
236.36788955675189
 30
0.0
 11
141.60911680442621
 21
236.36788955675189
 31
0.0
  0
ARC
  5
188BC
  8
0
 10
141.6091176699785
 20
233.3678896759611
 30
0.0
 40
3.000000000000056
 50
90.0
 51
150.0000000000002
  0
ARC
  5
188BD
  8
0
 10
162.63442617529029
 20
233.3678896759611
 30
0.0
 40
3.000000000000056
 50
45.0
 51
90.0
  0
LINE
  5
188BE
  8
0
 10
173.3770662663631
 20
226.8678898622257
 30
0.0
 11
164.7557461379223
 21
235.48921092198921
 31
0.0
  0
POLYLINE
  5
188C4
  8
0
 66
     1
 10
0.0
 20
0.0
 30
0.0
 70
     1
  0
VERTEX
  5
18E72
  8
0
 10
160.3725148297209
 20
229.61876764055691
 30
0.0
  0
VERTEX
  5
18E73
  8
0
 10
155.3720030602384
 20
229.6187675823551
 30
0.0
 42
-1.000308917070724
  0
VERTEX
  5
18E74
  8
0
 10
155.3733929726485
 20
234.11876837816439
 30
0.0
  0
VERTEX
  5
18E75
  8
0
 10
160.37163668679631
 20
234.11876837816439
 30
0.0
 42
-1.002224394395316
  0
SEQEND
  5
18E76
  8
0
  0
LINE
  5
188E2
  8
1
 10
164.6283435390643
 20
196.8670116000377
 30
0.0
 11
139.1270679127779
 21
196.8670116000377
 31
0.0
  0
LINE
  5
188E3
  8
1
 10
160.37707509240019
 20
192.6170116000491
 30
0.0
 11
160.37707509240019
 21
201.1170114286858
 31
0.0
  0
LINE
  5
188E4
  8
1
 10
155.37707509240039
 20
192.6170115194075
 30
0.0
 11
155.37707509240039
 21
201.11701133796399
 31
0.0
  0
LINE
  5
188E5
  8
1
 10
148.3770679329437
 20
192.61745067152339
 30
0.0
 11
148.3770679329437
 21
201.11745067153129
 31
0.0
  0
LINE
  5
188E6
  8
1
 10
143.3779460330652
 20
192.61745076224921
 30
0.0
 11
143.3779460330652
 21
201.11745067152739
 31
0.0
  0
LINE
  5
188E7
  8
1
 10
157.87795323536281
 20
192.6170116000491
 30
0.0
 11
157.87795323536281
 21
201.1170114286858
 31
0.0
  0
LINE
  5
188E8
  8
1
 10
145.87794607590641
 20
192.61745067152339
 30
0.0
 11
145.87794607590641
 21
201.11745067153129
 31
0.0
  0
POLYLINE
  5
188E9
  8
0
 66
     1
 10
0.0
 20
0.0
 30
0.0
 70
     1
  0
VERTEX
  5
18E77
  8
0
 10
148.37845780254941
 20
199.1174512712418
 30
0.0
  0
VERTEX
  5
18E78
  8
0
 10
143.37794603306691
 20
199.11745132944361
 30
0.0
 42
1.000308917070724
  0
VERTEX
  5
18E79
  8
0
 10
143.37933594547701
 20
194.6174505336343
 30
0.0
  0
VERTEX
  5
18E7A
  8
0
 10
148.3775796596247
 20
194.6174505336343
 30
0.0
 42
1.002224394395316
  0
SEQEND
  5
18E7B
  8
0
  0
LINE
  5
188EA
  8
0
 10
125.87706686240961
 20
198.367890063392
 30
0.0
 11
136.4129654808097
 21
198.367890063392
 31
0.0
  0
LINE
  5
188EB
  8
0
 10
139.01104160827921
 20
193.86789025710709
 30
0.0
 11
136.4129654808097
 21
198.367890063392
 31
0.0
  0
LINE
  5
188EC
  8
0
 10
162.63442800623699
 20
192.36789094256051
 30
0.0
 11
141.60911680442621
 21
192.36789094256051
 31
0.0
  0
ARC
  5
188ED
  8
0
 10
141.6091176699785
 20
195.3678908233513
 30
0.0
 40
3.000000000000056
 50
210.0
 51
270.0
  0
ARC
  5
188EE
  8
0
 10
162.63442617529029
 20
195.3678908233513
 30
0.0
 40
3.000000000000056
 50
270.0
 51
314.99999999999977
  0
LINE
  5
188EF
  8
0
 10
173.3770662663631
 20
201.8678906370867
 30
0.0
 11
164.7557461379223
 21
193.24656957732321
 31
0.0
  0
POLYLINE
  5
188F0
  8
0
 66
     1
 10
0.0
 20
0.0
 30
0.0
 70
     1
  0
VERTEX
  5
18E7C
  8
0
 10
160.3725148297209
 20
199.11701285875549
 30
0.0
  0
VERTEX
  5
18E7D
  8
0
 10
155.3720030602384
 20
199.11701291695729
 30
0.0
 42
1.000308917070724
  0
VERTEX
  5
18E7E
  8
0
 10
155.3733929726485
 20
194.61701212114801
 30
0.0
  0
VERTEX
  5
18E7F
  8
0
 10
160.37163668679631
 20
194.61701212114801
 30
0.0
 42
1.002224394395316
  0
SEQEND
  5
18E80
  8
0
  0
LINE
  5
18903
  8
1
 10
164.6283435390643
 20
51.868771261108797
 30
0.0
 11
139.1270679127779
 21
51.868771261108797
 31
0.0
  0
LINE
  5
18904
  8
1
 10
160.37707509240019
 20
56.118771261097379
 30
0.0
 11
160.37707509240019
 21
47.618771432460733
 31
0.0
  0
LINE
  5
18905
  8
1
 10
155.37707509240039
 20
56.118771341738977
 30
0.0
 11
155.37707509240039
 21
47.618771523182552
 31
0.0
  0
LINE
  5
18906
  8
1
 10
148.3770679329437
 20
56.118332189623118
 30
0.0
 11
148.3770679329437
 21
47.618332189615273
 31
0.0
  0
LINE
  5
18907
  8
1
 10
143.3779460330652
 20
56.118332098897383
 30
0.0
 11
143.3779460330652
 21
47.618332189619188
 31
0.0
  0
LINE
  5
18908
  8
1
 10
157.87795323536281
 20
56.118771261097379
 30
0.0
 11
157.87795323536281
 21
47.618771432460733
 31
0.0
  0
LINE
  5
18909
  8
1
 10
145.87794607590641
 20
56.118332189623118
 30
0.0
 11
145.87794607590641
 21
47.618332189615273
 31
0.0
  0
POLYLINE
  5
1890A
  8
0
 66
     1
 10
0.0
 20
0.0
 30
0.0
 70
     1
  0
VERTEX
  5
18E81
  8
0
 10
148.37845780254941
 20
49.618331589904777
 30
0.0
  0
VERTEX
  5
18E82
  8
0
 10
143.37794603306691
 20
49.618331531702978
 30
0.0
 42
-1.000308917070724
  0
VERTEX
  5
18E83
  8
0
 10
143.37933594547701
 20
54.118332327512199
 30
0.0
  0
VERTEX
  5
18E84
  8
0
 10
148.3775796596247
 20
54.118332327512199
 30
0.0
 42
-1.002224394395316
  0
SEQEND
  5
18E85
  8
0
  0
LINE
  5
1890B
  8
0
 10
125.87706686240961
 20
50.367892797754557
 30
0.0
 11
136.4129654808097
 21
50.367892797754557
 31
0.0
  0
LINE
  5
1890C
  8
0
 10
139.01104160827921
 20
54.867892604039469
 30
0.0
 11
136.4129654808097
 21
50.367892797754557
 31
0.0
  0
LINE
  5
1890D
  8
0
 10
162.63442800623699
 20
56.367891918586047
 30
0.0
 11
141.60911680442621
 21
56.367891918586047
 31
0.0
  0
ARC
  5
1890E
  8
0
 10
141.6091176699785
 20
53.367892037795229
 30
0.0
 40
3.000000000000056
 50
90.0
 51
150.0
  0
ARC
  5
1890F
  8
0
 10
162.63442617529029
 20
53.367892037795229
 30
0.0
 40
3.000000000000056
 50
45.000000000000227
 51
90.0
  0
LINE
  5
18910
  8
0
 10
173.3770662663631
 20
46.867892224059858
 30
0.0
 11
164.7557461379223
 21
55.48921328382329
 31
0.0
  0
POLYLINE
  5
18911
  8
0
 66
     1
 10
0.0
 20
0.0
 30
0.0
 70
     1
  0
VERTEX
  5
18E86
  8
0
 10
160.3725148297209
 20
49.618770002391066
 30
0.0
  0
VERTEX
  5
18E87
  8
0
 10
155.3720030602384
 20
49.61876994418926
 30
0.0
 42
-1.000308917070724
  0
VERTEX
  5
18E88
  8
0
 10
155.3733929726485
 20
54.118770739998503
 30
0.0
  0
VERTEX
  5
18E89
  8
0
 10
160.37163668679631
 20
54.118770739998503
 30
0.0
 42
-1.002224394395316
  0
SEQEND
  5
18E8A
  8
0
  0
LINE
  5
1891B
  8
1
 10
164.6283435390643
 20
16.867012814481839
 30
0.0
 11
139.1270679127779
 21
16.867012814481821
 31
0.0
  0
LINE
  5
1891C
  8
1
 10
160.37707509240019
 20
12.617012814493259
 30
0.0
 11
160.37707509240019
 21
21.117012643129911
 31
0.0
  0
LINE
  5
1891D
  8
1
 10
155.37707509240039
 20
12.617012733851659
 30
0.0
 11
155.37707509240039
 21
21.117012552408092
 31
0.0
  0
LINE
  5
1891E
  8
1
 10
148.3770679329437
 20
12.61745188596751
 30
0.0
 11
148.3770679329437
 21
21.11745188597536
 31
0.0
  0
LINE
  5
1891F
  8
1
 10
143.37794603306531
 20
12.617451976693239
 30
0.0
 11
143.37794603306531
 21
21.11745188597143
 31
0.0
  0
LINE
  5
18920
  8
1
 10
157.87795323536281
 20
12.617012814493259
 30
0.0
 11
157.87795323536281
 21
21.117012643129911
 31
0.0
  0
LINE
  5
18921
  8
1
 10
145.87794607590641
 20
12.617451885967499
 30
0.0
 11
145.87794607590641
 21
21.117451885975349
 31
0.0
  0
POLYLINE
  5
18922
  8
0
 66
     1
 10
0.0
 20
0.0
 30
0.0
 70
     1
  0
VERTEX
  5
18E8B
  8
0
 10
148.37845780254941
 20
19.117452485685838
 30
0.0
  0
VERTEX
  5
18E8C
  8
0
 10
143.37794603306691
 20
19.117452543887641
 30
0.0
 42
1.000308917070724
  0
VERTEX
  5
18E8D
  8
0
 10
143.37933594547701
 20
14.617451748078411
 30
0.0
  0
VERTEX
  5
18E8E
  8
0
 10
148.37757965962479
 20
14.61745174807842
 30
0.0
 42
1.002224394395316
  0
SEQEND
  5
18E8F
  8
0
  0
LINE
  5
18923
  8
0
 10
125.87706686240961
 20
18.367891277836041
 30
0.0
 11
136.4129654808097
 21
18.367891277836051
 31
0.0
  0
LINE
  5
18924
  8
0
 10
139.0110416082793
 20
13.86789147155115
 30
0.0
 11
136.4129654808097
 21
18.367891277836051
 31
0.0
  0
LINE
  5
18925
  8
0
 10
162.6344280062371
 20
12.36789215700459
 30
0.0
 11
141.60911680442621
 21
12.367892157004571
 31
0.0
  0
ARC
  5
18926
  8
0
 10
141.6091176699785
 20
15.367892037795389
 30
0.0
 40
3.000000000000056
 50
210.0
 51
270.00000000000011
  0
ARC
  5
18927
  8
0
 10
162.63442617529029
 20
15.367892037795411
 30
0.0
 40
3.000000000000056
 50
270.00000000000011
 51
314.99999999999972
  0
LINE
  5
18928
  8
0
 10
173.37706626636319
 20
21.867891851530789
 30
0.0
 11
164.7557461379223
 21
13.246570791767351
 31
0.0
  0
POLYLINE
  5
18929
  8
0
 66
     1
 10
0.0
 20
0.0
 30
0.0
 70
     1
  0
VERTEX
  5
18E90
  8
0
 10
160.3725148297209
 20
19.117014073199559
 30
0.0
  0
VERTEX
  5
18E91
  8
0
 10
155.3720030602384
 20
19.117014131401369
 30
0.0
 42
1.000308917070724
  0
VERTEX
  5
18E92
  8
0
 10
155.3733929726485
 20
14.617013335592141
 30
0.0
  0
VERTEX
  5
18E93
  8
0
 10
160.37163668679631
 20
14.617013335592141
 30
0.0
 42
1.002224394395316
  0
SEQEND
  5
18E94
  8
0
  0
LINE
  5
18983
  8
0
 10
50.477067527001481
 20
110.8678917248709
 30
0.0
 11
51.07706743908463
 21
110.8678917248709
 31
0.0
  0
LINE
  5
18984
  8
0
 10
51.07706743908463
 20
117.8678919409377
 30
0.0
 11
50.477067527001481
 21
117.8678919409377
 31
0.0
  0
LINE
  5
1898B
  8
0
 10
51.07706743908463
 20
112.3678919707401
 30
0.0
 11
52.37706709337769
 21
112.3678919707401
 31
0.0
  0
LINE
  5
1898C
  8
0
 10
52.37706709337769
 20
116.36789169506859
 30
0.0
 11
51.07706743908463
 21
116.36789169506859
 31
0.0
  0
LINE
  5
1898D
  8
0
 10
21.377067242389341
 20
109.8678920266194
 30
0.0
 11
46.37706761491836
 21
109.8678920266194
 31
0.0
  0
LINE
  5
1898F
  8
0
 10
51.07706743908463
 20
110.8678917248709
 30
0.0
 11
51.07706743908463
 21
117.8678919409377
 31
0.0
  0
LINE
  5
18990
  8
0
 10
50.477067527001481
 20
117.8678919409377
 30
0.0
 11
50.477067527001481
 21
110.8678917248709
 31
0.0
  0
LINE
  5
18994
  8
0
 10
52.37706709337769
 20
116.36789169506859
 30
0.0
 11
52.37706709337769
 21
112.3678919707401
 31
0.0
  0
LINE
  5
18995
  8
0
 10
55.877067309444449
 20
106.367891918586
 30
0.0
 11
11.87706754786301
 21
106.367891918586
 31
0.0
  0
LINE
  5
18996
  8
0
 10
55.877067309444442
 20
114.36789229856559
 30
0.0
 11
55.877067309444449
 21
106.367891918586
 31
0.0
  0
LINE
  5
189A1
  8
0
 10
17.87706724238933
 20
119.367891918586
 30
0.0
 11
21.377067242389209
 21
119.367891918586
 31
0.0
  0
LINE
  5
189A3
  8
0
 10
55.877067309444442
 20
114.36789229856559
 30
0.0
 11
52.377067093377697
 21
114.3678914836584
 31
0.0
  0
LINE
  5
189AC
  8
0
 10
49.877067614918303
 20
112.3678919707383
 30
0.0
 11
50.477067527001452
 21
112.3678919707383
 31
0.0
  0
LINE
  5
189AD
  8
0
 10
50.477067527001452
 20
116.3678916950669
 30
0.0
 11
49.87706761491836
 21
116.3678916950669
 31
0.0
  0
LINE
  5
189B3
  8
0
 10
46.377067614918282
 20
119.367891918586
 30
0.0
 11
49.87706761491836
 21
119.367891918586
 31
0.0
  0
LINE
  5
189B4
  8
0
 10
17.277067330306149
 20
110.8678917248709
 30
0.0
 11
16.677067418223
 21
110.8678917248709
 31
0.0
  0
LINE
  5
189B5
  8
0
 10
16.677067418223
 20
117.8678919409377
 30
0.0
 11
17.277067330306149
 21
117.8678919409377
 31
0.0
  0
LINE
  5
189B6
  8
0
 10
16.677067418223
 20
112.3678919707401
 30
0.0
 11
15.37706776392994
 21
112.3678919707401
 31
0.0
  0
LINE
  5
189B7
  8
0
 10
15.37706776392994
 20
116.36789169506859
 30
0.0
 11
16.677067418223
 21
116.36789169506859
 31
0.0
  0
LINE
  5
189B8
  8
0
 10
16.677067418223
 20
110.8678917248709
 30
0.0
 11
16.677067418223
 21
117.8678919409377
 31
0.0
  0
LINE
  5
189B9
  8
0
 10
17.277067330306149
 20
117.8678919409377
 30
0.0
 11
17.277067330306149
 21
110.8678917248709
 31
0.0
  0
LINE
  5
189BA
  8
0
 10
15.37706776392994
 20
116.36789169506859
 30
0.0
 11
15.37706776392994
 21
112.3678919707401
 31
0.0
  0
LINE
  5
189BB
  8
0
 10
11.877067547863019
 20
114.36789229856559
 30
0.0
 11
11.87706754786301
 21
106.367891918586
 31
0.0
  0
LINE
  5
189BC
  8
0
 10
11.877067547863019
 20
114.36789229856559
 30
0.0
 11
15.37706776392994
 21
114.3678914836584
 31
0.0
  0
LINE
  5
189BD
  8
0
 10
17.87706724238933
 20
112.3678919707383
 30
0.0
 11
17.277067330306181
 21
112.3678919707383
 31
0.0
  0
LINE
  5
189BE
  8
0
 10
17.277067330306181
 20
116.3678916950669
 30
0.0
 11
17.87706724238927
 21
116.3678916950669
 31
0.0
  0
LINE
  5
189E9
  8
0
 10
173.37706626636319
 20
114.36789229856571
 30
0.0
 11
173.37706626636319
 21
106.3678919185861
 31
0.0
  0
LINE
  5
189EA
  8
0
 10
129.87706705239941
 20
119.367892186807
 30
0.0
 11
125.87706686240961
 21
119.367892186807
 31
0.0
  0
ARC
  5
189EB
  8
0
 10
129.87706686240961
 20
114.3678919185861
 30
0.0
 40
5.0
 50
0.0
 51
90.0
  0
LINE
  5
189EC
  8
0
 10
173.37706626636319
 20
114.36789229856571
 30
0.0
 11
134.87706686240961
 21
114.3678919185861
 31
0.0
  0
LINE
  5
18A24
  8
0
 10
215.87707043868821
 20
125.86789213465291
 30
0.0
 11
180.87706656438621
 21
125.86789213465291
 31
0.0
  0
ARC
  5
18A25
  8
0
 10
180.87706686240949
 20
122.3678917323215
 30
0.0
 40
3.5
 50
90.0
 51
270.0
  0
LINE
  5
18A26
  8
0
 10
180.87706656438621
 20
118.867891918586
 30
0.0
 11
215.87707043868821
 21
118.867891918586
 31
0.0
  0
CIRCLE
  5
18A38
  8
10_CHOKU02
 10
197.37706686240961
 20
112.367891918586
 30
0.0
 40
1.25
  0
CIRCLE
  5
18A3A
  8
10_CHOKU02
 10
197.37706686240961
 20
112.367891918586
 30
0.0
 40
1.25
  0
CIRCLE
  5
18A3C
  8
10_CHOKU02
 10
197.37706686240961
 20
112.367891918586
 30
0.0
 40
1.25
  0
CIRCLE
  5
18A3D
  8
3
 10
197.37706686240961
 20
112.367891918586
 30
0.0
 40
1.8000000000000109
  0
CIRCLE
  5
18A3E
  8
0
 10
197.37706686240961
 20
112.367891918586
 30
0.0
 40
1.25
  0
LINE
  5
18A4C
  8
0
 10
271.87707031947889
 20
119.367891918586
 30
0.0
 11
275.37707013321409
 21
119.367891918586
 31
0.0
  0
LINE
  5
18A50
  8
0
 10
300.37707050574318
 20
119.367891918586
 30
0.0
 11
303.87707031947889
 21
119.367891918586
 31
0.0
  0
LINE
  5
18A53
  8
0
 10
305.07707014364519
 20
117.8678925444365
 30
0.0
 11
304.47707023156198
 21
117.8678925444365
 31
0.0
  0
LINE
  5
18A55
  8
0
 10
305.07707014364519
 20
114.36789229856559
 30
0.0
 11
305.07707014364519
 21
117.8678925444365
 31
0.0
  0
LINE
  5
18A56
  8
0
 10
304.47707023156198
 20
117.8678925444365
 30
0.0
 11
304.47707023156198
 21
114.36789229856559
 31
0.0
  0
LINE
  5
18A57
  8
0
 10
306.3770697979383
 20
116.3678922985673
 30
0.0
 11
306.3770697979383
 21
114.36789229856559
 31
0.0
  0
LINE
  5
18A59
  8
0
 10
304.47707023156198
 20
116.36789229856559
 30
0.0
 11
303.87707031947889
 21
116.36789229856559
 31
0.0
  0
LINE
  5
18A5A
  8
0
 10
306.3770697979383
 20
116.3678922985673
 30
0.0
 11
305.07707014364519
 21
116.3678922985673
 31
0.0
  0
LINE
  5
18A5B
  8
0
 10
270.67707049531259
 20
117.8678925444365
 30
0.0
 11
271.27707040739568
 21
117.8678925444365
 31
0.0
  0
LINE
  5
18A5C
  8
0
 10
270.67707049531248
 20
114.36789229856559
 30
0.0
 11
270.67707049531259
 21
117.8678925444365
 31
0.0
  0
LINE
  5
18A5D
  8
0
 10
271.27707040739568
 20
117.8678925444365
 30
0.0
 11
271.27707040739568
 21
114.36789229856559
 31
0.0
  0
LINE
  5
18A5E
  8
0
 10
269.37707084101947
 20
116.3678922985673
 30
0.0
 11
269.37707084101947
 21
114.36789229856559
 31
0.0
  0
LINE
  5
18A5F
  8
0
 10
271.2770704073958
 20
116.36789229856559
 30
0.0
 11
271.87707031947889
 21
116.36789229856559
 31
0.0
  0
LINE
  5
18A60
  8
0
 10
269.37707084101947
 20
116.3678922985673
 30
0.0
 11
270.67707049531259
 21
116.3678922985673
 31
0.0
  0
LINE
  5
18A8E
  8
0
 10
275.37707013321409
 20
118.867891918586
 30
0.0
 11
276.37707013321409
 21
118.867891918586
 31
0.0
  0
LINE
  5
18A8F
  8
0
 10
275.3770701332142
 20
125.86789213465291
 30
0.0
 11
276.37707013321409
 21
125.86789213465291
 31
0.0
  0
LINE
  5
18A90
  8
0
 10
299.37707050574318
 20
125.86789213465291
 30
0.0
 11
299.37707050574318
 21
118.867891918586
 31
0.0
  0
LINE
  5
18A91
  8
0
 10
276.37707013321409
 20
118.867891918586
 30
0.0
 11
276.37707013321409
 21
125.86789213465291
 31
0.0
  0
LINE
  5
18A92
  8
0
 10
299.37707050574318
 20
125.86789213465291
 30
0.0
 11
300.37707050574318
 21
125.86789213465291
 31
0.0
  0
LINE
  5
18A93
  8
0
 10
299.37707050574318
 20
118.867891918586
 30
0.0
 11
300.37707050574318
 21
118.867891918586
 31
0.0
  0
LINE
  5
18B3F
  8
1
 10
178.87706686240949
 20
138.867891918586
 30
0.0
 11
178.87706686240949
 21
129.867891918586
 31
0.0
  0
LINE
  5
18B40
  8
1
 10
183.37706686240949
 20
134.367891918586
 30
0.0
 11
174.37706686240949
 21
134.367891918586
 31
0.0
  0
LINE
  5
18B41
  8
1
 10
197.37706686240961
 20
116.867891918586
 30
0.0
 11
197.37706686240961
 21
107.867891918586
 31
0.0
  0
LINE
  5
18B42
  8
1
 10
201.87706686240961
 20
112.367891918586
 30
0.0
 11
192.87706686240961
 21
112.367891918586
 31
0.0
  0
LINE
  5
18B4A
  8
1
 10
220.87707043868821
 20
122.36789213465291
 30
0.0
 11
173.8814336728623
 21
122.36789213465291
 31
0.0
  0
ARC
  5
18B8A
  8
0
 10
153.87706686240961
 20
121.8300399716473
 30
0.0
 40
5.0
 50
269.99999999999972
 51
0.0395646834617732
  0
ARC
  5
18B8C
  8
0
 10
153.87706686240961
 20
128.867891918586
 30
0.0
 40
5.0
 50
359.99999999999972
 51
90.0
  0
LINE
  5
18B8D
  8
0
 10
158.87706686240961
 20
128.867891918586
 30
0.0
 11
158.877065651934
 21
121.8265607828654
 31
0.0
  0
ARC
  5
18B8F
  8
0
 10
137.8770644770367
 20
121.8300427222086
 30
0.0
 40
5.0
 50
179.96041561709711
 51
269.99998030055991
  0
ARC
  5
18B90
  8
0
 10
137.87706686240969
 20
128.86789466914689
 30
0.0
 40
5.0
 50
89.999980300559884
 51
179.9999803005592
  0
LINE
  5
18B91
  8
0
 10
132.87706686241
 20
128.8678963882474
 30
0.0
 11
132.87706565312169
 21
121.8334721316179
 31
0.0
  0
LINE
  5
18B92
  8
0
 10
137.87706858151009
 20
133.86789466914661
 30
0.0
 11
153.87706686240961
 21
133.867891918586
 31
0.0
  0
LINE
  5
18B93
  8
0
 10
137.87706275793619
 20
116.8300427222089
 30
0.0
 11
153.87706600285929
 21
116.83003997164739
 31
0.0
  0
LINE
  5
18BE2
  8
0
 10
168.3770659385375
 20
139.36789173977209
 30
0.0
 11
168.3770659385375
 21
142.36789036886529
 31
0.0
  0
CIRCLE
  5
18BFF
  8
0
 10
135.87706686240949
 20
42.867892037795002
 30
0.0
 40
3.1999999999999882
  0
CIRCLE
  5
18C00
  8
0
 10
135.87706686240949
 20
25.867892037795059
 30
0.0
 40
3.1999999999999882
  0
CIRCLE
  5
18C01
  8
0
 10
155.87706686240949
 20
25.867892037795059
 30
0.0
 40
3.000000000000056
  0
LINE
  5
18C02
  8
0
 10
157.0317664561918
 20
25.867891575859058
 30
0.0
 11
156.45441724044591
 21
26.86789220543313
 31
0.0
  0
LINE
  5
18C03
  8
0
 10
156.45441724044591
 20
26.86789220543313
 30
0.0
 11
155.2997150836637
 21
26.86789220543313
 31
0.0
  0
LINE
  5
18C04
  8
0
 10
155.2997150836637
 20
26.86789220543313
 30
0.0
 11
154.7223658679178
 21
25.867891575859058
 31
0.0
  0
LINE
  5
18C05
  8
0
 10
154.7223658679178
 20
25.867891575859058
 30
0.0
 11
155.2997150836637
 21
24.867892343268871
 31
0.0
  0
LINE
  5
18C06
  8
0
 10
155.2997150836637
 20
24.867892343268871
 30
0.0
 11
156.45441724044591
 21
24.867892343268871
 31
0.0
  0
LINE
  5
18C07
  8
0
 10
156.45441724044591
 20
24.867892343268871
 30
0.0
 11
157.0317664561918
 21
25.867891575859058
 31
0.0
  0
CIRCLE
  5
18C08
  8
0
 10
135.87706686240949
 20
25.867892037795059
 30
0.0
 40
3.000000000000056
  0
LINE
  5
18C09
  8
0
 10
137.03176701498541
 20
25.867891575859058
 30
0.0
 11
136.4544168679169
 21
26.86789220543313
 31
0.0
  0
LINE
  5
18C0A
  8
0
 10
136.4544168679169
 20
26.86789220543313
 30
0.0
 11
135.2997165737799
 21
26.86789220543313
 31
0.0
  0
LINE
  5
18C0B
  8
0
 10
135.2997165737799
 20
26.86789220543313
 30
0.0
 11
134.7223664267114
 21
25.867891575859058
 31
0.0
  0
LINE
  5
18C0C
  8
0
 10
134.7223664267114
 20
25.867891575859058
 30
0.0
 11
135.2997165737799
 21
24.867892343268871
 31
0.0
  0
LINE
  5
18C0D
  8
0
 10
135.2997165737799
 20
24.867892343268871
 30
0.0
 11
136.4544168679169
 21
24.867892343268871
 31
0.0
  0
LINE
  5
18C0E
  8
0
 10
136.4544168679169
 20
24.867892343268871
 30
0.0
 11
137.03176701498541
 21
25.867891575859058
 31
0.0
  0
LINE
  5
18C0F
  8
0
 10
157.0317664561918
 20
42.867892499731049
 30
0.0
 11
156.45441724044591
 21
43.867891732321191
 31
0.0
  0
LINE
  5
18C10
  8
0
 10
156.45441724044591
 20
43.867891732321191
 30
0.0
 11
155.2997150836637
 21
43.867891732321191
 31
0.0
  0
LINE
  5
18C11
  8
0
 10
155.2997150836637
 20
43.867891732321191
 30
0.0
 11
154.7223658679178
 21
42.867892499731049
 31
0.0
  0
LINE
  5
18C12
  8
0
 10
154.7223658679178
 20
42.867892499731049
 30
0.0
 11
155.2997150836637
 21
41.867891870156988
 31
0.0
  0
LINE
  5
18C13
  8
0
 10
155.2997150836637
 20
41.867891870156988
 30
0.0
 11
156.45441724044591
 21
41.867891870156988
 31
0.0
  0
LINE
  5
18C14
  8
0
 10
156.45441724044591
 20
41.867891870156988
 30
0.0
 11
157.0317664561918
 21
42.867892499731049
 31
0.0
  0
CIRCLE
  5
18C15
  8
0
 10
155.87706686240949
 20
42.867892037795002
 30
0.0
 40
3.0
  0
CIRCLE
  5
18C16
  8
0
 10
135.87706686240949
 20
42.867892037795002
 30
0.0
 40
3.0
  0
LINE
  5
18C17
  8
0
 10
137.03176701498541
 20
42.867892499731049
 30
0.0
 11
136.4544168679169
 21
43.867891732321191
 31
0.0
  0
LINE
  5
18C18
  8
0
 10
136.4544168679169
 20
43.867891732321191
 30
0.0
 11
135.2997165737799
 21
43.867891732321191
 31
0.0
  0
LINE
  5
18C19
  8
0
 10
135.2997165737799
 20
43.867891732321191
 30
0.0
 11
134.7223664267114
 21
42.867892499731049
 31
0.0
  0
LINE
  5
18C1A
  8
0
 10
134.7223664267114
 20
42.867892499731049
 30
0.0
 11
135.2997165737799
 21
41.867891870156988
 31
0.0
  0
LINE
  5
18C1B
  8
0
 10
135.2997165737799
 20
41.867891870156988
 30
0.0
 11
136.4544168679169
 21
41.867891870156988
 31
0.0
  0
LINE
  5
18C1C
  8
0
 10
136.4544168679169
 20
41.867891870156988
 30
0.0
 11
137.03176701498541
 21
42.867892499731049
 31
0.0
  0
CIRCLE
  5
18C1D
  8
0
 10
155.87706686240949
 20
25.867892037795059
 30
0.0
 40
3.200000000000045
  0
CIRCLE
  5
18C1E
  8
0
 10
155.87706686240949
 20
42.867892037795002
 30
0.0
 40
3.200000000000045
  0
LINE
  5
18C1F
  8
0
 10
155.8770659385375
 20
46.867892037795357
 30
0.0
 11
125.87706686240951
 21
46.86789203779535
 31
0.0
  0
LINE
  5
18C20
  8
0
 10
155.8770659385375
 20
21.867892037795361
 30
0.0
 11
125.87706686240951
 21
21.86789203779535
 31
0.0
  0
CIRCLE
  5
18C29
  8
0
 10
205.87706686240949
 20
34.36789203779535
 30
0.0
 40
1.25
  0
CIRCLE
  5
18C2A
  8
3
 10
178.87706865054881
 20
34.3678920377954
 30
0.0
 40
1.5
  0
CIRCLE
  5
18C2B
  8
0
 10
178.87706865054881
 20
34.3678920377954
 30
0.0
 40
1.25
  0
LINE
  5
18D66
  8
0
 10
49.87706761491836
 20
119.367891918586
 30
0.0
 11
49.87706761491836
 21
106.367891918586
 31
0.0
  0
LINE
  5
18D67
  8
0
 10
17.87706724238933
 20
119.367891918586
 30
0.0
 11
17.87706724238933
 21
106.367891918586
 31
0.0
  0
LINE
  5
18D87
  8
0
 10
303.87707031947889
 20
119.367891918586
 30
0.0
 11
303.87707031947889
 21
114.36789229856559
 31
0.0
  0
LINE
  5
18D88
  8
0
 10
271.87707031947889
 20
119.367891918586
 30
0.0
 11
271.87707031947889
 21
114.36789229856559
 31
0.0
  0
LINE
  5
18D9B
  8
0
 10
126.37706671153531
 20
230.96789034800369
 30
0.0
 11
126.37706671153531
 21
231.56789026008681
 31
0.0
  0
LINE
  5
18D9C
  8
0
 10
133.37706692760219
 20
231.56789026008681
 30
0.0
 11
133.37706692760219
 21
230.96789034800369
 31
0.0
  0
LINE
  5
18D9D
  8
0
 10
127.87706695740449
 20
231.56789026008681
 30
0.0
 11
127.87706695740449
 21
232.8678899143799
 31
0.0
  0
LINE
  5
18D9E
  8
0
 10
131.877066681733
 20
232.8678899143799
 30
0.0
 11
131.877066681733
 21
231.56789026008681
 31
0.0
  0
LINE
  5
18D9F
  8
0
 10
126.37706671153531
 20
231.56789026008681
 30
0.0
 11
133.37706692760219
 21
231.56789026008681
 31
0.0
  0
LINE
  5
18DA0
  8
0
 10
133.37706692760219
 20
230.96789034800369
 30
0.0
 11
126.37706671153531
 21
230.96789034800369
 31
0.0
  0
LINE
  5
18DA1
  8
0
 10
131.877066681733
 20
232.8678899143799
 30
0.0
 11
127.87706695740449
 21
232.8678899143799
 31
0.0
  0
LINE
  5
18DA2
  8
0
 10
127.8770669574028
 20
230.36789043592049
 30
0.0
 11
127.8770669574028
 21
230.96789034800361
 31
0.0
  0
LINE
  5
18DA3
  8
0
 10
131.87706668173129
 20
230.96789034800361
 30
0.0
 11
131.87706668173129
 21
230.36789043592049
 31
0.0
  0
LINE
  5
18DB3
  8
0
 10
126.37706671153531
 20
197.76789015130879
 30
0.0
 11
126.37706671153531
 21
197.16789023922561
 31
0.0
  0
LINE
  5
18DB4
  8
0
 10
133.37706692760219
 20
197.16789023922561
 30
0.0
 11
133.37706692760219
 21
197.76789015130879
 31
0.0
  0
LINE
  5
18DB5
  8
0
 10
127.87706695740449
 20
197.16789023922561
 30
0.0
 11
127.87706695740449
 21
195.86789058493261
 31
0.0
  0
LINE
  5
18DB6
  8
0
 10
131.877066681733
 20
195.86789058493261
 30
0.0
 11
131.877066681733
 21
197.16789023922561
 31
0.0
  0
LINE
  5
18DB7
  8
0
 10
126.37706671153531
 20
197.16789023922561
 30
0.0
 11
133.37706692760219
 21
197.16789023922561
 31
0.0
  0
LINE
  5
18DB8
  8
0
 10
133.37706692760219
 20
197.76789015130879
 30
0.0
 11
126.37706671153531
 21
197.76789015130879
 31
0.0
  0
LINE
  5
18DB9
  8
0
 10
131.877066681733
 20
195.86789058493261
 30
0.0
 11
127.87706695740449
 21
195.86789058493261
 31
0.0
  0
LINE
  5
18DBA
  8
0
 10
127.8770669574028
 20
198.36789006339191
 30
0.0
 11
127.8770669574028
 21
197.76789015130879
 31
0.0
  0
LINE
  5
18DBB
  8
0
 10
131.87706668173129
 20
197.76789015130879
 30
0.0
 11
131.87706668173129
 21
198.36789006339191
 31
0.0
  0
LINE
  5
18DC2
  8
0
 10
126.37706671153531
 20
50.967892709837763
 30
0.0
 11
126.37706671153531
 21
51.567892621920912
 31
0.0
  0
LINE
  5
18DC3
  8
0
 10
133.37706692760219
 20
51.567892621920912
 30
0.0
 11
133.37706692760219
 21
50.967892709837763
 31
0.0
  0
LINE
  5
18DC4
  8
0
 10
127.87706695740449
 20
51.567892621920912
 30
0.0
 11
127.87706695740449
 21
52.867892276213972
 31
0.0
  0
LINE
  5
18DC5
  8
0
 10
131.877066681733
 20
52.867892276213972
 30
0.0
 11
131.877066681733
 21
51.567892621920912
 31
0.0
  0
LINE
  5
18DC6
  8
0
 10
126.37706671153531
 20
51.567892621920912
 30
0.0
 11
133.37706692760219
 21
51.567892621920912
 31
0.0
  0
LINE
  5
18DC7
  8
0
 10
133.37706692760219
 20
50.967892709837763
 30
0.0
 11
126.37706671153531
 21
50.967892709837763
 31
0.0
  0
LINE
  5
18DC8
  8
0
 10
131.877066681733
 20
52.867892276213972
 30
0.0
 11
127.87706695740449
 21
52.867892276213972
 31
0.0
  0
LINE
  5
18DC9
  8
0
 10
127.8770669574028
 20
50.367892797754592
 30
0.0
 11
127.8770669574028
 21
50.967892709837741
 31
0.0
  0
LINE
  5
18DCA
  8
0
 10
131.87706668173129
 20
50.967892709837741
 30
0.0
 11
131.87706668173129
 21
50.367892797754649
 31
0.0
  0
LINE
  5
18DCB
  8
0
 10
126.37706671153531
 20
17.7678925131429
 30
0.0
 11
126.37706671153531
 21
17.167892601059751
 31
0.0
  0
LINE
  5
18DCC
  8
0
 10
133.37706692760219
 20
17.167892601059751
 30
0.0
 11
133.37706692760219
 21
17.7678925131429
 31
0.0
  0
LINE
  5
18DCD
  8
0
 10
127.87706695740449
 20
17.167892601059751
 30
0.0
 11
127.87706695740449
 21
15.867892946766689
 31
0.0
  0
LINE
  5
18DCE
  8
0
 10
131.877066681733
 20
15.867892946766689
 30
0.0
 11
131.877066681733
 21
17.167892601059751
 31
0.0
  0
LINE
  5
18DCF
  8
0
 10
126.37706671153531
 20
17.167892601059751
 30
0.0
 11
133.37706692760219
 21
17.167892601059751
 31
0.0
  0
LINE
  5
18DD0
  8
0
 10
133.37706692760219
 20
17.7678925131429
 30
0.0
 11
126.37706671153531
 21
17.7678925131429
 31
0.0
  0
LINE
  5
18DD1
  8
0
 10
131.877066681733
 20
15.867892946766689
 30
0.0
 11
127.87706695740449
 21
15.867892946766689
 31
0.0
  0
LINE
  5
18DD2
  8
0
 10
127.8770669574028
 20
18.367892425226071
 30
0.0
 11
127.8770669574028
 21
17.767892513142922
 31
0.0
  0
LINE
  5
18DD3
  8
0
 10
131.87706668173129
 20
17.767892513142922
 30
0.0
 11
131.87706668173129
 21
18.367892425226021
 31
0.0
  0
LINE
  5
18DF0
  8
1
 10
33.877067428653731
 20
147.36789036886529
 30
0.0
 11
33.877067428653731
 21
101.367891918586
 31
0.0
  0
LINE
  5
18DFE
  8
1
 10
16.377067428653731
 20
104.367891918586
 30
0.0
 11
16.377067428653731
 21
116.36789229856559
 31
0.0
  0
LINE
  5
18DFF
  8
1
 10
51.377067428653731
 20
104.367891918586
 30
0.0
 11
51.377067428653731
 21
116.36789229856559
 31
0.0
  0
LINE
  5
18E00
  8
1
 10
270.37707031947889
 20
104.3678919185859
 30
0.0
 11
270.37707031947889
 21
116.36789229856549
 31
0.0
  0
LINE
  5
18E01
  8
1
 10
305.37707031947889
 20
104.3678919185859
 30
0.0
 11
305.37707031947889
 21
116.36789229856549
 31
0.0
  0
ENDSEC
  0
EOF
