  0
SECTION
  2
HEADER
  9
$ACADVER
  1
AC1009
  9
$INSBASE
 10
0.0
 20
0.0
 30
0.0
  9
$EXTMIN
 10
-0.0204638472032742
 20
-2.960436562073669
 30
0.0
  9
$EXTMAX
 10
666.64528971686559
 20
509.87503569339913
 30
0.0
  9
$LIMMIN
 10
0.0
 20
0.0
  9
$LIMMAX
 10
750.0
 20
540.0
  9
$ORTHOMODE
 70
     1
  9
$REGENMODE
 70
     1
  9
$FILLMODE
 70
     1
  9
$QTEXTMODE
 70
     0
  9
$MIRRTEXT
 70
     0
  9
$DRAGMODE
 70
     2
  9
$LTSCALE
 40
20.0
  9
$OSMODE
 70
    37
  9
$ATTMODE
 70
     1
  9
$TEXTSIZE
 40
0.2
  9
$TRACEWID
 40
0.05
  9
$TEXTSTYLE
  7
STANDARD
  9
$CLAYER
  8
0
  9
$CELTYPE
  6
BYLAYER
  9
$CECOLOR
 62
   256
  9
$DIMSCALE
 40
2.0
  9
$DIMASZ
 40
3.0
  9
$DIMEXO
 40
2.0
  9
$DIMDLI
 40
0.38
  9
$DIMRND
 40
0.0
  9
$DIMDLE
 40
0.0
  9
$DIMEXE
 40
2.0
  9
$DIMTP
 40
0.0
  9
$DIMTM
 40
0.0
  9
$DIMTXT
 40
3.2000000000000002
  9
$DIMCEN
 40
0.0
  9
$DIMTSZ
 40
0.0
  9
$DIMTOL
 70
     0
  9
$DIMLIM
 70
     0
  9
$DIMTIH
 70
     0
  9
$DIMTOH
 70
     0
  9
$DIMSE1
 70
     0
  9
$DIMSE2
 70
     0
  9
$DIMTAD
 70
     1
  9
$DIMZIN
 70
     8
  9
$DIMBLK
  1

  9
$DIMASO
 70
     0
  9
$DIMSHO
 70
     0
  9
$DIMPOST
  1

  9
$DIMAPOST
  1

  9
$DIMALT
 70
     0
  9
$DIMALTD
 70
     2
  9
$DIMALTF
 40
25.399999999999999
  9
$DIMLFAC
 40
1.0
  9
$DIMTOFL
 70
     1
  9
$DIMTVP
 40
1.6000000000000001
  9
$DIMTIX
 70
     1
  9
$DIMSOXD
 70
     0
  9
$DIMSAH
 70
     0
  9
$DIMBLK1
  1

  9
$DIMBLK2
  1

  9
$DIMSTYLE
  2
STANDARD
  9
$DIMCLRD
 70
     0
  9
$DIMCLRE
 70
     0
  9
$DIMCLRT
 70
     0
  9
$DIMTFAC
 40
1.0
  9
$DIMGAP
 40
0.09
  9
$LUNITS
 70
     2
  9
$LUPREC
 70
     1
  9
$SKETCHINC
 40
0.1
  9
$FILLETRAD
 40
2.0
  9
$AUNITS
 70
     0
  9
$AUPREC
 70
     1
  9
$MENU
  1
E:\r13\win\SUPPORT\ACAD
  9
$ELEVATION
 40
0.0
  9
$PELEVATION
 40
0.0
  9
$THICKNESS
 40
0.0
  9
$LIMCHECK
 70
     0
  9
$BLIPMODE
 70
     0
  9
$CHAMFERA
 40
0.0
  9
$CHAMFERB
 40
0.0
  9
$SKPOLY
 70
     0
  9
$TDCREATE
 40
2449839.776180556
  9
$TDUPDATE
 40
2458753.3953856481
  9
$TDINDWG
 40
0.0176971181
  9
$TDUSRTIMER
 40
0.0176971181
  9
$USRTIMER
 70
     1
  9
$ANGBASE
 50
0.0
  9
$ANGDIR
 70
     0
  9
$PDMODE
 70
     0
  9
$PDSIZE
 40
0.0
  9
$PLINEWID
 40
0.0
  9
$COORDS
 70
     1
  9
$SPLFRAME
 70
     0
  9
$SPLINETYPE
 70
     6
  9
$SPLINESEGS
 70
     8
  9
$ATTDIA
 70
     0
  9
$ATTREQ
 70
     1
  9
$HANDLING
 70
     1
  9
$HANDSEED
  5
3B0
  9
$SURFTAB1
 70
     6
  9
$SURFTAB2
 70
     6
  9
$SURFTYPE
 70
     6
  9
$SURFU
 70
     6
  9
$SURFV
 70
     6
  9
$UCSNAME
  2

  9
$UCSORG
 10
0.0
 20
0.0
 30
0.0
  9
$UCSXDIR
 10
1.0
 20
0.0
 30
0.0
  9
$UCSYDIR
 10
0.0
 20
1.0
 30
0.0
  9
$PUCSNAME
  2

  9
$PUCSORG
 10
0.0
 20
0.0
 30
0.0
  9
$PUCSXDIR
 10
1.0
 20
0.0
 30
0.0
  9
$PUCSYDIR
 10
0.0
 20
1.0
 30
0.0
  9
$USERI1
 70
     0
  9
$USERI2
 70
     1
  9
$USERI3
 70
     0
  9
$USERI4
 70
     0
  9
$USERI5
 70
     0
  9
$USERR1
 40
0.0
  9
$USERR2
 40
0.0
  9
$USERR3
 40
0.0
  9
$USERR4
 40
0.0
  9
$USERR5
 40
0.0
  9
$WORLDVIEW
 70
     1
  9
$SHADEDGE
 70
     3
  9
$SHADEDIF
 70
    70
  9
$TILEMODE
 70
     1
  9
$MAXACTVP
 70
    16
  9
$PLIMCHECK
 70
     0
  9
$PEXTMIN
 10
1.0000000000000000E+020
 20
1.0000000000000000E+020
 30
1.0000000000000000E+020
  9
$PEXTMAX
 10
-1.0000000000000000E+020
 20
-1.0000000000000000E+020
 30
-1.0000000000000000E+020
  9
$PLIMMIN
 10
0.0
 20
0.0
  9
$PLIMMAX
 10
12.0
 20
9.0
  9
$UNITMODE
 70
     0
  9
$VISRETAIN
 70
     0
  9
$PLINEGEN
 70
     0
  9
$PSLTSCALE
 70
     0
  0
ENDSEC
  0
SECTION
  2
TABLES
  0
TABLE
  2
VPORT
 70
     1
  0
VPORT
  2
*ACTIVE
 70
     0
 10
0.0
 20
0.0
 11
1.0
 21
1.0
 12
724.69325153374234
 22
300.0
 13
0.0
 23
0.0
 14
20.0
 24
20.0
 15
20.0
 25
20.0
 16
0.0
 26
0.0
 36
1.0
 17
0.0
 27
0.0
 37
0.0
 40
600.0
 41
2.415644171779141
 42
50.0
 43
0.0
 44
0.0
 50
0.0
 51
0.0
 71
     0
 72
   500
 73
     1
 74
     0
 75
     0
 76
     0
 77
     0
 78
     2
  0
ENDTAB
  0
TABLE
  2
LTYPE
 70
     4
  0
LTYPE
  2
CONTINUOUS
 70
     0
  3
Solid Line
 72
    65
 73
     0
 40
0.0
  0
LTYPE
  2
CENTER
 70
     0
  3
____ _ ____ _ ____ _ ____ _ ____ _ ____ _ ____
 72
    65
 73
     4
 40
2.0
 49
1.25
 49
-0.25
 49
0.25
 49
-0.25
  0
LTYPE
  2
HIDDEN
 70
     0
  3
_ _ _ _ _ _ _ _ _ _ _ _ _ _ _ _ _ _ _ _ _ _ _
 72
    65
 73
     2
 40
0.375
 49
0.25
 49
-0.125
  0
LTYPE
  2
PHANTOM2
 70
     0
  3
___ _ _ ___ _ _ ___ _ _ ___ _ _
 72
    65
 73
     6
 40
1.25
 49
0.625
 49
-0.125
 49
0.125
 49
-0.125
 49
0.125
 49
-0.125
  0
ENDTAB
  0
TABLE
  2
LAYER
 70
     4
  0
LAYER
  2
0
 70
     0
 62
     7
  6
CONTINUOUS
  0
LAYER
  2
1
 70
     0
 62
     1
  6
CENTER
  0
LAYER
  2
2
 70
     0
 62
     2
  6
HIDDEN
  0
LAYER
  2
3
 70
     0
 62
     3
  6
CONTINUOUS
  0
ENDTAB
  0
TABLE
  2
STYLE
 70
     2
  0
STYLE
  2
STANDARD
 70
     0
 40
0.0
 41
1.0
 50
0.0
 71
     0
 42
0.2
  3
TXT
  4
BIGFONT
  0
STYLE
  2
STANDARD1
 70
     0
 40
0.0
 41
1.0
 50
0.0
 71
     0
 42
3.0
  3
txt
  4

  0
ENDTAB
  0
TABLE
  2
VIEW
 70
     1
  0
VIEW
  2
ALL
 70
     0
 40
540.0
 10
441.98319327731087
 20
270.0
 41
0.0
 11
0.0
 21
0.0
 31
1.0
 12
0.0
 22
0.0
 32
0.0
 42
0.0
 43
0.0
 44
0.0
 50
0.0
 71
     0
  0
ENDTAB
  0
TABLE
  2
UCS
 70
     0
  0
ENDTAB
  0
TABLE
  2
APPID
 70
     6
  0
APPID
  2
ACAD
 70
     0
  0
APPID
  2
ACAD_MLEADERVER
 70
     0
  0
APPID
  2
ACAD_NAV_VCDISPLAY
 70
     0
  0
APPID
  2
ACAD_EXEMPT_FROM_CAD_STANDARDS
 70
     0
  0
APPID
  2
ACAD_DSTYLE_DIMJAG
 70
     0
  0
APPID
  2
ACAD_DSTYLE_DIMTALN
 70
     0
  0
ENDTAB
  0
TABLE
  2
DIMSTYLE
 70
     1
  0
DIMSTYLE
  2
STANDARD
 70
     0
  3

  4

  5

  6

  7

 40
1.0
 41
0.18
 42
0.0625
 43
0.38
 44
0.18
 45
0.0
 46
0.0
 47
0.0
 48
0.0
140
0.18
141
0.09
142
0.0
143
25.399999999999999
144
1.0
145
0.0
146
1.0
147
0.09
 71
     0
 72
     0
 73
     1
 74
     1
 75
     0
 76
     0
 77
     0
 78
     0
170
     0
171
     2
172
     0
173
     0
174
     0
175
     0
176
     0
177
     0
178
     0
  0
ENDTAB
  0
ENDSEC
  0
SECTION
  2
BLOCKS
  0
BLOCK
  8
0
  2
$MODEL_SPACE
 70
     0
 10
0.0
 20
0.0
 30
0.0
  3
$MODEL_SPACE
  1

  0
ENDBLK
  5
1E5
  8
0
  0
BLOCK
 67
     1
  8
0
  2
$PAPER_SPACE
 70
     0
 10
0.0
 20
0.0
 30
0.0
  3
$PAPER_SPACE
  1

  0
ENDBLK
  5
1E3
 67
     1
  8
0
  0
ENDSEC
  0
SECTION
  2
ENTITIES
  0
LINE
  5
41
  8
1
 10
662.34905930380694
 20
262.70702710510068
 30
0.0
 11
560.34905930380694
 21
262.70702710510068
 31
0.0
  0
LINE
  5
42
  8
0
 10
612.34905930380705
 20
235.20702710510071
 30
0.0
 11
581.67918632272836
 21
235.20702710510071
 31
0.0
  0
LINE
  5
43
  8
0
 10
581.67918632272983
 20
235.20702710510071
 30
0.0
 11
577.34905930380694
 21
237.7070271051011
 31
0.0
  0
LINE
  5
44
  8
0
 10
612.34905930380694
 20
290.20702710510068
 30
0.0
 11
598.34905930380694
 21
290.20702710510068
 31
0.0
  0
LINE
  5
45
  8
0
 10
612.34905930380705
 20
235.20702710510071
 30
0.0
 11
613.34905930380705
 21
236.20702710510071
 31
0.0
  0
LINE
  5
46
  8
0
 10
613.34905930380694
 20
289.20702710510068
 30
0.0
 11
612.34905930380694
 21
290.20702710510068
 31
0.0
  0
LINE
  5
47
  8
1
 10
605.34905930380694
 20
317.70702710510068
 30
0.0
 11
557.34905930380694
 21
317.70702710510068
 31
0.0
  0
LINE
  5
48
  8
0
 10
594.34905930380694
 20
342.70702710510068
 30
0.0
 11
572.34905930380853
 21
342.70702710510068
 31
0.0
  0
LINE
  5
49
  8
0
 10
572.34905930380853
 20
342.70702710510068
 30
0.0
 11
567.34905930380694
 21
339.82027575915168
 31
0.0
  0
LINE
  5
4A
  8
0
 10
567.34905930380694
 20
339.82027575915168
 30
0.0
 11
567.34905930380694
 21
295.59377845104967
 31
0.0
  0
LINE
  5
4B
  8
0
 10
567.34905930380694
 20
295.59377845104967
 30
0.0
 11
572.34905930380842
 21
292.70702710510068
 31
0.0
  0
LINE
  5
4C
  8
0
 10
572.34905930380842
 20
292.70702710510068
 30
0.0
 11
574.34905930380694
 21
292.70702710510068
 31
0.0
  0
ARC
  5
4D
  8
0
 10
594.34905930380694
 20
341.70702710510068
 30
0.0
 40
1.0
 50
360.0
 51
90.0
  0
ARC
  5
4E
  8
0
 10
598.34905930380694
 20
293.20702710510068
 30
0.0
 40
3.0
 50
180.0
 51
270.0
  0
ARC
  5
4F
  8
0
 10
574.34905930380694
 20
289.70702710510068
 30
0.0
 40
3.0
 50
0.0000000000001018
 51
90.0
  0
LINE
  5
50
  8
1
 10
579.34905930380683
 20
326.70702710510108
 30
0.0
 11
579.34906338139194
 21
308.70702710510147
 31
0.0
  0
LINE
  5
51
  8
1
 10
579.34905930380683
 20
326.70702710510108
 30
0.0
 11
579.34906338139194
 21
308.70702710510147
 31
0.0
  0
LINE
  5
52
  8
0
 10
595.34905930380694
 20
293.20702710510068
 30
0.0
 11
595.34905930380694
 21
341.70702710510068
 31
0.0
  0
LINE
  5
53
  8
0
 10
577.34905930380694
 20
289.70702710510068
 30
0.0
 11
577.34905930380694
 21
237.70702710510099
 31
0.0
  0
LINE
  5
54
  8
0
 10
613.34905930380705
 20
236.20702710510071
 30
0.0
 11
613.34905930380535
 21
289.20702710510233
 31
0.0
  0
LINE
  5
55
  8
0
 10
570.94905930380764
 20
254.70702710510071
 30
0.0
 11
570.94905930380764
 21
270.70702710510068
 31
0.0
  0
LINE
  5
56
  8
0
 10
570.34905930380705
 20
255.74625758964299
 30
0.0
 11
570.34905930380705
 21
269.66779662055842
 31
0.0
  0
LINE
  5
57
  8
0
 10
570.94905930380776
 20
254.70702710510011
 30
0.0
 11
570.34905930380705
 21
255.74625758964299
 31
0.0
  0
LINE
  5
58
  8
0
 10
570.94905930380764
 20
270.70702710510068
 30
0.0
 11
577.34905930380705
 21
270.70702710510068
 31
0.0
  0
LINE
  5
59
  8
0
 10
570.94905930380776
 20
270.7070271051013
 30
0.0
 11
570.34905930380705
 21
269.66779662055842
 31
0.0
  0
LINE
  5
5A
  8
0
 10
577.34905930380705
 20
254.70702710510071
 30
0.0
 11
570.94905930380764
 21
254.70702710510071
 31
0.0
  0
LINE
  5
5B
  8
0
 10
572.34905930380853
 20
342.70702710510068
 30
0.0
 11
572.34905930380842
 21
292.70702710510079
 31
0.0
  0
LINE
  5
5C
  8
0
 10
649.34905930380671
 20
223.20702710510071
 30
0.0
 11
649.34905930380671
 21
232.20703282714661
 31
0.0
  0
LINE
  5
5D
  8
0
 10
649.34905930380671
 20
223.20702710510071
 30
0.0
 11
648.84905930380683
 21
222.70702710510071
 31
0.0
  0
LINE
  5
5E
  8
0
 10
652.34905930380683
 20
235.20702710510071
 30
0.0
 11
653.34905930380683
 21
236.20702710510071
 31
0.0
  0
ARC
  5
5F
  8
0
 10
652.34905930380683
 20
232.20702710510071
 30
0.0
 40
3.0
 50
90.000000000046697
 51
179.99998178616201
  0
ARC
  5
60
  8
0
 10
614.34905930380683
 20
232.20702710510071
 30
0.0
 40
3.0
 50
0.0000182138380581
 51
89.999999999953303
  0
LINE
  5
61
  8
0
 10
614.34905930380694
 20
235.20702710510071
 30
0.0
 11
613.34905930380694
 21
236.20702710510071
 31
0.0
  0
LINE
  5
62
  8
0
 10
617.34905930380683
 20
223.20702710510071
 30
0.0
 11
617.84905930380683
 21
222.70702710510071
 31
0.0
  0
LINE
  5
63
  8
0
 10
653.34905930380694
 20
289.20702710510062
 30
0.0
 11
652.34905930380694
 21
290.20702710510062
 31
0.0
  0
LINE
  5
64
  8
0
 10
614.34905930380694
 20
290.20702710510062
 30
0.0
 11
613.34905930380694
 21
289.20702710510062
 31
0.0
  0
LINE
  5
65
  8
0
 10
617.34905930380683
 20
223.20702710510071
 30
0.0
 11
617.34905930380683
 21
232.20703282714661
 31
0.0
  0
LINE
  5
66
  8
1
 10
633.34905930380683
 20
302.99688217756437
 30
0.0
 11
633.34905930380683
 21
214.1128242065499
 31
0.0
  0
LINE
  5
67
  8
0
 10
653.34905930380694
 20
289.20702710510062
 30
0.0
 11
653.34905930380694
 21
236.20702710510071
 31
0.0
  0
LINE
  5
68
  8
0
 10
617.84905930380683
 20
222.70702710510071
 30
0.0
 11
648.84905930380683
 21
222.70702710510071
 31
0.0
  0
LINE
  5
69
  8
0
 10
614.34905930380694
 20
290.20702710510062
 30
0.0
 11
652.34905930380694
 21
290.20702710510062
 31
0.0
  0
LINE
  5
6A
  8
2
 10
361.41865427520611
 20
321.70702710510068
 30
0.0
 11
360.81865427520609
 21
320.66779662055927
 31
0.0
  0
LINE
  5
6B
  8
2
 10
361.41865427520611
 20
313.70702710510068
 30
0.0
 11
360.81865427520609
 21
314.74625758964203
 31
0.0
  0
LINE
  5
6C
  8
2
 10
361.41865427520622
 20
313.70702710510068
 30
0.0
 11
361.41865427520611
 21
321.70702710510068
 31
0.0
  0
LINE
  5
6D
  8
2
 10
360.81865427520609
 20
314.74625758964203
 30
0.0
 11
360.81865427520609
 21
320.66779662055927
 31
0.0
  0
LINE
  5
6E
  8
2
 10
373.61865427520218
 20
321.70702710510068
 30
0.0
 11
374.81865427520609
 21
320.50702710509972
 31
0.0
  0
LINE
  5
6F
  8
2
 10
373.61865427520519
 20
313.70702710510068
 30
0.0
 11
373.61865427520218
 21
321.70702710510068
 31
0.0
  0
LINE
  5
70
  8
2
 10
374.81865427520609
 20
314.90702710510158
 30
0.0
 11
373.61865427520519
 21
313.70702710510068
 31
0.0
  0
LINE
  5
71
  8
2
 10
374.81865427520609
 20
314.90702710510158
 30
0.0
 11
374.81865427520609
 21
320.50702710509972
 31
0.0
  0
CIRCLE
  5
72
  8
0
 10
384.8186542752062
 20
262.70702710510068
 30
0.0
 40
8.0
  0
LINE
  5
73
  8
0
 10
380.8186542752062
 20
265.0976260283428
 30
0.0
 11
384.8186542752062
 21
267.40702710510072
 31
0.0
  0
LINE
  5
74
  8
0
 10
380.8186542752062
 20
260.3164281818585
 30
0.0
 11
384.8186542752062
 21
258.00702710510069
 31
0.0
  0
LINE
  5
75
  8
0
 10
380.8186542752062
 20
265.0976260283428
 30
0.0
 11
380.8186542752062
 21
260.3164281818585
 31
0.0
  0
LINE
  5
76
  8
0
 10
388.8186542752062
 20
260.3164281818585
 30
0.0
 11
384.8186542752062
 21
258.00702710510069
 31
0.0
  0
LINE
  5
77
  8
0
 10
388.8186542752062
 20
265.0976260283428
 30
0.0
 11
388.8186542752062
 21
260.3164281818585
 31
0.0
  0
LINE
  5
78
  8
0
 10
388.8186542752062
 20
265.0976260283428
 30
0.0
 11
384.8186542752062
 21
267.40702710510072
 31
0.0
  0
CIRCLE
  5
79
  8
0
 10
384.8186542752062
 20
262.70702710510068
 30
0.0
 40
6.9607695154577272
  0
CIRCLE
  5
7A
  8
0
 10
384.8186542752062
 20
317.70702710510068
 30
0.0
 40
22.113248654051361
  0
CIRCLE
  5
7B
  8
0
 10
384.8186542752062
 20
317.70702710510068
 30
0.0
 40
8.6470000000000002
  0
CIRCLE
  5
7C
  8
3
 10
384.8186542752062
 20
317.70702710510068
 30
0.0
 40
10.0
  0
CIRCLE
  5
7D
  8
0
 10
384.8186542752062
 20
262.70702710510068
 30
0.0
 40
8.0
  0
LINE
  5
7E
  8
1
 10
349.81865427520609
 20
317.70702710510068
 30
0.0
 11
419.81865427520609
 21
317.70702710510068
 31
0.0
  0
LINE
  5
7F
  8
0
 10
409.81865427520609
 20
317.70702710510068
 30
0.0
 11
409.81865427520609
 21
262.70702710510068
 31
0.0
  0
ARC
  5
80
  8
0
 10
384.8186542752062
 20
262.70702710510068
 30
0.0
 40
25.0
 50
180.0
 51
360.0
  0
LINE
  5
81
  8
0
 10
359.8186542752062
 20
317.70702710510068
 30
0.0
 11
359.8186542752062
 21
262.70702710510068
 31
0.0
  0
CIRCLE
  5
82
  8
0
 10
384.8186542752062
 20
317.70702710510068
 30
0.0
 40
25.0
  0
LINE
  5
83
  8
2
 10
376.83586298706661
 20
314.38352710510071
 30
0.0
 11
361.02807681809929
 21
314.38352710510071
 31
0.0
  0
LINE
  5
84
  8
2
 10
360.20212364592601
 20
313.3450986579893
 30
0.0
 11
361.10584816640272
 21
314.24882317846613
 31
0.0
  0
LINE
  5
85
  8
2
 10
377.15245515178128
 20
313.70702710510068
 30
0.0
 11
360.56405209303728
 21
313.70702710510068
 31
0.0
  0
LINE
  5
86
  8
2
 10
376.83586298706661
 20
321.03052710510059
 30
0.0
 11
361.02807681809929
 21
321.03052710510059
 31
0.0
  0
LINE
  5
87
  8
2
 10
360.20212364592601
 20
322.06895555221212
 30
0.0
 11
361.10584816640272
 21
321.16523103173529
 31
0.0
  0
LINE
  5
88
  8
2
 10
377.15245515178128
 20
321.70702710510068
 30
0.0
 11
360.56405209303728
 21
321.70702710510068
 31
0.0
  0
ARC
  5
89
  8
0
 10
384.8186542752062
 20
262.70702710510068
 30
0.0
 40
27.5
 50
155.38002267134519
 51
24.61997732865477
  0
LINE
  5
8A
  8
1
 10
429.81865427520609
 20
215.77949087321659
 30
0.0
 11
429.81865427520609
 21
243.5186213079993
 31
0.0
  0
LINE
  5
8B
  8
2
 10
436.31865427520597
 20
223.70702710510071
 30
0.0
 11
436.31865427520597
 21
235.70702710510071
 31
0.0
  0
LINE
  5
8C
  8
2
 10
423.31865427520609
 20
223.7070271051002
 30
0.0
 11
423.31865427520609
 21
235.7070271051011
 31
0.0
  0
LINE
  5
8D
  8
2
 10
437.31865427520682
 20
236.70702710510071
 30
0.0
 11
436.31865427520597
 21
235.70702710510071
 31
0.0
  0
LINE
  5
8E
  8
2
 10
436.31865427520597
 20
235.70702710510071
 30
0.0
 11
423.31865427520609
 21
235.70702710510119
 31
0.0
  0
LINE
  5
8F
  8
2
 10
423.31865427520609
 20
235.70702710510119
 30
0.0
 11
422.3186542752054
 21
236.70702710510071
 31
0.0
  0
LINE
  5
90
  8
2
 10
437.31865427520557
 20
222.70702710510071
 30
0.0
 11
436.31865427520597
 21
223.70702710510071
 31
0.0
  0
LINE
  5
91
  8
2
 10
436.31865427520597
 20
223.70702710510071
 30
0.0
 11
423.31865427520609
 21
223.7070271051002
 31
0.0
  0
LINE
  5
92
  8
2
 10
423.31865427520609
 20
223.7070271051002
 30
0.0
 11
422.31865427520688
 21
222.70702710510071
 31
0.0
  0
LINE
  5
93
  8
2
 10
346.31865427520609
 20
223.7070271051002
 30
0.0
 11
347.3186542752054
 21
222.70702710510071
 31
0.0
  0
LINE
  5
94
  8
2
 10
333.3186542752062
 20
223.70702710510071
 30
0.0
 11
346.31865427520609
 21
223.7070271051002
 31
0.0
  0
LINE
  5
95
  8
2
 10
332.31865427520671
 20
222.70702710510071
 30
0.0
 11
333.3186542752062
 21
223.70702710510071
 31
0.0
  0
LINE
  5
96
  8
2
 10
346.31865427520609
 20
235.70702710510119
 30
0.0
 11
347.31865427520682
 21
236.70702710510071
 31
0.0
  0
LINE
  5
97
  8
2
 10
333.3186542752062
 20
235.70702710510071
 30
0.0
 11
346.31865427520609
 21
235.70702710510119
 31
0.0
  0
LINE
  5
98
  8
2
 10
332.3186542752054
 20
236.70702710510071
 30
0.0
 11
333.3186542752062
 21
235.70702710510071
 31
0.0
  0
LINE
  5
99
  8
1
 10
339.8186542752062
 20
215.77949087321659
 30
0.0
 11
339.8186542752062
 21
243.5186213079993
 31
0.0
  0
LINE
  5
9A
  8
2
 10
346.31865427520609
 20
223.7070271051002
 30
0.0
 11
346.31865427520609
 21
235.7070271051011
 31
0.0
  0
LINE
  5
9B
  8
2
 10
333.3186542752062
 20
223.70702710510071
 30
0.0
 11
333.3186542752062
 21
235.70702710510071
 31
0.0
  0
LINE
  5
9C
  8
0
 10
441.81865427520609
 20
222.70702710510059
 30
0.0
 11
442.31865427520609
 21
223.20702710510071
 31
0.0
  0
LINE
  5
9D
  8
0
 10
327.31865427520609
 20
223.20702710510071
 30
0.0
 11
327.81865427520609
 21
222.70702710510071
 31
0.0
  0
ARC
  5
9F
  8
0
 10
416.31865427520609
 20
238.70702710510071
 30
0.0
 40
4.0
 50
180.0
 51
269.99999999999989
  0
ARC
  5
A0
  8
0
 10
353.3186542752062
 20
238.70702710510071
 30
0.0
 40
4.0
 50
270.0
 51
0.0
  0
ARC
  5
A1
  8
0
 10
415.31865427520609
 20
239.70702710510071
 30
0.0
 40
3.0
 50
180.0
 51
269.99999999999989
  0
ARC
  5
A2
  8
0
 10
354.31865427520609
 20
239.70702710510071
 30
0.0
 40
3.0
 50
270.0
 51
0.0
  0
LINE
  5
A3
  8
0
 10
354.31865427520609
 20
236.70702710510071
 30
0.0
 11
329.31865427520609
 21
236.70702710510071
 31
0.0
  0
ARC
  5
A4
  8
0
 10
440.31865427520609
 20
234.70702710510059
 30
0.0
 40
2.0
 50
0.0
 51
89.999999999999986
  0
ARC
  5
A5
  8
0
 10
440.31865427520609
 20
232.70702710510071
 30
0.0
 40
2.0
 50
0.0
 51
90.0
  0
ARC
  5
A6
  8
0
 10
329.31865427520609
 20
234.70702710510071
 30
0.0
 40
2.0
 50
90.0
 51
179.99999999999989
  0
ARC
  5
A7
  8
0
 10
329.31865427520609
 20
232.70702710510071
 30
0.0
 40
2.0
 50
90.0
 51
179.99999999999989
  0
LINE
  5
A8
  8
0
 10
353.3186542752062
 20
234.70702710510071
 30
0.0
 11
329.31865427520609
 21
234.70702710510071
 31
0.0
  0
LINE
  5
A9
  8
0
 10
440.31865427520609
 20
234.70702710510071
 30
0.0
 11
416.31865427520609
 21
234.70702710510071
 31
0.0
  0
LINE
  5
AA
  8
0
 10
359.8186542752062
 20
222.70702710510071
 30
0.0
 11
327.81865427520609
 21
222.70702710510071
 31
0.0
  0
LINE
  5
AB
  8
0
 10
361.8186542752062
 20
224.70702710510071
 30
0.0
 11
407.81865427520609
 21
224.70702710510071
 31
0.0
  0
ARC
  5
AC
  8
0
 10
407.81865427520609
 20
222.70702710510071
 30
0.0
 40
2.0
 50
0.0
 51
90.0
  0
ARC
  5
AD
  8
0
 10
361.8186542752062
 20
222.70702710510071
 30
0.0
 40
2.0
 50
90.0
 51
180.0
  0
LINE
  5
AE
  8
0
 10
412.31865427520609
 20
262.70702710510068
 30
0.0
 11
412.31865427520609
 21
238.70702710510071
 31
0.0
  0
LINE
  5
AF
  8
0
 10
357.3186542752062
 20
262.70702710510068
 30
0.0
 11
357.3186542752062
 21
238.70702710510071
 31
0.0
  0
LINE
  5
B0
  8
0
 10
327.31865427520609
 20
234.70702710510071
 30
0.0
 11
327.31865427520609
 21
223.20702710510071
 31
0.0
  0
LINE
  5
B1
  8
0
 10
440.31865427520609
 20
236.70702710510059
 30
0.0
 11
415.31865427520609
 21
236.70702710510071
 31
0.0
  0
LINE
  5
B2
  8
0
 10
442.31865427520609
 20
223.20702710510071
 30
0.0
 11
442.31865427520609
 21
234.70702710510059
 31
0.0
  0
LINE
  5
B3
  8
0
 10
441.81865427520609
 20
222.70702710510059
 30
0.0
 11
409.81865427520609
 21
222.70702710510071
 31
0.0
  0
LINE
  5
B4
  8
1
 10
384.8186542752062
 20
350.99688217756449
 30
0.0
 11
384.8186542752062
 21
212.14180971379631
 31
0.0
  0
LINE
  5
B5
  8
1
 10
419.96266243697659
 20
262.70702710510068
 30
0.0
 11
349.6746461134357
 21
262.70702710510068
 31
0.0
  0
LINE
  5
B6
  8
0
 10
358.31865427520688
 20
457.88952844702231
 30
0.0
 11
411.3186542752054
 21
457.88952844702231
 31
0.0
  0
LINE
  5
B7
  8
0
 10
362.7054056211548
 20
411.88952844702231
 30
0.0
 11
359.8186542752062
 21
416.88952844702322
 31
0.0
  0
LINE
  5
B8
  8
0
 10
359.8186542752062
 20
416.88952844702322
 30
0.0
 11
359.8186542752062
 21
438.88952844702231
 31
0.0
  0
LINE
  5
B9
  8
0
 10
360.8186542752062
 20
439.8895284470222
 30
0.0
 11
408.8186542752062
 21
439.8895284470222
 31
0.0
  0
LINE
  5
BA
  8
0
 10
409.8186542752062
 20
438.88952844702231
 30
0.0
 11
409.8186542752062
 21
416.88952844702322
 31
0.0
  0
LINE
  5
BB
  8
0
 10
409.8186542752062
 20
416.88952844702322
 30
0.0
 11
406.93190292925749
 21
411.88952844702231
 31
0.0
  0
LINE
  5
BC
  8
0
 10
406.93190292925749
 20
411.88952844702231
 30
0.0
 11
362.7054056211548
 21
411.88952844702231
 31
0.0
  0
ARC
  5
BD
  8
0
 10
360.8186542752062
 20
438.88952844702231
 30
0.0
 40
1.0
 50
90.0
 51
180.0
  0
ARC
  5
BE
  8
0
 10
408.8186542752062
 20
438.88952844702231
 30
0.0
 40
1.0
 50
360.0
 51
89.999999999999886
  0
LINE
  5
BF
  8
0
 10
359.8186542752062
 20
421.88952844702243
 30
0.0
 11
357.31865427520631
 21
426.21965546594362
 31
0.0
  0
LINE
  5
C0
  8
0
 10
357.31865427520631
 20
426.21965546594362
 30
0.0
 11
357.3186542752062
 21
456.88952844702231
 31
0.0
  0
LINE
  5
C1
  8
0
 10
412.31865427520609
 20
456.8895284470222
 30
0.0
 11
412.31865427520609
 21
426.21965546594379
 31
0.0
  0
LINE
  5
C2
  8
0
 10
412.31865427520609
 20
426.21965546594379
 30
0.0
 11
409.81865427520648
 21
421.88952844702243
 31
0.0
  0
LINE
  5
C3
  8
0
 10
357.3186542752062
 20
456.88952844702231
 30
0.0
 11
358.3186542752062
 21
457.88952844702231
 31
0.0
  0
LINE
  5
C4
  8
0
 10
411.31865427520609
 20
457.88952844702231
 30
0.0
 11
412.31865427520609
 21
456.8895284470222
 31
0.0
  0
LINE
  5
C5
  8
0
 10
359.8186542752062
 20
416.88952844702322
 30
0.0
 11
409.8186542752062
 21
416.88952844702322
 31
0.0
  0
LINE
  5
C6
  8
0
 10
357.31865427520631
 20
426.21965546594367
 30
0.0
 11
359.8186542752062
 21
426.21965546594367
 31
0.0
  0
LINE
  5
C7
  8
0
 10
412.31865427520609
 20
426.21965546594367
 30
0.0
 11
409.8186542752062
 21
426.21965546594367
 31
0.0
  0
LINE
  5
C8
  8
1
 10
354.81865427520592
 20
423.8895284470222
 30
0.0
 11
381.17165427520672
 21
423.8895284470222
 31
0.0
  0
LINE
  5
C9
  8
0
 10
357.3186542752062
 20
456.88952844702231
 30
0.0
 11
412.31865427520609
 21
456.8895284470222
 31
0.0
  0
LINE
  5
CA
  8
0
 10
412.3186542752062
 20
458.88952844702231
 30
0.0
 11
357.3186542752062
 21
458.8895284470222
 31
0.0
  0
LINE
  5
CB
  8
0
 10
412.31865427520609
 20
496.8895284470222
 30
0.0
 11
357.3186542752062
 21
496.8895284470222
 31
0.0
  0
LINE
  5
CC
  8
0
 10
411.31865427520609
 20
497.88952844702231
 30
0.0
 11
412.31865427520609
 21
496.88952844702231
 31
0.0
  0
LINE
  5
CD
  8
0
 10
411.31865427520609
 20
457.88952844702231
 30
0.0
 11
412.3186542752062
 21
458.88952844702231
 31
0.0
  0
LINE
  5
CE
  8
0
 10
357.3186542752062
 20
458.88952844702231
 30
0.0
 11
358.31865427520609
 21
457.88952844702231
 31
0.0
  0
LINE
  5
CF
  8
0
 10
358.31865427520609
 20
497.88952844702231
 30
0.0
 11
357.3186542752062
 21
496.88952844702231
 31
0.0
  0
LINE
  5
D0
  8
1
 10
384.8186542752062
 20
509.87503569339913
 30
0.0
 11
384.8186542752062
 21
400.3910805869528
 31
0.0
  0
LINE
  5
D1
  8
1
 10
318.15923398535108
 20
477.8895284470222
 30
0.0
 11
451.47807456506121
 21
477.8895284470222
 31
0.0
  0
LINE
  5
D2
  8
0
 10
440.31865427520609
 20
461.88952844702231
 30
0.0
 11
412.3186542752062
 21
461.88952844702231
 31
0.0
  0
LINE
  5
D3
  8
0
 10
429.3186542752062
 20
464.8895284470222
 30
0.0
 11
412.3186542752062
 21
464.8895284470222
 31
0.0
  0
LINE
  5
D4
  8
0
 10
429.3186542752062
 20
490.88952844702231
 30
0.0
 11
412.3186542752062
 21
490.88952844702231
 31
0.0
  0
LINE
  5
D5
  8
0
 10
412.3186542752062
 20
493.8895284470222
 30
0.0
 11
440.31865427520609
 21
493.8895284470222
 31
0.0
  0
ARC
  5
D6
  8
0
 10
429.3186542752062
 20
477.8895284470222
 30
0.0
 40
13.0
 50
269.9999927198557
 51
90.00000728014443
  0
LINE
  5
D7
  8
0
 10
442.3186542752062
 20
491.88952844702231
 30
0.0
 11
442.3186542752062
 21
463.88952844702231
 31
0.0
  0
ARC
  5
D8
  8
0
 10
440.31865427520609
 20
491.88952844702231
 30
0.0
 40
2.0
 50
0.0000000000000763
 51
89.999999999999986
  0
ARC
  5
D9
  8
0
 10
440.31865427520609
 20
463.88952844702231
 30
0.0
 40
2.0
 50
270.00000000000011
 51
0.0000000000000509
  0
CIRCLE
  5
DA
  8
0
 10
429.8186542752062
 20
477.8895284470222
 30
0.0
 40
6.5
  0
LINE
  5
DB
  8
1
 10
429.8186542752062
 20
500.04894873687732
 30
0.0
 11
429.8186542752062
 21
455.73010815716719
 31
0.0
  0
LINE
  5
DC
  8
1
 10
339.81865427520609
 20
500.04894873687732
 30
0.0
 11
339.81865427520609
 21
455.73010815716719
 31
0.0
  0
CIRCLE
  5
DD
  8
0
 10
339.81865427520609
 20
477.8895284470222
 30
0.0
 40
6.5
  0
ARC
  5
DE
  8
0
 10
329.31865427520609
 20
463.88952844702231
 30
0.0
 40
2.0
 50
180.0
 51
270.0
  0
ARC
  5
DF
  8
0
 10
329.31865427520609
 20
491.88952844702231
 30
0.0
 40
2.0
 50
90.000000000000057
 51
179.99999999999989
  0
LINE
  5
E0
  8
0
 10
340.31865427520609
 20
464.8895284470222
 30
0.0
 11
357.3186542752062
 21
464.8895284470222
 31
0.0
  0
LINE
  5
E1
  8
0
 10
340.31865427520609
 20
490.88952844702231
 30
0.0
 11
357.3186542752062
 21
490.88952844702231
 31
0.0
  0
LINE
  5
E2
  8
0
 10
329.31865427520609
 20
461.88952844702231
 30
0.0
 11
357.3186542752062
 21
461.88952844702231
 31
0.0
  0
LINE
  5
E3
  8
0
 10
327.31865427520609
 20
491.88952844702231
 30
0.0
 11
327.31865427520609
 21
463.88952844702231
 31
0.0
  0
LINE
  5
E4
  8
0
 10
357.3186542752062
 20
493.8895284470222
 30
0.0
 11
329.31865427520609
 21
493.8895284470222
 31
0.0
  0
ARC
  5
E5
  8
0
 10
340.31865427520609
 20
477.8895284470222
 30
0.0
 40
13.0
 50
89.999992719855598
 51
270.00000728014442
  0
LINE
  5
E6
  8
0
 10
358.31865427520609
 20
497.88952844702231
 30
0.0
 11
411.31865427520609
 21
497.88952844702231
 31
0.0
  0
LINE
  5
E7
  8
0
 10
412.3186542752062
 20
458.88952844702231
 30
0.0
 11
412.31865427520609
 21
496.88952844702231
 31
0.0
  0
LINE
  5
E8
  8
0
 10
357.3186542752062
 20
458.88952844702231
 30
0.0
 11
357.3186542752062
 21
496.88952844702231
 31
0.0
  0
LINE
  5
E9
  8
1
 10
600.05282889074817
 20
262.70702710510068
 30
0.0
 11
666.64528971686559
 21
262.70702710510068
 31
0.0
  0
LINE
  5
EA
  8
0
 10
620.34905930380683
 20
236.70702710510079
 30
0.0
 11
646.3490593038066
 21
236.70702710510071
 31
0.0
  0
LINE
  5
EB
  8
0
 10
619.34905930380694
 20
234.70702710510071
 30
0.0
 11
647.34906693320124
 21
234.70702710510079
 31
0.0
  0
LINE
  5
EC
  8
0
 10
617.34905930380683
 20
232.20702710510071
 30
0.0
 11
617.34905930380694
 21
232.70702710510079
 31
0.0
  0
ARC
  5
ED
  8
0
 10
619.34905930380694
 20
232.70702710510071
 30
0.0
 40
2.0
 50
90.000000000000057
 51
179.9999999999973
  0
ARC
  5
EE
  8
0
 10
647.34905930380671
 20
232.70702710510071
 30
0.0
 40
2.0
 50
0.0000000000026717
 51
89.999999999999986
  0
ARC
  5
EF
  8
0
 10
618.34905930380683
 20
236.5800028230143
 30
0.0
 40
2.0
 50
284.5876463207627
 51
360.0
  0
LINE
  5
F0
  8
0
 10
357.3186542752062
 20
87.405820727207825
 30
0.0
 11
357.3186542752062
 21
84.405820727207811
 31
0.0
  0
LINE
  5
F1
  8
0
 10
412.3186542752062
 20
87.405820727207825
 30
0.0
 11
412.31865427520609
 21
84.405820727207811
 31
0.0
  0
LINE
  5
F2
  8
0
 10
358.31865427520609
 20
48.405820727207811
 30
0.0
 11
411.31865427520609
 21
48.405820727207811
 31
0.0
  0
LINE
  5
F3
  8
0
 10
357.3186542752062
 20
52.405820727207811
 30
0.0
 11
329.31865427520609
 21
52.405820727207811
 31
0.0
  0
LINE
  5
F4
  8
0
 10
327.31865427520609
 20
54.405820727207811
 30
0.0
 11
327.31865427520609
 21
82.405820727207825
 31
0.0
  0
LINE
  5
F5
  8
0
 10
329.31865427520609
 20
84.405820727207811
 30
0.0
 11
357.3186542752062
 21
84.405820727207811
 31
0.0
  0
ARC
  5
F6
  8
0
 10
329.31865427520609
 20
54.405820727207811
 30
0.0
 40
2.0
 50
180.0
 51
269.99999999999989
  0
ARC
  5
F7
  8
0
 10
329.31865427520609
 20
82.405820727207825
 30
0.0
 40
2.0
 50
90.0
 51
180.0
  0
CIRCLE
  5
F8
  8
0
 10
339.81865427520609
 20
68.405820727207811
 30
0.0
 40
6.5
  0
LINE
  5
F9
  8
1
 10
339.81865427520609
 20
46.246400437352747
 30
0.0
 11
339.81865427520609
 21
90.565241017062874
 31
0.0
  0
LINE
  5
FA
  8
1
 10
429.8186542752062
 20
46.246400437352747
 30
0.0
 11
429.8186542752062
 21
90.565241017062874
 31
0.0
  0
CIRCLE
  5
FB
  8
0
 10
429.8186542752062
 20
68.405820727207811
 30
0.0
 40
6.5
  0
ARC
  5
FC
  8
0
 10
440.31865427520609
 20
82.405820727207825
 30
0.0
 40
2.0
 50
360.0
 51
89.999999999999943
  0
ARC
  5
FD
  8
0
 10
440.31865427520609
 20
54.405820727207811
 30
0.0
 40
2.0
 50
270.0
 51
359.99999999999989
  0
LINE
  5
FE
  8
0
 10
442.3186542752062
 20
54.405820727207811
 30
0.0
 11
442.3186542752062
 21
82.405820727207825
 31
0.0
  0
LINE
  5
FF
  8
0
 10
412.3186542752062
 20
52.405820727207811
 30
0.0
 11
440.31865427520609
 21
52.405820727207811
 31
0.0
  0
LINE
  5
100
  8
0
 10
440.31865427520609
 20
84.405820727207811
 30
0.0
 11
412.3186542752062
 21
84.405820727207811
 31
0.0
  0
LINE
  5
101
  8
1
 10
318.15923398535108
 20
68.405820727207811
 30
0.0
 11
451.47807456506121
 21
68.405820727207811
 31
0.0
  0
LINE
  5
102
  8
1
 10
384.8186542752062
 20
36.420313480830998
 30
0.0
 11
384.8186542752062
 21
145.90426858727719
 31
0.0
  0
LINE
  5
103
  8
0
 10
358.31865427520609
 20
48.405820727207811
 30
0.0
 11
357.3186542752062
 21
49.405820727207811
 31
0.0
  0
LINE
  5
104
  8
0
 10
357.3186542752062
 20
87.405820727207825
 30
0.0
 11
358.31865427520609
 21
88.405820727207811
 31
0.0
  0
LINE
  5
105
  8
0
 10
411.31865427520609
 20
88.405820727207811
 30
0.0
 11
412.3186542752062
 21
87.405820727207825
 31
0.0
  0
LINE
  5
106
  8
0
 10
411.31865427520609
 20
48.405820727207811
 30
0.0
 11
412.31865427520609
 21
49.405820727207811
 31
0.0
  0
LINE
  5
107
  8
0
 10
412.31865427520609
 20
49.40582072720786
 30
0.0
 11
357.3186542752062
 21
49.40582072720786
 31
0.0
  0
LINE
  5
108
  8
0
 10
412.3186542752062
 20
87.405820727207825
 30
0.0
 11
357.3186542752062
 21
87.405820727207868
 31
0.0
  0
LINE
  5
109
  8
0
 10
357.3186542752062
 20
89.405820727207754
 30
0.0
 11
412.31865427520609
 21
89.405820727207811
 31
0.0
  0
LINE
  5
10A
  8
1
 10
354.81865427520592
 20
122.4058207272078
 30
0.0
 11
381.17165427520672
 21
122.4058207272078
 31
0.0
  0
LINE
  5
10B
  8
0
 10
412.31865427520609
 20
120.07569370828629
 30
0.0
 11
357.31865427520631
 21
120.07569370828629
 31
0.0
  0
LINE
  5
10C
  8
0
 10
359.8186542752062
 20
129.4058207272069
 30
0.0
 11
376.8186542752062
 21
129.4058207272069
 31
0.0
  0
LINE
  5
10D
  8
0
 10
411.31865427520609
 20
88.405820727207811
 30
0.0
 11
412.31865427520609
 21
89.405820727207811
 31
0.0
  0
LINE
  5
10E
  8
0
 10
357.3186542752062
 20
89.405820727207754
 30
0.0
 11
358.3186542752062
 21
88.405820727207754
 31
0.0
  0
LINE
  5
10F
  8
0
 10
412.31865427520609
 20
120.07569370828629
 30
0.0
 11
409.81865427520648
 21
124.4058207272077
 31
0.0
  0
LINE
  5
110
  8
0
 10
412.31865427520609
 20
89.405820727207811
 30
0.0
 11
412.31865427520609
 21
120.07569370828629
 31
0.0
  0
LINE
  5
111
  8
0
 10
357.31865427520631
 20
120.07569370828639
 30
0.0
 11
357.3186542752062
 21
89.405820727207754
 31
0.0
  0
LINE
  5
112
  8
0
 10
359.8186542752062
 20
124.4058207272077
 30
0.0
 11
357.31865427520631
 21
120.07569370828639
 31
0.0
  0
LINE
  5
113
  8
0
 10
406.93190292925749
 20
134.40582072720781
 30
0.0
 11
362.7054056211548
 21
134.40582072720781
 31
0.0
  0
LINE
  5
114
  8
0
 10
409.8186542752062
 20
129.4058207272069
 30
0.0
 11
406.93190292925749
 21
134.40582072720781
 31
0.0
  0
LINE
  5
115
  8
0
 10
409.81865427520609
 20
124.40582072720829
 30
0.0
 11
409.8186542752062
 21
129.4058207272069
 31
0.0
  0
LINE
  5
116
  8
0
 10
359.8186542752062
 20
129.4058207272069
 30
0.0
 11
359.8186542752062
 21
124.4058207272076
 31
0.0
  0
LINE
  5
117
  8
0
 10
362.7054056211548
 20
134.40582072720781
 30
0.0
 11
359.8186542752062
 21
129.4058207272069
 31
0.0
  0
LINE
  5
118
  8
0
 10
358.31865427520688
 20
88.405820727207811
 30
0.0
 11
411.3186542752054
 21
88.405820727207811
 31
0.0
  0
LINE
  5
119
  8
0
 10
357.3186542752062
 20
52.405820727207811
 30
0.0
 11
357.3186542752062
 21
49.405820727207811
 31
0.0
  0
LINE
  5
11A
  8
0
 10
412.31865427520597
 20
52.405820727207811
 30
0.0
 11
412.31865427520609
 21
49.405820727207811
 31
0.0
  0
LINE
  5
11B
  8
0
 10
357.3186542752062
 20
52.405820727207811
 30
0.0
 11
412.31865427520609
 21
52.405820727207811
 31
0.0
  0
LINE
  5
11C
  8
0
 10
357.3186542752062
 20
84.405820727207811
 30
0.0
 11
412.31865427520597
 21
84.405820727207811
 31
0.0
  0
LINE
  5
11D
  8
0
 10
409.81865427519881
 20
84.405820727207796
 30
0.0
 11
409.81865427519881
 21
52.405820727207811
 31
0.0
  0
LINE
  5
11E
  8
0
 10
359.8186542752062
 20
84.405820727207796
 30
0.0
 11
359.81865427520518
 21
52.405820727207811
 31
0.0
  0
LINE
  5
11F
  8
0
 10
617.34905930380683
 20
232.20703719784029
 30
0.0
 11
617.34905930380683
 21
232.20702710510071
 31
0.0
  0
LINE
  5
120
  8
0
 10
620.34905930380683
 20
236.57999203342109
 30
0.0
 11
620.34905930380683
 21
236.70702710510079
 31
0.0
  0
ARC
  5
121
  8
0
 10
648.34905930380683
 20
236.5800028230143
 30
0.0
 40
2.0
 50
180.0
 51
255.41235367923741
  0
ARC
  5
122
  8
0
 10
106.74702107249389
 20
236.5800028230143
 30
0.0
 40
2.0
 50
284.5876463207627
 51
360.0
  0
LINE
  5
123
  8
0
 10
137.74702107249391
 20
232.20703719784029
 30
0.0
 11
137.74702107249391
 21
232.20702710510071
 31
0.0
  0
ARC
  5
124
  8
0
 10
136.74702107249391
 20
236.5800028230143
 30
0.0
 40
2.0
 50
180.0
 51
255.41235367923741
  0
ARC
  5
125
  8
0
 10
107.74702107249399
 20
232.70702710510071
 30
0.0
 40
2.0
 50
90.000000000000057
 51
179.9999999999973
  0
ARC
  5
126
  8
0
 10
135.74702107249379
 20
232.70702710510071
 30
0.0
 40
2.0
 50
0.0000000000026717
 51
89.999999999999986
  0
LINE
  5
127
  8
0
 10
137.74702107249391
 20
232.20702710510071
 30
0.0
 11
137.74702107249379
 21
232.70702710510079
 31
0.0
  0
LINE
  5
128
  8
0
 10
135.74702107249379
 20
234.70702710510071
 30
0.0
 11
107.7470134430995
 21
234.70702710510079
 31
0.0
  0
LINE
  5
129
  8
0
 10
134.74702107249391
 20
236.70702710510079
 30
0.0
 11
108.74702107249399
 21
236.70702710510071
 31
0.0
  0
LINE
  5
12A
  8
1
 10
155.0432514855525
 20
262.70702710510068
 30
0.0
 11
88.450790659435128
 21
262.70702710510068
 31
0.0
  0
LINE
  5
12B
  8
0
 10
140.74702107249379
 20
290.20702710510062
 30
0.0
 11
102.74702107249379
 21
290.20702710510062
 31
0.0
  0
LINE
  5
12C
  8
0
 10
137.24702107249391
 20
222.70702710510071
 30
0.0
 11
106.24702107249389
 21
222.70702710510071
 31
0.0
  0
LINE
  5
12D
  8
0
 10
101.74702107249379
 20
289.20702710510062
 30
0.0
 11
101.74702107249379
 21
236.20702710510071
 31
0.0
  0
LINE
  5
12E
  8
1
 10
121.74702107249389
 20
302.99688217756437
 30
0.0
 11
121.74702107249389
 21
214.1128242065499
 31
0.0
  0
LINE
  5
12F
  8
0
 10
137.74702107249391
 20
223.20702710510071
 30
0.0
 11
137.74702107249391
 21
232.20703282714661
 31
0.0
  0
LINE
  5
130
  8
0
 10
140.74702107249379
 20
290.20702710510062
 30
0.0
 11
141.74702107249379
 21
289.20702710510062
 31
0.0
  0
LINE
  5
131
  8
0
 10
101.74702107249379
 20
289.20702710510062
 30
0.0
 11
102.74702107249379
 21
290.20702710510062
 31
0.0
  0
LINE
  5
132
  8
0
 10
137.74702107249391
 20
223.20702710510071
 30
0.0
 11
137.24702107249391
 21
222.70702710510071
 31
0.0
  0
LINE
  5
133
  8
0
 10
140.74702107249379
 20
235.20702710510071
 30
0.0
 11
141.74702107249379
 21
236.20702710510071
 31
0.0
  0
ARC
  5
134
  8
0
 10
140.74702107249391
 20
232.20702710510071
 30
0.0
 40
3.0
 50
90.000000000046697
 51
179.99998178616201
  0
ARC
  5
135
  8
0
 10
102.74702107249389
 20
232.20702710510071
 30
0.0
 40
3.0
 50
0.0000182138380496
 51
89.999999999953303
  0
LINE
  5
136
  8
0
 10
102.74702107249389
 20
235.20702710510071
 30
0.0
 11
101.74702107249389
 21
236.20702710510071
 31
0.0
  0
LINE
  5
137
  8
0
 10
105.74702107249389
 20
223.20702710510071
 30
0.0
 11
106.24702107249389
 21
222.70702710510071
 31
0.0
  0
LINE
  5
138
  8
0
 10
105.74702107249389
 20
223.20702710510071
 30
0.0
 11
105.74702107249389
 21
232.20703282714661
 31
0.0
  0
LINE
  5
139
  8
0
 10
182.7470210724922
 20
342.70702710510068
 30
0.0
 11
182.74702107249229
 21
292.70702710510079
 31
0.0
  0
LINE
  5
13A
  8
0
 10
177.74702107249371
 20
254.70702710510071
 30
0.0
 11
184.14702107249309
 21
254.70702710510071
 31
0.0
  0
LINE
  5
13B
  8
0
 10
184.14702107249281
 20
270.7070271051013
 30
0.0
 11
184.74702107249371
 21
269.66779662055842
 31
0.0
  0
LINE
  5
13C
  8
0
 10
184.14702107249309
 20
270.70702710510068
 30
0.0
 11
177.74702107249371
 21
270.70702710510068
 31
0.0
  0
LINE
  5
13D
  8
0
 10
184.14702107249281
 20
254.70702710510011
 30
0.0
 11
184.74702107249371
 21
255.74625758964299
 31
0.0
  0
LINE
  5
13E
  8
0
 10
184.74702107249371
 20
255.74625758964299
 30
0.0
 11
184.74702107249371
 21
269.66779662055842
 31
0.0
  0
LINE
  5
13F
  8
0
 10
184.14702107249309
 20
254.70702710510071
 30
0.0
 11
184.14702107249309
 21
270.70702710510068
 31
0.0
  0
LINE
  5
140
  8
0
 10
141.74702107249371
 20
236.20702710510071
 30
0.0
 11
141.74702107249539
 21
289.20702710510233
 31
0.0
  0
LINE
  5
141
  8
0
 10
177.74702107249379
 20
289.70702710510068
 30
0.0
 11
177.74702107249379
 21
237.70702710510099
 31
0.0
  0
LINE
  5
142
  8
0
 10
159.74702107249379
 20
293.20702710510068
 30
0.0
 11
159.74702107249379
 21
341.70702710510068
 31
0.0
  0
LINE
  5
143
  8
1
 10
175.74702107249391
 20
326.70702710510108
 30
0.0
 11
175.74701699490879
 21
308.70702710510147
 31
0.0
  0
LINE
  5
144
  8
1
 10
175.74702107249391
 20
326.70702710510108
 30
0.0
 11
175.74701699490879
 21
308.70702710510147
 31
0.0
  0
ARC
  5
145
  8
0
 10
180.74702107249379
 20
289.70702710510068
 30
0.0
 40
3.0
 50
90.000000000000028
 51
179.99999999999989
  0
ARC
  5
146
  8
0
 10
156.74702107249379
 20
293.20702710510068
 30
0.0
 40
3.0
 50
270.00000000000011
 51
360.0
  0
ARC
  5
147
  8
0
 10
160.74702107249379
 20
341.70702710510068
 30
0.0
 40
1.0
 50
90.000000000000028
 51
180.0
  0
LINE
  5
148
  8
0
 10
182.74702107249229
 20
292.70702710510068
 30
0.0
 11
180.74702107249379
 21
292.70702710510068
 31
0.0
  0
LINE
  5
149
  8
0
 10
187.74702107249379
 20
295.59377845104967
 30
0.0
 11
182.74702107249229
 21
292.70702710510068
 31
0.0
  0
LINE
  5
14A
  8
0
 10
187.74702107249379
 20
339.82027575915168
 30
0.0
 11
187.74702107249379
 21
295.59377845104967
 31
0.0
  0
LINE
  5
14B
  8
0
 10
182.7470210724922
 20
342.70702710510068
 30
0.0
 11
187.74702107249379
 21
339.82027575915168
 31
0.0
  0
LINE
  5
14C
  8
0
 10
160.74702107249379
 20
342.70702710510068
 30
0.0
 11
182.7470210724922
 21
342.70702710510068
 31
0.0
  0
LINE
  5
14D
  8
1
 10
149.74702107249379
 20
317.70702710510068
 30
0.0
 11
197.74702107249379
 21
317.70702710510068
 31
0.0
  0
LINE
  5
14E
  8
0
 10
141.74702107249379
 20
289.20702710510068
 30
0.0
 11
142.74702107249379
 21
290.20702710510068
 31
0.0
  0
LINE
  5
14F
  8
0
 10
142.74702107249371
 20
235.20702710510071
 30
0.0
 11
141.74702107249371
 21
236.20702710510071
 31
0.0
  0
LINE
  5
150
  8
0
 10
142.74702107249379
 20
290.20702710510068
 30
0.0
 11
156.74702107249379
 21
290.20702710510068
 31
0.0
  0
LINE
  5
151
  8
0
 10
173.4168940535709
 20
235.20702710510071
 30
0.0
 11
177.74702107249379
 21
237.7070271051011
 31
0.0
  0
LINE
  5
152
  8
0
 10
142.74702107249371
 20
235.20702710510071
 30
0.0
 11
173.41689405357241
 21
235.20702710510071
 31
0.0
  0
LINE
  5
153
  8
1
 10
92.747021072493794
 20
262.70702710510068
 30
0.0
 11
194.74702107249379
 21
262.70702710510068
 31
0.0
  0
CIRCLE
  5
154
  8
3
 10
175.74701903370129
 20
317.70702710510068
 30
0.0
 40
3.3235000000002231
  0
CIRCLE
  5
155
  8
0
 10
175.74701903370129
 20
317.70702710510068
 30
0.0
 40
4.000000000000056
  0
LINE
  5
156
  8
0
 10
177.74701903207259
 20
318.86172764254081
 30
0.0
 11
177.74701903207259
 21
316.55232656578238
 31
0.0
  0
LINE
  5
157
  8
0
 10
177.7470190320708
 20
316.55232656766088
 30
0.0
 11
175.74701903207259
 21
315.39762602928141
 31
0.0
  0
LINE
  5
158
  8
0
 10
175.74701903370061
 20
315.39762603022268
 30
0.0
 11
173.74701903370061
 21
316.55232656860159
 31
0.0
  0
LINE
  5
159
  8
0
 10
173.74701903532861
 20
316.55232656766208
 30
0.0
 11
173.74701903532861
 21
318.86172764442051
 31
0.0
  0
LINE
  5
15A
  8
0
 10
173.74701903532861
 20
318.86172764254047
 30
0.0
 11
175.74701903532861
 21
320.01642818092012
 31
0.0
  0
LINE
  5
15B
  8
0
 10
175.74701903370061
 20
320.01642817997867
 30
0.0
 11
177.74701903370061
 21
318.86172764159988
 31
0.0
  0
LINE
  5
15C
  8
2
 10
626.84905930380683
 20
223.70702710510031
 30
0.0
 11
625.84905930380751
 21
222.70702710510071
 31
0.0
  0
LINE
  5
15D
  8
2
 10
639.8490593038066
 20
223.70702710510071
 30
0.0
 11
626.84905930380683
 21
223.70702710510031
 31
0.0
  0
LINE
  5
15E
  8
2
 10
640.84905930380614
 20
222.70702710510071
 30
0.0
 11
639.8490593038066
 21
223.70702710510071
 31
0.0
  0
LINE
  5
15F
  8
2
 10
626.84905930380683
 20
235.70702710510119
 30
0.0
 11
625.84905930380614
 21
236.70702710510071
 31
0.0
  0
LINE
  5
160
  8
2
 10
639.8490593038066
 20
235.70702710510071
 30
0.0
 11
626.84905930380683
 21
235.70702710510119
 31
0.0
  0
LINE
  5
161
  8
2
 10
640.84905930380751
 20
236.70702710510071
 30
0.0
 11
639.8490593038066
 21
235.70702710510071
 31
0.0
  0
LINE
  5
162
  8
2
 10
626.84905930380683
 20
223.70702710510031
 30
0.0
 11
626.84905930380683
 21
235.70702710510119
 31
0.0
  0
LINE
  5
163
  8
2
 10
639.8490593038066
 20
223.70702710510071
 30
0.0
 11
639.8490593038066
 21
235.70702710510071
 31
0.0
  0
LINE
  5
164
  8
2
 10
115.24702107249389
 20
223.70702710510071
 30
0.0
 11
115.24702107249389
 21
235.70702710510071
 31
0.0
  0
LINE
  5
165
  8
2
 10
128.24702107249379
 20
223.7070271051002
 30
0.0
 11
128.24702107249379
 21
235.7070271051011
 31
0.0
  0
LINE
  5
166
  8
2
 10
114.2470210724931
 20
236.70702710510071
 30
0.0
 11
115.24702107249389
 21
235.70702710510071
 31
0.0
  0
LINE
  5
167
  8
2
 10
115.24702107249389
 20
235.70702710510071
 30
0.0
 11
128.24702107249379
 21
235.70702710510119
 31
0.0
  0
LINE
  5
168
  8
2
 10
128.24702107249379
 20
235.70702710510119
 30
0.0
 11
129.2470210724945
 21
236.70702710510071
 31
0.0
  0
LINE
  5
169
  8
2
 10
114.24702107249431
 20
222.70702710510071
 30
0.0
 11
115.24702107249389
 21
223.70702710510071
 31
0.0
  0
LINE
  5
16A
  8
2
 10
115.24702107249389
 20
223.70702710510071
 30
0.0
 11
128.24702107249379
 21
223.7070271051002
 31
0.0
  0
LINE
  5
16B
  8
2
 10
128.24702107249379
 20
223.7070271051002
 30
0.0
 11
129.24702107249311
 21
222.70702710510071
 31
0.0
  0
LINE
  5
16C
  8
0
 10
359.8186542752062
 20
124.4058207272078
 30
0.0
 11
409.81865427520609
 21
124.40582072720839
 31
0.0
  0
LINE
  5
16D
  8
0
 10
376.81865427520609
 20
124.40582072720809
 30
0.0
 11
376.81865427520609
 21
130.8058207272075
 31
0.0
  0
LINE
  5
16E
  8
0
 10
392.81865427520682
 20
130.8058207272073
 30
0.0
 11
391.77942379066388
 21
131.40582072720809
 31
0.0
  0
LINE
  5
16F
  8
0
 10
392.8186542752062
 20
130.8058207272075
 30
0.0
 11
392.8186542752062
 21
124.40582072720809
 31
0.0
  0
LINE
  5
170
  8
0
 10
376.81865427520552
 20
130.8058207272073
 30
0.0
 11
377.8578847597484
 21
131.40582072720809
 31
0.0
  0
LINE
  5
171
  8
0
 10
377.8578847597484
 20
131.40582072720809
 30
0.0
 11
391.77942379066388
 21
131.40582072720809
 31
0.0
  0
LINE
  5
172
  8
0
 10
376.81865427520609
 20
130.8058207272075
 30
0.0
 11
392.8186542752062
 21
130.8058207272075
 31
0.0
  0
LINE
  5
173
  8
0
 10
392.8186542752062
 20
129.4058207272069
 30
0.0
 11
409.8186542752062
 21
129.4058207272069
 31
0.0
  0
TEXT
  5
2D9
  8
0
 62
     3
 10
0.0
 20
0.0
 30
0.0
 40
10.0
  1
ANT40A
  7
STANDARD1
  0
ENDSEC
  0
EOF
