  0
SECTION
  2
HEADER
  9
$ACADVER
  1
AC1009
  9
$INSBASE
 10
0.0
 20
0.0
 30
0.0
  9
$EXTMIN
 10
-0.0204638472032742
 20
-2.960436562073669
 30
0.0
  9
$EXTMAX
 10
665.01303006298849
 20
514.712527562491
 30
0.0
  9
$LIMMIN
 10
0.0
 20
0.0
  9
$LIMMAX
 10
750.0
 20
540.0
  9
$ORTHOMODE
 70
     1
  9
$REGENMODE
 70
     1
  9
$FILLMODE
 70
     1
  9
$QTEXTMODE
 70
     0
  9
$MIRRTEXT
 70
     0
  9
$DRAGMODE
 70
     2
  9
$LTSCALE
 40
20.0
  9
$OSMODE
 70
    37
  9
$ATTMODE
 70
     1
  9
$TEXTSIZE
 40
0.2
  9
$TRACEWID
 40
0.05
  9
$TEXTSTYLE
  7
STANDARD
  9
$CLAYER
  8
0
  9
$CELTYPE
  6
BYLAYER
  9
$CECOLOR
 62
   256
  9
$DIMSCALE
 40
2.0
  9
$DIMASZ
 40
3.0
  9
$DIMEXO
 40
2.0
  9
$DIMDLI
 40
0.38
  9
$DIMRND
 40
0.0
  9
$DIMDLE
 40
0.0
  9
$DIMEXE
 40
2.0
  9
$DIMTP
 40
0.0
  9
$DIMTM
 40
0.0
  9
$DIMTXT
 40
3.2000000000000002
  9
$DIMCEN
 40
0.0
  9
$DIMTSZ
 40
0.0
  9
$DIMTOL
 70
     0
  9
$DIMLIM
 70
     0
  9
$DIMTIH
 70
     0
  9
$DIMTOH
 70
     0
  9
$DIMSE1
 70
     0
  9
$DIMSE2
 70
     0
  9
$DIMTAD
 70
     1
  9
$DIMZIN
 70
     0
  9
$DIMBLK
  1

  9
$DIMASO
 70
     0
  9
$DIMSHO
 70
     0
  9
$DIMPOST
  1

  9
$DIMAPOST
  1

  9
$DIMALT
 70
     0
  9
$DIMALTD
 70
     2
  9
$DIMALTF
 40
25.399999999999999
  9
$DIMLFAC
 40
1.0
  9
$DIMTOFL
 70
     1
  9
$DIMTVP
 40
1.6000000000000001
  9
$DIMTIX
 70
     1
  9
$DIMSOXD
 70
     0
  9
$DIMSAH
 70
     0
  9
$DIMBLK1
  1

  9
$DIMBLK2
  1

  9
$DIMSTYLE
  2
STANDARD
  9
$DIMCLRD
 70
     0
  9
$DIMCLRE
 70
     0
  9
$DIMCLRT
 70
     0
  9
$DIMTFAC
 40
1.0
  9
$DIMGAP
 40
0.09
  9
$LUNITS
 70
     2
  9
$LUPREC
 70
     1
  9
$SKETCHINC
 40
0.1
  9
$FILLETRAD
 40
0.0
  9
$AUNITS
 70
     0
  9
$AUPREC
 70
     1
  9
$MENU
  1
E:\r13\win\SUPPORT\ACAD
  9
$ELEVATION
 40
0.0
  9
$PELEVATION
 40
0.0
  9
$THICKNESS
 40
0.0
  9
$LIMCHECK
 70
     0
  9
$BLIPMODE
 70
     0
  9
$CHAMFERA
 40
0.0
  9
$CHAMFERB
 40
0.0
  9
$SKPOLY
 70
     0
  9
$TDCREATE
 40
2449839.7762384261
  9
$TDUPDATE
 40
2458753.3953962852
  9
$TDINDWG
 40
0.0565357986
  9
$TDUSRTIMER
 40
0.0565357986
  9
$USRTIMER
 70
     1
  9
$ANGBASE
 50
0.0
  9
$ANGDIR
 70
     0
  9
$PDMODE
 70
     0
  9
$PDSIZE
 40
0.0
  9
$PLINEWID
 40
0.0
  9
$COORDS
 70
     1
  9
$SPLFRAME
 70
     0
  9
$SPLINETYPE
 70
     6
  9
$SPLINESEGS
 70
     8
  9
$ATTDIA
 70
     0
  9
$ATTREQ
 70
     1
  9
$HANDLING
 70
     1
  9
$HANDSEED
  5
3A5
  9
$SURFTAB1
 70
     6
  9
$SURFTAB2
 70
     6
  9
$SURFTYPE
 70
     6
  9
$SURFU
 70
     6
  9
$SURFV
 70
     6
  9
$UCSNAME
  2

  9
$UCSORG
 10
0.0
 20
0.0
 30
0.0
  9
$UCSXDIR
 10
1.0
 20
0.0
 30
0.0
  9
$UCSYDIR
 10
0.0
 20
1.0
 30
0.0
  9
$PUCSNAME
  2

  9
$PUCSORG
 10
0.0
 20
0.0
 30
0.0
  9
$PUCSXDIR
 10
1.0
 20
0.0
 30
0.0
  9
$PUCSYDIR
 10
0.0
 20
1.0
 30
0.0
  9
$USERI1
 70
     0
  9
$USERI2
 70
     1
  9
$USERI3
 70
     0
  9
$USERI4
 70
     0
  9
$USERI5
 70
     0
  9
$USERR1
 40
0.0
  9
$USERR2
 40
0.0
  9
$USERR3
 40
0.0
  9
$USERR4
 40
0.0
  9
$USERR5
 40
0.0
  9
$WORLDVIEW
 70
     1
  9
$SHADEDGE
 70
     3
  9
$SHADEDIF
 70
    70
  9
$TILEMODE
 70
     1
  9
$MAXACTVP
 70
    16
  9
$PLIMCHECK
 70
     0
  9
$PEXTMIN
 10
1.0000000000000000E+020
 20
1.0000000000000000E+020
 30
1.0000000000000000E+020
  9
$PEXTMAX
 10
-1.0000000000000000E+020
 20
-1.0000000000000000E+020
 30
-1.0000000000000000E+020
  9
$PLIMMIN
 10
0.0
 20
0.0
  9
$PLIMMAX
 10
12.0
 20
9.0
  9
$UNITMODE
 70
     0
  9
$VISRETAIN
 70
     0
  9
$PLINEGEN
 70
     0
  9
$PSLTSCALE
 70
     0
  0
ENDSEC
  0
SECTION
  2
TABLES
  0
TABLE
  2
VPORT
 70
     1
  0
VPORT
  2
*ACTIVE
 70
     0
 10
0.0
 20
0.0
 11
1.0
 21
1.0
 12
724.69325153374234
 22
300.0
 13
0.0
 23
0.0
 14
20.0
 24
20.0
 15
20.0
 25
20.0
 16
0.0
 26
0.0
 36
1.0
 17
0.0
 27
0.0
 37
0.0
 40
600.0
 41
2.415644171779141
 42
50.0
 43
0.0
 44
0.0
 50
0.0
 51
0.0
 71
     0
 72
   500
 73
     1
 74
     0
 75
     0
 76
     0
 77
     0
 78
     2
  0
ENDTAB
  0
TABLE
  2
LTYPE
 70
     4
  0
LTYPE
  2
CONTINUOUS
 70
     0
  3
Solid Line
 72
    65
 73
     0
 40
0.0
  0
LTYPE
  2
CENTER
 70
     0
  3
____ _ ____ _ ____ _ ____ _ ____ _ ____ _ ____
 72
    65
 73
     4
 40
2.0
 49
1.25
 49
-0.25
 49
0.25
 49
-0.25
  0
LTYPE
  2
HIDDEN
 70
     0
  3
_ _ _ _ _ _ _ _ _ _ _ _ _ _ _ _ _ _ _ _ _ _ _
 72
    65
 73
     2
 40
0.375
 49
0.25
 49
-0.125
  0
LTYPE
  2
PHANTOM2
 70
     0
  3
___ _ _ ___ _ _ ___ _ _ ___ _ _
 72
    65
 73
     6
 40
1.25
 49
0.625
 49
-0.125
 49
0.125
 49
-0.125
 49
0.125
 49
-0.125
  0
ENDTAB
  0
TABLE
  2
LAYER
 70
     4
  0
LAYER
  2
0
 70
     0
 62
     7
  6
CONTINUOUS
  0
LAYER
  2
1
 70
     0
 62
     1
  6
CENTER
  0
LAYER
  2
2
 70
     0
 62
     2
  6
HIDDEN
  0
LAYER
  2
3
 70
     0
 62
     3
  6
CONTINUOUS
  0
ENDTAB
  0
TABLE
  2
STYLE
 70
     2
  0
STYLE
  2
STANDARD
 70
     0
 40
0.0
 41
1.0
 50
0.0
 71
     0
 42
0.2
  3
TXT
  4
BIGFONT
  0
STYLE
  2
STANDARD1
 70
     0
 40
0.0
 41
1.0
 50
0.0
 71
     0
 42
3.0
  3
txt
  4

  0
ENDTAB
  0
TABLE
  2
VIEW
 70
     1
  0
VIEW
  2
ALL
 70
     0
 40
540.0
 10
441.98319327731087
 20
270.0
 41
0.0
 11
0.0
 21
0.0
 31
1.0
 12
0.0
 22
0.0
 32
0.0
 42
0.0
 43
0.0
 44
0.0
 50
0.0
 71
     0
  0
ENDTAB
  0
TABLE
  2
UCS
 70
     0
  0
ENDTAB
  0
TABLE
  2
APPID
 70
     6
  0
APPID
  2
ACAD
 70
     0
  0
APPID
  2
ACAD_MLEADERVER
 70
     0
  0
APPID
  2
ACAD_EXEMPT_FROM_CAD_STANDARDS
 70
     0
  0
APPID
  2
ACAD_NAV_VCDISPLAY
 70
     0
  0
APPID
  2
ACAD_DSTYLE_DIMJAG
 70
     0
  0
APPID
  2
ACAD_DSTYLE_DIMTALN
 70
     0
  0
ENDTAB
  0
TABLE
  2
DIMSTYLE
 70
     1
  0
DIMSTYLE
  2
STANDARD
 70
     0
  3

  4

  5

  6

  7

 40
1.0
 41
0.18
 42
0.0625
 43
0.38
 44
0.18
 45
0.0
 46
0.0
 47
0.0
 48
0.0
140
0.18
141
0.09
142
0.0
143
25.399999999999999
144
1.0
145
0.0
146
1.0
147
0.09
 71
     0
 72
     0
 73
     1
 74
     1
 75
     0
 76
     0
 77
     0
 78
     0
170
     0
171
     2
172
     0
173
     0
174
     0
175
     0
176
     0
177
     0
178
     0
  0
ENDTAB
  0
ENDSEC
  0
SECTION
  2
BLOCKS
  0
BLOCK
  8
0
  2
$MODEL_SPACE
 70
     0
 10
0.0
 20
0.0
 30
0.0
  3
$MODEL_SPACE
  1

  0
ENDBLK
  5
1D5
  8
0
  0
BLOCK
 67
     1
  8
0
  2
$PAPER_SPACE
 70
     0
 10
0.0
 20
0.0
 30
0.0
  3
$PAPER_SPACE
  1

  0
ENDBLK
  5
1D3
 67
     1
  8
0
  0
ENDSEC
  0
SECTION
  2
ENTITIES
  0
LINE
  5
3F
  8
0
 10
403.19021188812951
 20
464.71252756249078
 30
0.0
 11
404.19021188812951
 21
463.71252756249078
 31
0.0
  0
LINE
  5
40
  8
0
 10
349.1902118881294
 20
463.71252756249089
 30
0.0
 11
350.1902118881294
 21
464.712527562491
 31
0.0
  0
LINE
  5
41
  8
0
 10
349.1902118881294
 20
463.71252756249089
 30
0.0
 11
349.19021188812951
 21
433.71252756249231
 31
0.0
  0
LINE
  5
42
  8
0
 10
351.69021188812872
 20
429.38240054357021
 30
0.0
 11
349.19021188812872
 21
433.71252756249248
 31
0.0
  0
LINE
  5
43
  8
0
 10
401.69021188812872
 20
423.71252756249248
 30
0.0
 11
401.69021188812872
 21
445.712527562491
 31
0.0
  0
LINE
  5
44
  8
0
 10
352.69021188812872
 20
446.71252756249078
 30
0.0
 11
400.69021188812872
 21
446.71252756249089
 31
0.0
  0
LINE
  5
45
  8
0
 10
401.69021188812872
 20
423.71252756249248
 30
0.0
 11
398.80346054217961
 21
418.71252756249089
 31
0.0
  0
LINE
  5
46
  8
0
 10
398.80346054217961
 20
418.71252756249089
 30
0.0
 11
354.57696323407771
 21
418.71252756249089
 31
0.0
  0
LINE
  5
47
  8
0
 10
401.69021188812872
 20
423.71252756249243
 30
0.0
 11
351.69021188812872
 21
423.71252756249243
 31
0.0
  0
LINE
  5
48
  8
0
 10
401.69021188812872
 20
429.38240054357038
 30
0.0
 11
404.19021188812872
 21
433.71252756249248
 31
0.0
  0
LINE
  5
49
  8
0
 10
404.19021188812962
 20
463.71252756249089
 30
0.0
 11
404.19021188812962
 21
433.71252756249231
 31
0.0
  0
LINE
  5
4A
  8
0
 10
351.69021188812872
 20
423.71252756249248
 30
0.0
 11
354.57696323407782
 21
418.71252756249089
 31
0.0
  0
LINE
  5
4B
  8
0
 10
351.69021188812872
 20
423.71252756249248
 30
0.0
 11
351.69021188812872
 21
445.71252756249089
 31
0.0
  0
LINE
  5
4C
  8
0
 10
351.69021188812872
 20
445.71252756249089
 30
0.0
 11
352.69021188812872
 21
446.71252756249078
 31
0.0
  0
LINE
  5
4D
  8
0
 10
400.69021188812872
 20
446.71252756249089
 30
0.0
 11
401.69021188812872
 21
445.712527562491
 31
0.0
  0
LINE
  5
4E
  8
0
 10
349.19021188812872
 20
433.71252756249248
 30
0.0
 11
351.69021188812872
 21
433.71252756249248
 31
0.0
  0
LINE
  5
4F
  8
0
 10
404.19021188812962
 20
433.71252756249402
 30
0.0
 11
401.69021188812872
 21
433.71252756249402
 31
0.0
  0
LINE
  5
50
  8
1
 10
341.64458655264832
 20
430.71252960128339
 30
0.0
 11
377.09278837766169
 21
430.71252960128339
 31
0.0
  0
LINE
  5
51
  8
0
 10
404.19021188812872
 20
465.71252756248361
 30
0.0
 11
403.19021188812872
 21
464.712527562491
 31
0.0
  0
LINE
  5
52
  8
0
 10
349.1902118881286
 20
465.71252756249089
 30
0.0
 11
404.19021188812872
 21
465.71252756248361
 31
0.0
  0
LINE
  5
53
  8
0
 10
350.19021188812678
 20
464.712527562491
 30
0.0
 11
349.1902118881286
 21
465.71252756249089
 31
0.0
  0
LINE
  5
54
  8
0
 10
404.19021188812872
 20
503.71252756249828
 30
0.0
 11
403.19021188814679
 21
504.71252756249089
 31
0.0
  0
LINE
  5
55
  8
0
 10
349.1902118881286
 20
503.71252756249828
 30
0.0
 11
404.19021188812872
 21
503.71252756249828
 31
0.0
  0
LINE
  5
56
  8
0
 10
350.19021188811229
 20
504.71252756249089
 30
0.0
 11
349.1902118881286
 21
503.71252756249828
 31
0.0
  0
ARC
  5
57
  8
0
 10
432.1902118881286
 20
502.712527562491
 30
0.0
 40
2.0
 50
0.0000000000000509
 51
90.0
  0
ARC
  5
58
  8
0
 10
432.19021188812872
 20
466.71252756249089
 30
0.0
 40
2.0
 50
270.0
 51
0.0
  0
ARC
  5
59
  8
0
 10
321.19021188812872
 20
466.71252756249089
 30
0.0
 40
2.0
 50
180.0
 51
269.99999999999989
  0
ARC
  5
5A
  8
0
 10
321.19021188812872
 20
502.712527562491
 30
0.0
 40
2.0
 50
90.0
 51
179.99999999999989
  0
CIRCLE
  5
5B
  8
0
 10
421.69021188812877
 20
484.712527562491
 30
0.0
 40
6.5
  0
LINE
  5
5C
  8
1
 10
421.69021188812877
 20
501.49862525438579
 30
0.0
 11
421.69021188812877
 21
467.92642987059622
 31
0.0
  0
LINE
  5
5D
  8
0
 10
420.19021188812832
 20
498.71252756249129
 30
0.0
 11
404.19021188812872
 21
498.71252756249129
 31
0.0
  0
LINE
  5
5E
  8
0
 10
420.19021188812832
 20
470.71252756249061
 30
0.0
 11
404.19021188812872
 21
470.71252756249061
 31
0.0
  0
ARC
  5
5F
  8
0
 10
420.19021188812832
 20
484.712527562491
 30
0.0
 40
14.000000000000311
 50
270.00000000000011
 51
90.000000000000028
  0
ARC
  5
60
  8
0
 10
333.190211888129
 20
484.712527562491
 30
0.0
 40
14.000000000000311
 50
90.0
 51
270.0
  0
LINE
  5
61
  8
0
 10
333.190211888129
 20
470.71252756249061
 30
0.0
 11
349.1902118881286
 21
470.71252756249061
 31
0.0
  0
LINE
  5
62
  8
0
 10
333.190211888129
 20
498.71252756249129
 30
0.0
 11
349.1902118881286
 21
498.71252756249129
 31
0.0
  0
LINE
  5
63
  8
1
 10
331.6902118881286
 20
501.49862525438579
 30
0.0
 11
331.6902118881286
 21
467.92642987059622
 31
0.0
  0
CIRCLE
  5
64
  8
0
 10
331.6902118881286
 20
484.712527562491
 30
0.0
 40
6.5
  0
LINE
  5
65
  8
0
 10
404.19021188812872
 20
465.71252756248361
 30
0.0
 11
404.19021188812872
 21
503.71252756249822
 31
0.0
  0
LINE
  5
66
  8
0
 10
349.1902118881286
 20
465.71252756249089
 30
0.0
 11
349.1902118881286
 21
503.71252756249828
 31
0.0
  0
LINE
  5
67
  8
1
 10
444.1902118881286
 20
484.712527562491
 30
0.0
 11
309.19021188812872
 21
484.712527562491
 31
0.0
  0
LINE
  5
68
  8
1
 10
376.69021188812872
 20
514.712527562491
 30
0.0
 11
376.69021188812872
 21
408.71252756249089
 31
0.0
  0
LINE
  5
69
  8
0
 10
434.1902118881286
 20
502.712527562491
 30
0.0
 11
434.19021188812872
 21
466.71252756249089
 31
0.0
  0
LINE
  5
6A
  8
0
 10
321.19021188812872
 20
504.71252756249089
 30
0.0
 11
432.1902118881286
 21
504.71252756249089
 31
0.0
  0
LINE
  5
6B
  8
0
 10
319.19021188812872
 20
466.71252756249089
 30
0.0
 11
319.19021188812872
 21
502.712527562491
 31
0.0
  0
LINE
  5
6C
  8
0
 10
432.19021188812872
 20
464.712527562491
 30
0.0
 11
321.19021188812872
 21
464.712527562491
 31
0.0
  0
LINE
  5
6D
  8
2
 10
353.29021188812862
 20
341.04660233166118
 30
0.0
 11
352.69021188812872
 21
342.08583281620253
 31
0.0
  0
LINE
  5
6E
  8
2
 10
353.29021188812862
 20
349.04660233166118
 30
0.0
 11
352.69021188812872
 21
348.00737184711988
 31
0.0
  0
LINE
  5
6F
  8
2
 10
353.29021188812862
 20
349.04660233166118
 30
0.0
 11
353.29021188812862
 21
341.04660233166118
 31
0.0
  0
LINE
  5
70
  8
2
 10
352.69021188812872
 20
348.00737184711988
 30
0.0
 11
352.69021188812872
 21
342.08583281620253
 31
0.0
  0
LINE
  5
71
  8
2
 10
366.6902118881286
 20
347.84660233166028
 30
0.0
 11
366.6902118881286
 21
342.24660233166219
 31
0.0
  0
LINE
  5
72
  8
2
 10
365.49021188812458
 20
341.04660233166118
 30
0.0
 11
366.6902118881286
 21
342.24660233166219
 31
0.0
  0
LINE
  5
73
  8
2
 10
365.49021188813367
 20
349.04660233166118
 30
0.0
 11
365.49021188812458
 21
341.04660233166118
 31
0.0
  0
LINE
  5
74
  8
2
 10
366.6902118881286
 20
347.84660233166028
 30
0.0
 11
365.49021188813367
 21
349.04660233166118
 31
0.0
  0
CIRCLE
  5
75
  8
0
 10
376.69021188812872
 20
290.04660233166118
 30
0.0
 40
8.0
  0
LINE
  5
76
  8
0
 10
372.6902118881286
 20
292.43720125490341
 30
0.0
 11
376.69021188812872
 21
294.74660233166128
 31
0.0
  0
LINE
  5
77
  8
0
 10
372.6902118881286
 20
287.65600340841911
 30
0.0
 11
376.69021188812872
 21
285.3466023316613
 31
0.0
  0
LINE
  5
78
  8
0
 10
372.6902118881286
 20
292.43720125490341
 30
0.0
 11
372.6902118881286
 21
287.65600340841911
 31
0.0
  0
LINE
  5
79
  8
0
 10
380.69021188812872
 20
287.65600340841911
 30
0.0
 11
376.69021188812872
 21
285.3466023316613
 31
0.0
  0
LINE
  5
7A
  8
0
 10
380.69021188812872
 20
292.43720125490341
 30
0.0
 11
380.69021188812872
 21
287.65600340841911
 31
0.0
  0
LINE
  5
7B
  8
0
 10
380.69021188812872
 20
292.43720125490341
 30
0.0
 11
376.69021188812872
 21
294.74660233166128
 31
0.0
  0
LINE
  5
7C
  8
1
 10
363.69021188812872
 20
290.04660233166118
 30
0.0
 11
389.6902118881286
 21
290.04660233166118
 31
0.0
  0
LINE
  5
7D
  8
1
 10
376.69021188812872
 20
205.04660233166121
 30
0.0
 11
376.69021188812872
 21
380.04660233166118
 31
0.0
  0
CIRCLE
  5
7E
  8
0
 10
376.69021188812872
 20
290.04660233166118
 30
0.0
 40
6.9607695154577272
  0
CIRCLE
  5
7F
  8
0
 10
376.69021188812872
 20
345.04660233166118
 30
0.0
 40
22.113248654051361
  0
CIRCLE
  5
80
  8
0
 10
376.69021188812872
 20
345.04660233166118
 30
0.0
 40
8.6470000000000002
  0
CIRCLE
  5
81
  8
3
 10
376.69021188812872
 20
345.04660233166118
 30
0.0
 40
10.0
  0
CIRCLE
  5
82
  8
0
 10
376.69021188812872
 20
290.04660233166118
 30
0.0
 40
8.0
  0
LINE
  5
83
  8
1
 10
341.6902118881286
 20
345.04660233166118
 30
0.0
 11
411.6902118881286
 21
345.04660233166118
 31
0.0
  0
LINE
  5
84
  8
0
 10
401.69021188812872
 20
345.04660233166118
 30
0.0
 11
401.69021188812872
 21
290.04660233166118
 31
0.0
  0
ARC
  5
85
  8
0
 10
376.69021188812872
 20
290.04660233166118
 30
0.0
 40
25.0
 50
180.0
 51
360.0
  0
LINE
  5
86
  8
0
 10
351.69021188812872
 20
345.04660233166118
 30
0.0
 11
351.69021188812872
 21
290.04660233166118
 31
0.0
  0
CIRCLE
  5
87
  8
0
 10
376.69021188812872
 20
345.04660233166118
 30
0.0
 40
25.0
  0
LINE
  5
88
  8
2
 10
368.70742059998912
 20
341.72310233166132
 30
0.0
 11
352.89963443102181
 21
341.72310233166132
 31
0.0
  0
LINE
  5
89
  8
2
 10
352.07368125884852
 20
340.6846738845498
 30
0.0
 11
352.9774057793253
 21
341.58839840502662
 31
0.0
  0
LINE
  5
8A
  8
2
 10
369.0240127647038
 20
341.04660233166118
 30
0.0
 11
352.43560970595991
 21
341.04660233166118
 31
0.0
  0
LINE
  5
8B
  8
2
 10
368.70742059998912
 20
348.3701023316612
 30
0.0
 11
352.89963443102192
 21
348.3701023316612
 31
0.0
  0
LINE
  5
8C
  8
2
 10
352.07368125884852
 20
349.40853077877262
 30
0.0
 11
352.9774057793253
 21
348.50480625829579
 31
0.0
  0
LINE
  5
8D
  8
2
 10
369.0240127647038
 20
349.04660233166118
 30
0.0
 11
352.43560970595991
 21
349.04660233166118
 31
0.0
  0
ARC
  5
8E
  8
0
 10
376.69021188812872
 20
290.04660233166118
 30
0.0
 40
27.5
 50
155.38002267134519
 51
24.61997732865477
  0
LINE
  5
90
  8
1
 10
421.69021188812872
 20
205.04660233166129
 30
0.0
 11
421.69021188812872
 21
242.04660233166121
 31
0.0
  0
LINE
  5
91
  8
2
 10
415.19021188812837
 20
216.0466023316603
 30
0.0
 11
415.19021188812837
 21
231.04660233166311
 31
0.0
  0
LINE
  5
92
  8
2
 10
414.1902118881265
 20
232.04660233166121
 30
0.0
 11
415.19021188812837
 21
231.04660233166311
 31
0.0
  0
LINE
  5
93
  8
2
 10
414.1902118881265
 20
215.04660233166129
 30
0.0
 11
415.19021188812837
 21
216.0466023316603
 31
0.0
  0
LINE
  5
94
  8
2
 10
429.1902118881307
 20
215.04660233166129
 30
0.0
 11
428.19021188812889
 21
216.0466023316603
 31
0.0
  0
LINE
  5
95
  8
2
 10
429.1902118881307
 20
232.04660233166121
 30
0.0
 11
428.19021188812889
 21
231.04660233166311
 31
0.0
  0
LINE
  5
96
  8
2
 10
428.19021188812889
 20
216.0466023316603
 30
0.0
 11
428.19021188812889
 21
231.04660233166311
 31
0.0
  0
LINE
  5
97
  8
2
 10
415.19021188812837
 20
231.04660233166311
 30
0.0
 11
428.19021188812889
 21
231.04660233166311
 31
0.0
  0
LINE
  5
98
  8
2
 10
415.19021188812837
 20
216.0466023316603
 30
0.0
 11
428.19021188812889
 21
216.0466023316603
 31
0.0
  0
LINE
  5
99
  8
2
 10
338.19021188812889
 20
216.0466023316603
 30
0.0
 11
325.19021188812837
 21
216.0466023316603
 31
0.0
  0
LINE
  5
9A
  8
2
 10
338.19021188812889
 20
231.04660233166311
 30
0.0
 11
325.19021188812837
 21
231.04660233166311
 31
0.0
  0
LINE
  5
9B
  8
2
 10
325.19021188812837
 20
216.0466023316603
 30
0.0
 11
325.19021188812837
 21
231.04660233166311
 31
0.0
  0
LINE
  5
9C
  8
2
 10
324.19021188812661
 20
232.04660233166121
 30
0.0
 11
325.19021188812837
 21
231.04660233166311
 31
0.0
  0
LINE
  5
9D
  8
2
 10
324.19021188812661
 20
215.04660233166129
 30
0.0
 11
325.19021188812837
 21
216.0466023316603
 31
0.0
  0
LINE
  5
9E
  8
2
 10
339.19021188813082
 20
215.04660233166129
 30
0.0
 11
338.19021188812889
 21
216.0466023316603
 31
0.0
  0
LINE
  5
9F
  8
2
 10
339.19021188813082
 20
232.04660233166121
 30
0.0
 11
338.19021188812889
 21
231.04660233166311
 31
0.0
  0
LINE
  5
A0
  8
2
 10
338.19021188812889
 20
216.0466023316603
 30
0.0
 11
338.19021188812889
 21
231.04660233166311
 31
0.0
  0
LINE
  5
A1
  8
1
 10
331.6902118881286
 20
205.04660233166129
 30
0.0
 11
331.6902118881286
 21
242.04660233166121
 31
0.0
  0
ARC
  5
A2
  8
0
 10
392.19021188812872
 20
234.04660233166121
 30
0.0
 40
5.0
 50
270.0
 51
0.0
  0
ARC
  5
A3
  8
0
 10
361.1902118881286
 20
234.04660233166121
 30
0.0
 40
5.0
 50
180.0
 51
269.99999999999989
  0
ARC
  5
A4
  8
0
 10
394.19021188812872
 20
235.04660233166129
 30
0.0
 40
3.0
 50
269.99999999999989
 51
0.0
  0
ARC
  5
A5
  8
0
 10
359.1902118881286
 20
235.04660233166129
 30
0.0
 40
3.0
 50
180.0
 51
269.99999999999989
  0
LINE
  5
A6
  8
0
 10
392.19021188812872
 20
229.04660233166121
 30
0.0
 11
361.1902118881286
 21
229.04660233166121
 31
0.0
  0
LINE
  5
A7
  8
0
 10
397.19021188812872
 20
234.04660233166121
 30
0.0
 11
397.19021188812872
 21
261.48088861749011
 31
0.0
  0
ARC
  5
A8
  8
0
 10
392.19021188812872
 20
261.48088861749011
 30
0.0
 40
5.0
 50
0.0000000000000254
 51
118.4846512842489
  0
ARC
  5
A9
  8
0
 10
361.1902118881286
 20
261.48088861749011
 30
0.0
 40
5.0
 50
61.515348715751053
 51
180.0
  0
LINE
  5
AA
  8
0
 10
356.1902118881286
 20
234.04660233166121
 30
0.0
 11
356.1902118881286
 21
261.48088861749011
 31
0.0
  0
LINE
  5
AB
  8
0
 10
394.19021188812872
 20
232.04660233166121
 30
0.0
 11
359.1902118881286
 21
232.04660233166129
 31
0.0
  0
LINE
  5
AC
  8
0
 10
351.69021188812962
 20
215.04660233166121
 30
0.0
 11
319.6902118881286
 21
215.04660233166129
 31
0.0
  0
ARC
  5
AD
  8
0
 10
399.69021188812872
 20
215.04660233166121
 30
0.0
 40
2.0
 50
0.0
 51
90.0
  0
ARC
  5
AE
  8
0
 10
353.69021188812872
 20
215.04660233166121
 30
0.0
 40
2.0
 50
90.0
 51
180.0
  0
LINE
  5
AF
  8
0
 10
353.69021188812872
 20
217.04660233166121
 30
0.0
 11
399.69021188812872
 21
217.04660233166121
 31
0.0
  0
LINE
  5
B0
  8
0
 10
433.6902118881286
 20
215.04660233166129
 30
0.0
 11
434.1902118881286
 21
215.54660233166129
 31
0.0
  0
LINE
  5
B1
  8
0
 10
319.1902118881286
 20
215.54660233166129
 30
0.0
 11
319.6902118881286
 21
215.04660233166129
 31
0.0
  0
ARC
  5
B2
  8
0
 10
432.1902118881286
 20
230.04660233166121
 30
0.0
 40
2.0
 50
359.99999999999977
 51
90.0
  0
ARC
  5
B3
  8
0
 10
432.19021188812849
 20
227.04660233166121
 30
0.0
 40
2.0
 50
0.0
 51
90.0
  0
ARC
  5
B4
  8
0
 10
321.1902118881286
 20
230.04660233166121
 30
0.0
 40
2.0
 50
90.0
 51
179.99999999999989
  0
ARC
  5
B5
  8
0
 10
321.1902118881286
 20
227.04660233166121
 30
0.0
 40
2.0
 50
90.0
 51
179.99999999999989
  0
LINE
  5
B6
  8
0
 10
434.1902118881286
 20
230.04660233166121
 30
0.0
 11
434.1902118881286
 21
215.54660233166129
 31
0.0
  0
LINE
  5
B7
  8
0
 10
319.1902118881286
 20
230.04660233166121
 30
0.0
 11
319.1902118881286
 21
215.54660233166129
 31
0.0
  0
ARC
  5
B8
  8
0
 10
409.19021188812849
 20
234.04660233166121
 30
0.0
 40
5.0
 50
180.0
 51
269.99999999999989
  0
ARC
  5
B9
  8
0
 10
344.19021188812877
 20
234.04660233166121
 30
0.0
 40
5.0
 50
270.0
 51
0.0
  0
ARC
  5
BA
  8
0
 10
407.19021188812837
 20
235.04660233166129
 30
0.0
 40
3.0
 50
180.0
 51
269.99999999999989
  0
ARC
  5
BB
  8
0
 10
346.19021188812877
 20
235.04660233166129
 30
0.0
 40
3.0
 50
270.0
 51
0.0
  0
LINE
  5
BC
  8
0
 10
346.19021188812877
 20
232.04660233166121
 30
0.0
 11
321.1902118881286
 21
232.04660233166121
 31
0.0
  0
LINE
  5
BD
  8
0
 10
344.19021188812877
 20
229.04660233166121
 30
0.0
 11
321.1902118881286
 21
229.04660233166121
 31
0.0
  0
LINE
  5
BE
  8
0
 10
404.19021188812837
 20
290.04660233166118
 30
0.0
 11
404.19021188812849
 21
234.04660233166121
 31
0.0
  0
LINE
  5
BF
  8
0
 10
349.19021188812877
 20
290.04660233166118
 30
0.0
 11
349.19021188812877
 21
234.04660233166121
 31
0.0
  0
LINE
  5
C0
  8
0
 10
432.1902118881286
 20
232.04660233166121
 30
0.0
 11
407.19021188812837
 21
232.04660233166121
 31
0.0
  0
LINE
  5
C1
  8
0
 10
432.19021188812849
 20
229.04660233166121
 30
0.0
 11
409.19021188812849
 21
229.04660233166121
 31
0.0
  0
LINE
  5
C2
  8
0
 10
433.6902118881286
 20
215.04660233166129
 30
0.0
 11
401.69021188812872
 21
215.04660233166121
 31
0.0
  0
LINE
  5
C3
  8
1
 10
414.19021188812872
 20
290.04660233166118
 30
0.0
 11
339.19021188812872
 21
290.04660233166118
 31
0.0
  0
LINE
  5
C4
  8
1
 10
665.01303006298849
 20
290.04660233166197
 30
0.0
 11
562.01303006298849
 21
290.04660233166197
 31
0.0
  0
LINE
  5
C5
  8
0
 10
614.01303006298838
 20
262.54660233166197
 30
0.0
 11
583.34315708190991
 21
262.54660233166197
 31
0.0
  0
LINE
  5
C6
  8
0
 10
583.34315708191127
 20
262.54660233166197
 30
0.0
 11
579.01303006298838
 21
265.04660233166243
 31
0.0
  0
LINE
  5
C7
  8
0
 10
614.01303006298838
 20
317.54660233166197
 30
0.0
 11
600.01303006298838
 21
317.54660233166197
 31
0.0
  0
LINE
  5
C8
  8
0
 10
614.01303006298838
 20
262.54660233166197
 30
0.0
 11
615.01303006298849
 21
263.54660233166197
 31
0.0
  0
LINE
  5
C9
  8
0
 10
615.01303006298849
 20
316.54660233166197
 30
0.0
 11
614.01303006298838
 21
317.54660233166197
 31
0.0
  0
LINE
  5
CA
  8
1
 10
607.01303006298849
 20
345.04660233166197
 30
0.0
 11
559.01303006298838
 21
345.04660233166197
 31
0.0
  0
LINE
  5
CB
  8
0
 10
596.01303006298838
 20
370.04660233166197
 30
0.0
 11
574.01303006299008
 21
370.04660233166197
 31
0.0
  0
LINE
  5
CC
  8
0
 10
574.01303006299008
 20
370.04660233166197
 30
0.0
 11
569.01303006298849
 21
367.15985098571298
 31
0.0
  0
LINE
  5
CD
  8
0
 10
569.01303006298849
 20
367.15985098571298
 30
0.0
 11
569.01303006298849
 21
322.93335367761102
 31
0.0
  0
LINE
  5
CE
  8
0
 10
569.01303006298849
 20
322.93335367761102
 30
0.0
 11
574.01303006298986
 21
320.04660233166197
 31
0.0
  0
LINE
  5
CF
  8
0
 10
574.01303006298986
 20
320.04660233166197
 30
0.0
 11
576.01303006298838
 21
320.04660233166197
 31
0.0
  0
ARC
  5
D0
  8
0
 10
596.01303006298838
 20
369.04660233166197
 30
0.0
 40
1.0
 50
360.0
 51
90.0
  0
ARC
  5
D1
  8
0
 10
600.01303006298838
 20
320.54660233166197
 30
0.0
 40
3.0
 50
180.0
 51
270.0
  0
ARC
  5
D2
  8
0
 10
576.01303006298838
 20
317.04660233166197
 30
0.0
 40
3.0
 50
0.0000000000001018
 51
90.0
  0
LINE
  5
D3
  8
1
 10
581.01303006298849
 20
354.04660233166243
 30
0.0
 11
581.01303414057338
 21
336.04660233166271
 31
0.0
  0
LINE
  5
D4
  8
1
 10
581.01303006298826
 20
354.04660233166243
 30
0.0
 11
581.01303414057327
 21
336.04660233166271
 31
0.0
  0
LINE
  5
D5
  8
0
 10
597.01303006298838
 20
320.54660233166197
 30
0.0
 11
597.01303006298838
 21
369.04660233166197
 31
0.0
  0
LINE
  5
D6
  8
0
 10
579.01303006298838
 20
317.04660233166197
 30
0.0
 11
579.01303006298838
 21
265.04660233166231
 31
0.0
  0
LINE
  5
D7
  8
0
 10
615.01303006298849
 20
263.54660233166192
 30
0.0
 11
615.01303006298849
 21
316.54660233166209
 31
0.0
  0
LINE
  5
D8
  8
0
 10
572.61303006298908
 20
282.04660233166197
 30
0.0
 11
572.61303006298908
 21
298.04660233166192
 31
0.0
  0
LINE
  5
D9
  8
0
 10
572.01303006298838
 20
283.08583281620417
 30
0.0
 11
572.01303006298838
 21
297.00737184711971
 31
0.0
  0
LINE
  5
DA
  8
0
 10
572.61303006298954
 20
282.0466023316614
 30
0.0
 11
572.01303006298838
 21
283.08583281620417
 31
0.0
  0
LINE
  5
DB
  8
0
 10
572.61303006298908
 20
298.04660233166192
 30
0.0
 11
579.01303006298838
 21
298.04660233166192
 31
0.0
  0
LINE
  5
DC
  8
0
 10
572.61303006298954
 20
298.0466023316626
 30
0.0
 11
572.01303006298838
 21
297.00737184711971
 31
0.0
  0
LINE
  5
DD
  8
0
 10
579.01303006298838
 20
282.04660233166197
 30
0.0
 11
572.61303006298908
 21
282.04660233166197
 31
0.0
  0
LINE
  5
DE
  8
0
 10
574.01303006299008
 20
370.04660233166197
 30
0.0
 11
574.01303006298986
 21
320.04660233166197
 31
0.0
  0
LINE
  5
DF
  8
0
 10
651.51303006298838
 20
231.81629833874521
 30
0.0
 11
651.51303006298838
 21
262.54660233166192
 31
0.0
  0
LINE
  5
E0
  8
0
 10
618.51303006298849
 20
262.54660233166078
 30
0.0
 11
616.01303006298849
 21
262.54660233166072
 31
0.0
  0
LINE
  5
E1
  8
0
 10
655.01303006298838
 20
263.54660233166197
 30
0.0
 11
654.01303006298838
 21
262.54660233166192
 31
0.0
  0
LINE
  5
E2
  8
0
 10
654.01303006298838
 20
317.54660233166197
 30
0.0
 11
655.01303006298838
 21
316.54660233166197
 31
0.0
  0
LINE
  5
E3
  8
0
 10
615.01303755366689
 20
316.54660233166192
 30
0.0
 11
616.01303769238302
 21
317.54660233166192
 31
0.0
  0
LINE
  5
E4
  8
0
 10
616.01303006298849
 20
262.54660233166072
 30
0.0
 11
615.01303020170485
 21
263.54660233166061
 31
0.0
  0
LINE
  5
E5
  8
0
 10
654.51303006298872
 20
215.04660233166121
 30
0.0
 11
655.01303006298872
 21
215.54660233166121
 31
0.0
  0
LINE
  5
E6
  8
0
 10
615.01303006298861
 20
215.54660233166129
 30
0.0
 11
615.51303006298861
 21
215.04660233166129
 31
0.0
  0
LINE
  5
E7
  8
0
 10
655.01303006298872
 20
215.54660233166121
 30
0.0
 11
655.01303006298872
 21
227.04660233166129
 31
0.0
  0
ARC
  5
E8
  8
0
 10
652.01303006298872
 20
232.04660233166129
 30
0.0
 40
3.0
 50
180.0
 51
270.00000000000011
  0
ARC
  5
E9
  8
0
 10
653.01303006298861
 20
227.04660233166129
 30
0.0
 40
2.0
 50
0.0000000000000763
 51
72.54239687627549
  0
ARC
  5
EA
  8
0
 10
654.51303006298872
 20
231.81629833874521
 30
0.0
 40
3.0
 50
180.0
 51
252.54239687627529
  0
LINE
  5
EB
  8
0
 10
616.66575901133638
 20
229.04660233166129
 30
0.0
 11
653.36030111465334
 21
229.04660233166129
 31
0.0
  0
ARC
  5
EC
  8
0
 10
615.51303006298849
 20
231.81629833874521
 30
0.0
 40
3.0
 50
287.45760312372482
 51
0.0
  0
ARC
  5
ED
  8
0
 10
617.01303006298838
 20
227.04660233166129
 30
0.0
 40
2.0
 50
107.4576031237245
 51
179.99999999999989
  0
ARC
  5
EE
  8
0
 10
618.01303006298838
 20
232.04660233166129
 30
0.0
 40
3.0
 50
270.0
 51
0.0
  0
LINE
  5
EF
  8
1
 10
635.01303006298849
 20
205.04660233166129
 30
0.0
 11
635.01303006298849
 21
327.54660233166197
 31
0.0
  0
LINE
  5
F0
  8
0
 10
618.51303006298849
 20
231.81629833874521
 30
0.0
 11
618.51303006298849
 21
262.54660233166078
 31
0.0
  0
LINE
  5
F1
  8
0
 10
621.01303006298838
 20
232.04660233166129
 30
0.0
 11
649.01303006298849
 21
232.04660233166129
 31
0.0
  0
LINE
  5
F2
  8
0
 10
654.01303006298838
 20
262.54660233166192
 30
0.0
 11
651.51303006298838
 21
262.54660233166192
 31
0.0
  0
LINE
  5
F3
  8
0
 10
655.01303006298838
 20
316.54660233166197
 30
0.0
 11
655.01303006298838
 21
263.54660233166197
 31
0.0
  0
LINE
  5
F4
  8
0
 10
616.01303769238302
 20
317.54660233166192
 30
0.0
 11
654.01303006298838
 21
317.54660233166197
 31
0.0
  0
LINE
  5
F5
  8
0
 10
615.01303006298861
 20
215.54660233166129
 30
0.0
 11
615.01303006298849
 21
227.04660233166129
 31
0.0
  0
LINE
  5
F6
  8
0
 10
654.51303006298872
 20
215.04660233166121
 30
0.0
 11
615.51303006298861
 21
215.04660233166129
 31
0.0
  0
LINE
  5
F7
  8
0
 10
98.867393713268612
 20
215.04660233166121
 30
0.0
 11
137.86739371326871
 21
215.04660233166129
 31
0.0
  0
LINE
  5
F8
  8
0
 10
138.36739371326871
 20
215.54660233166129
 30
0.0
 11
138.3673937132688
 21
227.04660233166129
 31
0.0
  0
LINE
  5
F9
  8
0
 10
136.71466476493339
 20
229.04660233166129
 30
0.0
 11
100.02012266160941
 21
229.04660233166129
 31
0.0
  0
LINE
  5
FA
  8
0
 10
137.36738608387429
 20
317.54660233166192
 30
0.0
 11
99.367393713268825
 21
317.54660233166197
 31
0.0
  0
LINE
  5
FB
  8
0
 10
98.367393713268825
 20
316.54660233166197
 30
0.0
 11
98.367393713268825
 21
263.54660233166197
 31
0.0
  0
LINE
  5
FC
  8
0
 10
99.367393713268825
 20
262.54660233166192
 30
0.0
 11
101.8673937132688
 21
262.54660233166192
 31
0.0
  0
LINE
  5
FD
  8
0
 10
132.3673937132688
 20
232.04660233166129
 30
0.0
 11
104.3673937132688
 21
232.04660233166129
 31
0.0
  0
LINE
  5
FE
  8
0
 10
134.8673937132688
 20
231.81629833874521
 30
0.0
 11
134.8673937132688
 21
262.54660233166078
 31
0.0
  0
LINE
  5
FF
  8
1
 10
118.3673937132688
 20
205.046602331662
 30
0.0
 11
118.3673937132688
 21
327.54660233166118
 31
0.0
  0
ARC
  5
100
  8
0
 10
135.3673937132688
 20
232.04660233166129
 30
0.0
 40
3.0
 50
180.0
 51
270.00000000000011
  0
ARC
  5
101
  8
0
 10
136.3673937132688
 20
227.04660233166129
 30
0.0
 40
2.0
 50
0.0000000000000763
 51
72.54239687627549
  0
ARC
  5
102
  8
0
 10
137.8673937132688
 20
231.81629833874521
 30
0.0
 40
3.0
 50
180.0
 51
252.54239687627529
  0
ARC
  5
103
  8
0
 10
98.867393713268612
 20
231.81629833874521
 30
0.0
 40
3.0
 50
287.45760312372482
 51
0.0
  0
ARC
  5
104
  8
0
 10
100.3673937132686
 20
227.04660233166129
 30
0.0
 40
2.0
 50
107.4576031237245
 51
179.99999999999989
  0
ARC
  5
105
  8
0
 10
101.3673937132686
 20
232.04660233166129
 30
0.0
 40
3.0
 50
270.0
 51
0.0
  0
LINE
  5
106
  8
0
 10
98.367393713268598
 20
215.54660233166121
 30
0.0
 11
98.367393713268598
 21
227.04660233166129
 31
0.0
  0
LINE
  5
107
  8
0
 10
138.36739371326871
 20
215.54660233166129
 30
0.0
 11
137.86739371326871
 21
215.04660233166129
 31
0.0
  0
LINE
  5
108
  8
0
 10
98.867393713268612
 20
215.04660233166121
 30
0.0
 11
98.367393713268598
 21
215.54660233166121
 31
0.0
  0
LINE
  5
109
  8
0
 10
137.36739371326871
 20
262.54660233166072
 30
0.0
 11
138.36739357455241
 21
263.54660233166061
 31
0.0
  0
LINE
  5
10A
  8
0
 10
138.3673862225904
 20
316.54660233166192
 30
0.0
 11
137.36738608387429
 21
317.54660233166192
 31
0.0
  0
LINE
  5
10B
  8
0
 10
99.367393713268825
 20
317.54660233166197
 30
0.0
 11
98.367393713268825
 21
316.54660233166197
 31
0.0
  0
LINE
  5
10C
  8
0
 10
98.367393713268825
 20
263.54660233166197
 30
0.0
 11
99.367393713268825
 21
262.54660233166192
 31
0.0
  0
LINE
  5
10D
  8
0
 10
134.8673937132688
 20
262.54660233166078
 30
0.0
 11
137.36739371326871
 21
262.54660233166072
 31
0.0
  0
LINE
  5
10E
  8
0
 10
101.8673937132688
 20
231.81629833874521
 30
0.0
 11
101.8673937132688
 21
262.54660233166192
 31
0.0
  0
LINE
  5
10F
  8
0
 10
179.36739371326721
 20
370.04660233166197
 30
0.0
 11
179.36739371326729
 21
320.04660233166197
 31
0.0
  0
LINE
  5
110
  8
0
 10
174.3673937132688
 20
282.04660233166197
 30
0.0
 11
180.76739371326821
 21
282.04660233166197
 31
0.0
  0
LINE
  5
111
  8
0
 10
180.76739371326781
 20
298.0466023316626
 30
0.0
 11
181.3673937132688
 21
297.00737184711971
 31
0.0
  0
LINE
  5
112
  8
0
 10
180.76739371326821
 20
298.04660233166192
 30
0.0
 11
174.3673937132688
 21
298.04660233166192
 31
0.0
  0
LINE
  5
113
  8
0
 10
180.76739371326781
 20
282.0466023316614
 30
0.0
 11
181.3673937132688
 21
283.08583281620417
 31
0.0
  0
LINE
  5
114
  8
0
 10
181.3673937132688
 20
283.08583281620417
 30
0.0
 11
181.3673937132688
 21
297.00737184711971
 31
0.0
  0
LINE
  5
115
  8
0
 10
180.76739371326821
 20
282.04660233166197
 30
0.0
 11
180.76739371326821
 21
298.04660233166192
 31
0.0
  0
LINE
  5
116
  8
0
 10
138.3673937132688
 20
263.54660233166192
 30
0.0
 11
138.3673937132688
 21
316.54660233166209
 31
0.0
  0
LINE
  5
117
  8
0
 10
174.3673937132688
 20
317.04660233166197
 30
0.0
 11
174.3673937132688
 21
265.04660233166231
 31
0.0
  0
LINE
  5
118
  8
0
 10
156.3673937132688
 20
320.54660233166197
 30
0.0
 11
156.3673937132688
 21
369.04660233166197
 31
0.0
  0
LINE
  5
119
  8
1
 10
172.36739371326891
 20
354.04660233166243
 30
0.0
 11
172.36738963568391
 21
336.04660233166271
 31
0.0
  0
LINE
  5
11A
  8
1
 10
172.3673937132688
 20
354.04660233166243
 30
0.0
 11
172.36738963568379
 21
336.04660233166271
 31
0.0
  0
ARC
  5
11B
  8
0
 10
177.3673937132688
 20
317.04660233166197
 30
0.0
 40
3.0
 50
90.000000000000028
 51
179.99999999999989
  0
ARC
  5
11C
  8
0
 10
153.3673937132688
 20
320.54660233166197
 30
0.0
 40
3.0
 50
270.00000000000011
 51
360.0
  0
ARC
  5
11D
  8
0
 10
157.3673937132688
 20
369.04660233166197
 30
0.0
 40
1.0
 50
90.000000000000028
 51
180.0
  0
LINE
  5
11E
  8
0
 10
179.36739371326729
 20
320.04660233166197
 30
0.0
 11
177.3673937132688
 21
320.04660233166197
 31
0.0
  0
LINE
  5
11F
  8
0
 10
184.3673937132688
 20
322.93335367761102
 30
0.0
 11
179.36739371326729
 21
320.04660233166197
 31
0.0
  0
LINE
  5
120
  8
0
 10
184.3673937132688
 20
367.15985098571298
 30
0.0
 11
184.3673937132688
 21
322.93335367761102
 31
0.0
  0
LINE
  5
121
  8
0
 10
179.36739371326721
 20
370.04660233166197
 30
0.0
 11
184.3673937132688
 21
367.15985098571298
 31
0.0
  0
LINE
  5
122
  8
0
 10
157.3673937132688
 20
370.04660233166197
 30
0.0
 11
179.36739371326721
 21
370.04660233166197
 31
0.0
  0
LINE
  5
123
  8
1
 10
146.3673937132688
 20
345.04660233166197
 30
0.0
 11
194.3673937132688
 21
345.04660233166197
 31
0.0
  0
LINE
  5
124
  8
0
 10
138.3673937132688
 20
316.54660233166197
 30
0.0
 11
139.3673937132688
 21
317.54660233166197
 31
0.0
  0
LINE
  5
125
  8
0
 10
139.3673937132688
 20
262.54660233166197
 30
0.0
 11
138.3673937132688
 21
263.54660233166197
 31
0.0
  0
LINE
  5
126
  8
0
 10
139.3673937132688
 20
317.54660233166197
 30
0.0
 11
153.3673937132688
 21
317.54660233166197
 31
0.0
  0
LINE
  5
127
  8
0
 10
170.0372666943459
 20
262.54660233166197
 30
0.0
 11
174.3673937132688
 21
265.04660233166243
 31
0.0
  0
LINE
  5
128
  8
0
 10
139.3673937132688
 20
262.54660233166197
 30
0.0
 11
170.03726669434741
 21
262.54660233166197
 31
0.0
  0
LINE
  5
129
  8
1
 10
88.367393713268825
 20
290.04660233166197
 30
0.0
 11
191.3673937132688
 21
290.04660233166197
 31
0.0
  0
LINE
  5
12A
  8
0
 10
432.19021188812872
 20
97.224202280687578
 30
0.0
 11
321.19021188812872
 21
97.224202280687578
 31
0.0
  0
LINE
  5
12B
  8
0
 10
319.19021188812872
 20
95.224202280687578
 30
0.0
 11
319.19021188812872
 21
59.224202280687578
 31
0.0
  0
LINE
  5
12C
  8
0
 10
321.19021188812872
 20
57.224202280687578
 30
0.0
 11
432.1902118881286
 21
57.224202280687578
 31
0.0
  0
LINE
  5
12D
  8
0
 10
434.1902118881286
 20
59.224202280687578
 30
0.0
 11
434.19021188812872
 21
95.224202280687578
 31
0.0
  0
LINE
  5
12E
  8
1
 10
376.69021188812872
 20
47.224202280687578
 30
0.0
 11
376.69021188812872
 21
153.22420228068759
 31
0.0
  0
LINE
  5
12F
  8
1
 10
444.19021188812928
 20
77.224202280687578
 30
0.0
 11
309.1902118881294
 21
77.224202280687578
 31
0.0
  0
CIRCLE
  5
130
  8
0
 10
331.6902118881286
 20
77.224202280687578
 30
0.0
 40
6.5
  0
LINE
  5
131
  8
1
 10
331.6902118881286
 20
60.438104588792797
 30
0.0
 11
331.6902118881286
 21
94.010299972582359
 31
0.0
  0
LINE
  5
132
  8
1
 10
421.69021188812877
 20
60.438104588792797
 30
0.0
 11
421.69021188812877
 21
94.010299972582359
 31
0.0
  0
CIRCLE
  5
133
  8
0
 10
421.69021188812877
 20
77.224202280687578
 30
0.0
 40
6.5
  0
ARC
  5
134
  8
0
 10
321.19021188812872
 20
59.224202280687578
 30
0.0
 40
2.0
 50
180.0
 51
270.0
  0
ARC
  5
135
  8
0
 10
321.19021188812872
 20
95.224202280687578
 30
0.0
 40
2.0
 50
90.000000000000057
 51
180.0
  0
ARC
  5
136
  8
0
 10
432.19021188812872
 20
95.224202280687578
 30
0.0
 40
2.0
 50
360.0
 51
90.0
  0
ARC
  5
137
  8
0
 10
432.1902118881286
 20
59.224202280687578
 30
0.0
 40
2.0
 50
270.0
 51
360.0
  0
LINE
  5
138
  8
1
 10
341.64458655264832
 20
131.22420024189509
 30
0.0
 11
377.09278837766169
 21
131.22420024189509
 31
0.0
  0
LINE
  5
139
  8
0
 10
404.19021188812962
 20
128.22420228068441
 30
0.0
 11
349.19021188812781
 21
128.22420228068441
 31
0.0
  0
LINE
  5
13A
  8
0
 10
351.69021188812872
 20
138.224202280686
 30
0.0
 11
351.69021188812872
 21
132.5543292996083
 31
0.0
  0
LINE
  5
13B
  8
0
 10
351.69021188812872
 20
138.224202280686
 30
0.0
 11
354.57696323407782
 21
143.22420228068759
 31
0.0
  0
LINE
  5
13C
  8
0
 10
404.19021188812962
 20
98.224202280687564
 30
0.0
 11
404.19021188812962
 21
128.2242022806862
 31
0.0
  0
LINE
  5
13D
  8
0
 10
401.69021188812872
 20
132.5543292996081
 30
0.0
 11
404.19021188812872
 21
128.224202280686
 31
0.0
  0
LINE
  5
13E
  8
0
 10
401.69021188812872
 20
138.22420228068609
 30
0.0
 11
384.69021188812872
 21
138.22420228068609
 31
0.0
  0
LINE
  5
13F
  8
0
 10
398.80346054217961
 20
143.22420228068759
 30
0.0
 11
354.57696323407771
 21
143.22420228068759
 31
0.0
  0
LINE
  5
140
  8
0
 10
401.69021188812872
 20
138.224202280686
 30
0.0
 11
398.80346054217961
 21
143.22420228068759
 31
0.0
  0
LINE
  5
141
  8
0
 10
401.69021188812872
 20
138.224202280686
 30
0.0
 11
401.69021188812872
 21
132.5543292996081
 31
0.0
  0
LINE
  5
142
  8
0
 10
351.69021188812872
 20
132.5543292996083
 30
0.0
 11
349.19021188812872
 21
128.224202280686
 31
0.0
  0
LINE
  5
143
  8
0
 10
349.1902118881294
 20
98.224202280687564
 30
0.0
 11
349.19021188812951
 21
128.2242022806862
 31
0.0
  0
LINE
  5
144
  8
0
 10
349.1902118881294
 20
98.224202280687564
 30
0.0
 11
350.1902118881294
 21
97.224202280687578
 31
0.0
  0
LINE
  5
145
  8
0
 10
403.19021188812951
 20
97.224202280687706
 30
0.0
 11
404.19021188812951
 21
98.224202280687706
 31
0.0
  0
LINE
  5
146
  8
2
 10
628.51303006298815
 20
216.0466023316603
 30
0.0
 11
641.51303006298883
 21
216.0466023316603
 31
0.0
  0
LINE
  5
147
  8
2
 10
628.51303006298815
 20
231.04660233166311
 30
0.0
 11
641.51303006298883
 21
231.04660233166311
 31
0.0
  0
LINE
  5
148
  8
2
 10
641.51303006298883
 20
216.0466023316603
 30
0.0
 11
641.51303006298883
 21
231.04660233166311
 31
0.0
  0
LINE
  5
149
  8
2
 10
642.51303006299065
 20
232.04660233166121
 30
0.0
 11
641.51303006298883
 21
231.04660233166311
 31
0.0
  0
LINE
  5
14A
  8
2
 10
642.51303006299065
 20
215.04660233166129
 30
0.0
 11
641.51303006298883
 21
216.0466023316603
 31
0.0
  0
LINE
  5
14B
  8
2
 10
627.51303006298645
 20
215.04660233166129
 30
0.0
 11
628.51303006298815
 21
216.0466023316603
 31
0.0
  0
LINE
  5
14C
  8
2
 10
627.51303006298645
 20
232.04660233166121
 30
0.0
 11
628.51303006298815
 21
231.04660233166311
 31
0.0
  0
LINE
  5
14D
  8
2
 10
628.51303006298815
 20
216.0466023316603
 30
0.0
 11
628.51303006298815
 21
231.04660233166311
 31
0.0
  0
LINE
  5
14E
  8
2
 10
124.8673937132691
 20
216.04660233166041
 30
0.0
 11
124.8673937132691
 21
231.04660233166311
 31
0.0
  0
LINE
  5
14F
  8
2
 10
125.867393713271
 20
232.04660233166129
 30
0.0
 11
124.8673937132691
 21
231.04660233166311
 31
0.0
  0
LINE
  5
150
  8
2
 10
125.867393713271
 20
215.04660233166129
 30
0.0
 11
124.8673937132691
 21
216.04660233166041
 31
0.0
  0
LINE
  5
151
  8
2
 10
110.86739371326669
 20
215.04660233166129
 30
0.0
 11
111.8673937132686
 21
216.04660233166041
 31
0.0
  0
LINE
  5
152
  8
2
 10
110.86739371326669
 20
232.04660233166129
 30
0.0
 11
111.8673937132686
 21
231.04660233166311
 31
0.0
  0
LINE
  5
153
  8
2
 10
111.8673937132686
 20
216.04660233166041
 30
0.0
 11
111.8673937132686
 21
231.04660233166311
 31
0.0
  0
LINE
  5
154
  8
2
 10
124.8673937132691
 20
231.04660233166311
 30
0.0
 11
111.8673937132686
 21
231.04660233166319
 31
0.0
  0
LINE
  5
155
  8
2
 10
124.8673937132691
 20
216.04660233166041
 30
0.0
 11
111.8673937132686
 21
216.04660233166041
 31
0.0
  0
CIRCLE
  5
156
  8
3
 10
172.36739167447641
 20
345.04660233166192
 30
0.0
 40
3.3235000000002231
  0
CIRCLE
  5
157
  8
0
 10
172.36739167447641
 20
345.04660233166192
 30
0.0
 40
4.000000000000056
  0
LINE
  5
158
  8
0
 10
174.3673916728477
 20
346.20130286910199
 30
0.0
 11
174.3673916728477
 21
343.89190179234362
 31
0.0
  0
LINE
  5
159
  8
0
 10
174.36739167284591
 20
343.89190179422218
 30
0.0
 11
172.3673916728477
 21
342.73720125584259
 31
0.0
  0
LINE
  5
15A
  8
0
 10
172.3673916744757
 20
342.73720125678398
 30
0.0
 11
170.3673916744757
 21
343.89190179516282
 31
0.0
  0
LINE
  5
15B
  8
0
 10
170.36739167610369
 20
343.89190179422332
 30
0.0
 11
170.36739167610369
 21
346.20130287098169
 31
0.0
  0
LINE
  5
15C
  8
0
 10
170.36739167610369
 20
346.20130286910182
 30
0.0
 11
172.36739167610369
 21
347.3560034074813
 31
0.0
  0
LINE
  5
15D
  8
0
 10
172.3673916744757
 20
347.35600340654003
 30
0.0
 11
174.3673916744757
 21
346.20130286816112
 31
0.0
  0
LINE
  5
15E
  8
0
 10
401.69021188812872
 20
97.224202280687578
 30
0.0
 11
401.69021188812872
 21
57.224202280687578
 31
0.0
  0
LINE
  5
15F
  8
0
 10
351.69021188812502
 20
97.224202280687578
 30
0.0
 11
351.69021188812502
 21
57.224202280687578
 31
0.0
  0
LINE
  5
160
  8
0
 10
351.69021188812877
 20
132.5543292996083
 30
0.0
 11
401.69021188812877
 21
132.55432929960801
 31
0.0
  0
LINE
  5
161
  8
0
 10
368.69021188812872
 20
132.55432929960821
 30
0.0
 11
368.69021188812872
 21
138.95432929960759
 31
0.0
  0
LINE
  5
162
  8
0
 10
384.6902118881294
 20
138.95432929960711
 30
0.0
 11
383.6509814035864
 21
139.55432929960821
 31
0.0
  0
LINE
  5
163
  8
0
 10
384.69021188812872
 20
138.95432929960759
 30
0.0
 11
384.69021188812872
 21
132.55432929960821
 31
0.0
  0
LINE
  5
164
  8
0
 10
368.6902118881282
 20
138.95432929960711
 30
0.0
 11
369.72944237267097
 21
139.55432929960821
 31
0.0
  0
LINE
  5
165
  8
0
 10
369.72944237267097
 20
139.55432929960821
 30
0.0
 11
383.6509814035864
 21
139.55432929960821
 31
0.0
  0
LINE
  5
166
  8
0
 10
368.69021188812872
 20
138.95432929960759
 30
0.0
 11
384.69021188812872
 21
138.95432929960759
 31
0.0
  0
LINE
  5
167
  8
0
 10
368.69021188812877
 20
138.22420228068609
 30
0.0
 11
351.69021188812872
 21
138.22420228068609
 31
0.0
  0
TEXT
  5
2C9
  8
0
 62
     3
 10
0.0
 20
0.0
 30
0.0
 40
10.0
  1
ANT75A
  7
STANDARD1
  0
ENDSEC
  0
EOF
