  0
SECTION
  2
HEADER
  9
$ACADVER
  1
AC1009
  9
$INSBASE
 10
0.0
 20
0.0
 30
0.0
  9
$EXTMIN
 10
-0.0204638472032742
 20
-2.960436562073669
 30
0.0
  9
$EXTMAX
 10
276.36380600000001
 20
226.574062
 30
0.0
  9
$LIMMIN
 10
0.0
 20
0.0
  9
$LIMMAX
 10
390.0
 20
270.0
  9
$ORTHOMODE
 70
     0
  9
$REGENMODE
 70
     1
  9
$FILLMODE
 70
     1
  9
$QTEXTMODE
 70
     0
  9
$MIRRTEXT
 70
     0
  9
$DRAGMODE
 70
     2
  9
$LTSCALE
 40
10.0
  9
$OSMODE
 70
  3071
  9
$ATTMODE
 70
     1
  9
$TEXTSIZE
 40
0.2
  9
$TRACEWID
 40
0.05
  9
$TEXTSTYLE
  7
STANDARD
  9
$CLAYER
  8
0
  9
$CELTYPE
  6
BYLAYER
  9
$CECOLOR
 62
   256
  9
$DIMSCALE
 40
1.0
  9
$DIMASZ
 40
3.0
  9
$DIMEXO
 40
1.0
  9
$DIMDLI
 40
6.0
  9
$DIMRND
 40
0.0
  9
$DIMDLE
 40
0.0
  9
$DIMEXE
 40
1.0
  9
$DIMTP
 40
495.0
  9
$DIMTM
 40
0.0
  9
$DIMTXT
 40
3.0
  9
$DIMCEN
 40
0.0
  9
$DIMTSZ
 40
0.0
  9
$DIMTOL
 70
     0
  9
$DIMLIM
 70
     0
  9
$DIMTIH
 70
     0
  9
$DIMTOH
 70
     0
  9
$DIMSE1
 70
     0
  9
$DIMSE2
 70
     0
  9
$DIMTAD
 70
     1
  9
$DIMZIN
 70
     0
  9
$DIMBLK
  1

  9
$DIMASO
 70
     0
  9
$DIMSHO
 70
     0
  9
$DIMPOST
  1

  9
$DIMAPOST
  1

  9
$DIMALT
 70
     0
  9
$DIMALTD
 70
     2
  9
$DIMALTF
 40
25.399999999999999
  9
$DIMLFAC
 40
1.0
  9
$DIMTOFL
 70
     1
  9
$DIMTVP
 40
0.0
  9
$DIMTIX
 70
     1
  9
$DIMSOXD
 70
     0
  9
$DIMSAH
 70
     0
  9
$DIMBLK1
  1

  9
$DIMBLK2
  1

  9
$DIMSTYLE
  2
STANDARD
  9
$DIMCLRD
 70
     0
  9
$DIMCLRE
 70
     0
  9
$DIMCLRT
 70
     0
  9
$DIMTFAC
 40
1.0
  9
$DIMGAP
 40
0.09
  9
$LUNITS
 70
     2
  9
$LUPREC
 70
     2
  9
$SKETCHINC
 40
0.1
  9
$FILLETRAD
 40
0.0
  9
$AUNITS
 70
     0
  9
$AUPREC
 70
     2
  9
$MENU
  1
E:\r13\win\SUPPORT\ACAD
  9
$ELEVATION
 40
0.0
  9
$PELEVATION
 40
0.0
  9
$THICKNESS
 40
0.0
  9
$LIMCHECK
 70
     0
  9
$BLIPMODE
 70
     0
  9
$CHAMFERA
 40
0.0
  9
$CHAMFERB
 40
0.0
  9
$SKPOLY
 70
     0
  9
$TDCREATE
 40
2449840.6554861111
  9
$TDUPDATE
 40
2456597.561348727
  9
$TDINDWG
 40
0.000108588
  9
$TDUSRTIMER
 40
0.000108588
  9
$USRTIMER
 70
     1
  9
$ANGBASE
 50
0.0
  9
$ANGDIR
 70
     0
  9
$PDMODE
 70
     0
  9
$PDSIZE
 40
0.0
  9
$PLINEWID
 40
0.0
  9
$COORDS
 70
     1
  9
$SPLFRAME
 70
     0
  9
$SPLINETYPE
 70
     6
  9
$SPLINESEGS
 70
     8
  9
$ATTDIA
 70
     0
  9
$ATTREQ
 70
     1
  9
$HANDLING
 70
     1
  9
$HANDSEED
  5
293
  9
$SURFTAB1
 70
     6
  9
$SURFTAB2
 70
     6
  9
$SURFTYPE
 70
     6
  9
$SURFU
 70
     6
  9
$SURFV
 70
     6
  9
$UCSNAME
  2

  9
$UCSORG
 10
0.0
 20
0.0
 30
0.0
  9
$UCSXDIR
 10
1.0
 20
0.0
 30
0.0
  9
$UCSYDIR
 10
0.0
 20
1.0
 30
0.0
  9
$PUCSNAME
  2

  9
$PUCSORG
 10
0.0
 20
0.0
 30
0.0
  9
$PUCSXDIR
 10
1.0
 20
0.0
 30
0.0
  9
$PUCSYDIR
 10
0.0
 20
1.0
 30
0.0
  9
$USERI1
 70
     3
  9
$USERI2
 70
     1
  9
$USERI3
 70
     0
  9
$USERI4
 70
     1
  9
$USERI5
 70
     0
  9
$USERR1
 40
1.0
  9
$USERR2
 40
3.0
  9
$USERR3
 40
3.0
  9
$USERR4
 40
3.0
  9
$USERR5
 40
10.0
  9
$WORLDVIEW
 70
     1
  9
$SHADEDGE
 70
     3
  9
$SHADEDIF
 70
    70
  9
$TILEMODE
 70
     1
  9
$MAXACTVP
 70
    16
  9
$PLIMCHECK
 70
     0
  9
$PEXTMIN
 10
1.0000000000000000E+020
 20
1.0000000000000000E+020
 30
1.0000000000000000E+020
  9
$PEXTMAX
 10
-1.0000000000000000E+020
 20
-1.0000000000000000E+020
 30
-1.0000000000000000E+020
  9
$PLIMMIN
 10
0.0
 20
0.0
  9
$PLIMMAX
 10
12.0
 20
9.0
  9
$UNITMODE
 70
     0
  9
$VISRETAIN
 70
     0
  9
$PLINEGEN
 70
     0
  9
$PSLTSCALE
 70
     0
  0
ENDSEC
  0
SECTION
  2
TABLES
  0
TABLE
  2
VPORT
 70
     1
  0
VPORT
  2
*ACTIVE
 70
     0
 10
0.0
 20
0.0
 11
1.0
 21
1.0
 12
202.54300214836019
 22
133.5127261426681
 13
0.0
 23
0.0
 14
10.0
 24
10.0
 15
10.0
 25
10.0
 16
0.0
 26
0.0
 36
1.0
 17
0.0
 27
0.0
 37
0.0
 40
275.42274993631997
 41
1.831871345029239
 42
50.0
 43
0.0
 44
0.0
 50
0.0
 51
0.0
 71
     0
 72
   100
 73
     1
 74
     0
 75
     0
 76
     0
 77
     0
 78
     0
  0
ENDTAB
  0
TABLE
  2
LTYPE
 70
     3
  0
LTYPE
  2
CONTINUOUS
 70
     0
  3
Solid Line
 72
    65
 73
     0
 40
0.0
  0
LTYPE
  2
CENTER
 70
     0
  3
____ _ ____ _ ____ _ ____ _ ____ _ ____ _ ____
 72
    65
 73
     4
 40
2.0
 49
1.25
 49
-0.25
 49
0.25
 49
-0.25
  0
LTYPE
  2
PHANTOM2
 70
     0
  3
___ _ _ ___ _ _ ___ _ _ ___ _ _
 72
    65
 73
     6
 40
1.25
 49
0.625
 49
-0.125
 49
0.125
 49
-0.125
 49
0.125
 49
-0.125
  0
ENDTAB
  0
TABLE
  2
LAYER
 70
     3
  0
LAYER
  2
0
 70
     0
 62
     7
  6
CONTINUOUS
  0
LAYER
  2
1
 70
     0
 62
     1
  6
CENTER
  0
LAYER
  2
ITEM_HILFE
 70
     0
 62
     3
  6
CONTINUOUS
  0
ENDTAB
  0
TABLE
  2
STYLE
 70
     2
  0
STYLE
  2
STANDARD
 70
     0
 40
0.0
 41
1.0
 50
0.0
 71
     0
 42
0.2
  3
TXT
  4
BIGFONT
  0
STYLE
  2
STANDARD1
 70
     0
 40
0.0
 41
1.0
 50
0.0
 71
     0
 42
3.0
  3
txt
  4

  0
ENDTAB
  0
TABLE
  2
VIEW
 70
     0
  0
ENDTAB
  0
TABLE
  2
UCS
 70
     0
  0
ENDTAB
  0
TABLE
  2
APPID
 70
     3
  0
APPID
  2
ACAD
 70
     0
  0
APPID
  2
ACAD_MLEADERVER
 70
     0
  0
APPID
  2
ACAD_NAV_VCDISPLAY
 70
     0
  0
ENDTAB
  0
TABLE
  2
DIMSTYLE
 70
     1
  0
DIMSTYLE
  2
STANDARD
 70
     0
  3

  4

  5

  6

  7

 40
1.0
 41
0.18
 42
0.0625
 43
0.38
 44
0.18
 45
0.0
 46
0.0
 47
0.0
 48
0.0
140
0.18
141
0.09
142
0.0
143
25.399999999999999
144
1.0
145
0.0
146
1.0
147
0.09
 71
     0
 72
     0
 73
     1
 74
     1
 75
     0
 76
     0
 77
     0
 78
     0
170
     0
171
     2
172
     0
173
     0
174
     0
175
     0
176
     0
177
     0
178
     0
  0
ENDTAB
  0
ENDSEC
  0
SECTION
  2
BLOCKS
  0
BLOCK
  8
0
  2
$MODEL_SPACE
 70
     0
 10
0.0
 20
0.0
 30
0.0
  3
$MODEL_SPACE
  1

  0
ENDBLK
  5
116
  8
0
  0
BLOCK
 67
     1
  8
0
  2
$PAPER_SPACE
 70
     0
 10
0.0
 20
0.0
 30
0.0
  3
$PAPER_SPACE
  1

  0
ENDBLK
  5
114
 67
     1
  8
0
  0
BLOCK
  8
0
  2
ACAD
 70
     0
 10
0.0
 20
0.0
 30
0.0
  3
ACAD
  1

  0
ENDBLK
  5
3A
  8
0
  0
BLOCK
  8
0
  2
37346B
 70
     0
 10
0.0
 20
0.0
 30
0.0
  3
37346B
  1

  0
ENDBLK
  5
3C
  8
0
  0
BLOCK
  8
0
  2
37390B
 70
     0
 10
0.0
 20
0.0
 30
0.0
  3
37390B
  1

  0
ENDBLK
  5
3E
  8
0
  0
ENDSEC
  0
SECTION
  2
ENTITIES
  0
INSERT
  5
48
  8
ITEM_HILFE
  2
ACAD
 10
69.305751999999984
 20
99.686901000000006
 30
0.0
  0
INSERT
  5
49
  8
0
  2
ACAD
 10
265.86694799999998
 20
288.46792099999999
 30
0.0
  0
INSERT
  5
4A
  8
0
  2
37346B
 10
64.704256999999984
 20
-18.001024999999998
 30
0.0
  0
INSERT
  5
4B
  8
0
  2
37390B
 10
64.704256999999984
 20
-18.001024999999998
 30
0.0
  0
INSERT
  5
4C
  8
0
  2
37346B
 10
64.704256999999984
 20
-18.001024999999998
 30
0.0
  0
INSERT
  5
4D
  8
0
  2
37390B
 10
64.704256999999984
 20
-18.001024999999998
 30
0.0
  0
INSERT
  5
4E
  8
0
  2
37346B
 10
83.488872000000001
 20
389.67589800000002
 30
0.0
  0
INSERT
  5
4F
  8
0
  2
37390B
 10
83.488872000000001
 20
389.67589800000002
 30
0.0
  0
INSERT
  5
50
  8
0
  2
37346B
 10
83.488872000000001
 20
389.67589800000002
 30
0.0
  0
INSERT
  5
51
  8
0
  2
37390B
 10
83.488872000000001
 20
389.67589800000002
 30
0.0
  0
INSERT
  5
52
  8
0
  2
37390B
 10
578.10859600000003
 20
300.16179099999999
 30
0.0
  0
LINE
  5
53
  8
1
 10
178.79442900000001
 20
135.57591600000001
 30
0.0
 11
210.36566099999999
 21
135.57591600000001
 31
0.0
  0
CIRCLE
  5
54
  8
0
 10
185.36566099999999
 20
135.57591600000001
 30
0.0
 40
3.399999999999999
  0
LINE
  5
55
  8
0
 10
177.86566099999999
 20
153.57591600000001
 30
0.0
 11
177.86566099999999
 21
153.57591600000001
 31
0.0
  0
LINE
  5
56
  8
0
 10
192.86566099999999
 20
153.57591600000001
 30
0.0
 11
192.86566099999999
 21
153.57591600000001
 31
0.0
  0
LINE
  5
57
  8
1
 10
185.36566099999999
 20
160.57591600000001
 30
0.0
 11
185.36566099999999
 21
129.726482
 31
0.0
  0
POLYLINE
  5
58
  8
0
 66
     1
 10
0.0
 20
0.0
 30
0.0
 70
     1
  0
VERTEX
  5
59
  8
0
 10
167.165661
 20
151.57591599999989
 30
0.0
 42
-0.4142140000000001
  0
VERTEX
  5
5A
  8
0
 10
169.36566099999999
 20
153.775916
 30
0.0
  0
VERTEX
  5
5B
  8
0
 10
173.06566100000001
 20
153.775916
 30
0.0
 42
-0.4142140000000001
  0
VERTEX
  5
5C
  8
0
 10
173.56566100000001
 20
153.275916
 30
0.0
  0
VERTEX
  5
5D
  8
0
 10
173.56566100000001
 20
147.87591599999999
 30
0.0
 42
-0.4142140000000001
  0
VERTEX
  5
5E
  8
0
 10
173.06566100000001
 20
147.37591599999999
 30
0.0
  0
VERTEX
  5
5F
  8
0
 10
167.665661
 20
147.37591599999999
 30
0.0
 42
-0.4142140000000001
  0
VERTEX
  5
60
  8
0
 10
167.165661
 20
147.87591599999999
 30
0.0
  0
SEQEND
  5
61
  8
0
  0
POLYLINE
  5
62
  8
0
 66
     1
 10
0.0
 20
0.0
 30
0.0
 70
     1
  0
VERTEX
  5
63
  8
0
 10
197.665661
 20
153.775916
 30
0.0
 42
0.4142140000000001
  0
VERTEX
  5
64
  8
0
 10
197.165661
 20
153.275916
 30
0.0
  0
VERTEX
  5
65
  8
0
 10
197.165661
 20
147.87591599999999
 30
0.0
 42
0.4142140000000001
  0
VERTEX
  5
66
  8
0
 10
197.665661
 20
147.37591599999999
 30
0.0
  0
VERTEX
  5
67
  8
0
 10
203.06566100000001
 20
147.37591599999999
 30
0.0
 42
0.4142140000000001
  0
VERTEX
  5
68
  8
0
 10
203.56566100000001
 20
147.87591599999999
 30
0.0
  0
VERTEX
  5
69
  8
0
 10
203.56566100000001
 20
151.57591599999989
 30
0.0
 42
0.4142140000000001
  0
VERTEX
  5
6A
  8
0
 10
201.36566099999999
 20
153.775916
 30
0.0
  0
SEQEND
  5
6B
  8
0
  0
POLYLINE
  5
6C
  8
0
 66
     1
 10
0.0
 20
0.0
 30
0.0
 70
     1
  0
VERTEX
  5
6D
  8
0
 10
197.665661
 20
117.375916
 30
0.0
 42
-0.4142140000000001
  0
VERTEX
  5
6E
  8
0
 10
197.165661
 20
117.875916
 30
0.0
  0
VERTEX
  5
6F
  8
0
 10
197.165661
 20
123.275916
 30
0.0
 42
-0.4142140000000001
  0
VERTEX
  5
70
  8
0
 10
197.665661
 20
123.775916
 30
0.0
  0
VERTEX
  5
71
  8
0
 10
203.06566100000001
 20
123.775916
 30
0.0
 42
-0.4142140000000001
  0
VERTEX
  5
72
  8
0
 10
203.56566100000001
 20
123.275916
 30
0.0
  0
VERTEX
  5
73
  8
0
 10
203.56566100000001
 20
119.57591600000001
 30
0.0
 42
-0.4142140000000001
  0
VERTEX
  5
74
  8
0
 10
201.36566099999999
 20
117.375916
 30
0.0
  0
SEQEND
  5
75
  8
0
  0
LINE
  5
76
  8
0
 10
167.336376
 20
144.722362
 30
0.0
 11
176.76210699999999
 21
135.29663199999999
 31
0.0
  0
ARC
  5
77
  8
0
 10
177.11566099999999
 20
135.65018499999999
 30
0.0
 40
0.5
 50
225.0
 51
0.0
  0
LINE
  5
78
  8
0
 10
177.61566099999999
 20
135.65018499999999
 30
0.0
 11
177.61566099999999
 21
139.12904399999999
 31
0.0
  0
ARC
  5
79
  8
0
 10
172.61566099999999
 20
139.12904399999999
 30
0.0
 40
5.0
 50
0.0
 51
45.0
  0
LINE
  5
7A
  8
0
 10
176.151194
 20
142.66457800000001
 30
0.0
 11
174.70432299999999
 21
144.11144999999999
 31
0.0
  0
ARC
  5
7B
  8
0
 10
171.168789
 20
140.57591600000001
 30
0.0
 40
5.0
 50
45.0
 51
90.0
  0
LINE
  5
7C
  8
0
 10
171.168789
 20
145.57591599999989
 30
0.0
 11
167.68993
 21
145.57591599999989
 31
0.0
  0
ARC
  5
7D
  8
0
 10
167.68993
 20
145.07591600000001
 30
0.0
 40
0.5
 50
90.0
 51
225.0
  0
ARC
  5
7E
  8
0
 10
185.43993
 20
127.32591600000001
 30
0.0
 40
0.5
 50
90.0
 51
225.0
  0
LINE
  5
7F
  8
0
 10
185.43993
 20
127.82591600000001
 30
0.0
 11
188.918789
 21
127.82591600000001
 31
0.0
  0
ARC
  5
80
  8
0
 10
188.918789
 20
122.82591600000001
 30
0.0
 40
5.0
 50
45.0
 51
90.0
  0
LINE
  5
81
  8
0
 10
192.45432299999999
 20
126.36145
 30
0.0
 11
193.901194
 21
124.91457800000001
 31
0.0
  0
ARC
  5
82
  8
0
 10
190.36566099999999
 20
121.37904399999999
 30
0.0
 40
5.0
 50
0.0
 51
45.0
  0
LINE
  5
83
  8
0
 10
195.36566099999999
 20
121.37904399999999
 30
0.0
 11
195.36566099999999
 21
117.90018499999999
 31
0.0
  0
ARC
  5
84
  8
0
 10
194.86566099999999
 20
117.90018499999999
 30
0.0
 40
0.5
 50
225.0
 51
0.0
  0
LINE
  5
85
  8
0
 10
194.51210699999999
 20
117.546632
 30
0.0
 11
185.086376
 21
126.972362
 31
0.0
  0
LINE
  5
86
  8
0
 10
169.452247
 20
155.574061
 30
0.0
 11
179.86566099999999
 21
155.574061
 31
0.0
  0
LINE
  5
87
  8
0
 10
205.36380600000001
 20
151.489329
 30
0.0
 11
205.36380600000001
 21
141.07591600000001
 31
0.0
  0
LINE
  5
88
  8
0
 10
178.36566099999999
 20
151.57591599999989
 30
0.0
 11
178.36566099999999
 21
153.07591600000001
 31
0.0
  0
ARC
  5
89
  8
0
 10
177.86566099999999
 20
153.07591600000001
 30
0.0
 40
0.5
 50
359.99995699999999
 51
90.000043000000005
  0
ARC
  5
8A
  8
0
 10
177.86565899999999
 20
151.075918
 30
0.0
 40
2.4999980000000002
 50
89.999956999999995
 51
180.00004300000001
  0
LINE
  5
8B
  8
0
 10
175.36566099999999
 20
151.07591600000001
 30
0.0
 11
175.36566099999999
 21
149.768304
 31
0.0
  0
ARC
  5
8C
  8
0
 10
180.36566999999999
 20
149.76830699999999
 30
0.0
 40
5.0000089999999986
 50
180.00003899999999
 51
224.99995799999999
  0
LINE
  5
8D
  8
0
 10
176.830127
 20
146.23276999999999
 30
0.0
 11
178.272515
 21
144.79038199999999
 31
0.0
  0
ARC
  5
8E
  8
0
 10
181.808052
 20
148.32592500000001
 30
0.0
 40
5.0000089999999986
 50
225.00004200000001
 51
269.99996099999998
  0
LINE
  5
8F
  8
0
 10
181.80804900000001
 20
143.32591599999989
 30
0.0
 11
188.923272
 21
143.32591599999989
 31
0.0
  0
ARC
  5
90
  8
0
 10
188.923269
 20
148.32592500000001
 30
0.0
 40
5.0000089999999986
 50
270.00003900000002
 51
314.99995799999999
  0
LINE
  5
91
  8
0
 10
192.45880600000001
 20
144.79038199999999
 30
0.0
 11
193.901194
 21
146.23276999999999
 31
0.0
  0
ARC
  5
92
  8
0
 10
190.36565200000001
 20
149.76830899999999
 30
0.0
 40
5.0000089999999986
 50
315.00002899999998
 51
359.99994800000002
  0
LINE
  5
93
  8
0
 10
195.36566099999999
 20
149.768304
 30
0.0
 11
195.36566099999999
 21
151.07591600000001
 31
0.0
  0
ARC
  5
94
  8
0
 10
192.86566300000001
 20
151.075918
 30
0.0
 40
2.4999980000000002
 50
359.99995699999999
 51
90.000043000000005
  0
ARC
  5
95
  8
0
 10
192.86566099999999
 20
153.07591600000001
 30
0.0
 40
0.5
 50
89.999956999999995
 51
180.00004300000001
  0
LINE
  5
96
  8
0
 10
192.36566099999999
 20
153.07591600000001
 30
0.0
 11
192.36566099999999
 21
151.57591599999989
 31
0.0
  0
ARC
  5
97
  8
0
 10
191.86566099999999
 20
151.57591599999989
 30
0.0
 40
0.5
 50
269.99995699999999
 51
0.000043
  0
LINE
  5
98
  8
0
 10
191.86566099999999
 20
151.07591600000001
 30
0.0
 11
190.36566099999999
 21
151.07591600000001
 31
0.0
  0
ARC
  5
99
  8
0
 10
190.36565999999999
 20
152.07591500000001
 30
0.0
 40
0.999999
 50
179.99995699999999
 51
270.00004300000001
  0
LINE
  5
9A
  8
0
 10
189.36566099999999
 20
152.07591600000001
 30
0.0
 11
189.36566099999999
 21
154.074061
 31
0.0
  0
ARC
  5
9B
  8
0
 10
201.364724
 20
151.57497900000001
 30
0.0
 40
3.999998999999999
 50
358.77306399999998
 51
91.226935999999995
  0
LINE
  5
9C
  8
0
 10
203.86380600000001
 20
139.57591600000001
 30
0.0
 11
201.86566099999999
 21
139.57591600000001
 31
0.0
  0
ARC
  5
9D
  8
0
 10
201.86565999999999
 20
140.5759149999999
 30
0.0
 40
0.999999
 50
179.99995699999999
 51
270.00004300000001
  0
LINE
  5
9E
  8
0
 10
200.86566099999999
 20
140.57591600000001
 30
0.0
 11
200.86566099999999
 21
142.07591600000001
 31
0.0
  0
ARC
  5
9F
  8
0
 10
201.36566099999999
 20
142.07591600000001
 30
0.0
 40
0.5
 50
89.999956999999995
 51
180.00004300000001
  0
LINE
  5
A0
  8
0
 10
201.36566099999999
 20
142.57591600000001
 30
0.0
 11
202.86566099999999
 21
142.57591600000001
 31
0.0
  0
ARC
  5
A1
  8
0
 10
202.86566099999999
 20
143.07591600000001
 30
0.0
 40
0.5
 50
269.99995699999999
 51
0.000043
  0
LINE
  5
A2
  8
0
 10
203.36566099999999
 20
143.07591600000001
 30
0.0
 11
203.36566099999999
 21
143.07591600000001
 31
0.0
  0
ARC
  5
A3
  8
0
 10
200.86566300000001
 20
143.075918
 30
0.0
 40
2.4999980000000002
 50
359.99995699999999
 51
90.000043000000005
  0
LINE
  5
A4
  8
0
 10
200.86566099999999
 20
145.57591599999989
 30
0.0
 11
199.55804900000001
 21
145.57591599999989
 31
0.0
  0
ARC
  5
A5
  8
0
 10
199.558052
 20
140.575907
 30
0.0
 40
5.0000089999999986
 50
90.000039000000015
 51
134.99995799999999
  0
LINE
  5
A6
  8
0
 10
196.022515
 20
144.11144999999999
 30
0.0
 11
194.580127
 21
142.669062
 31
0.0
  0
ARC
  5
A7
  8
0
 10
198.11566999999999
 20
139.13352499999999
 30
0.0
 40
5.0000089999999986
 50
135.00004199999989
 51
179.99996100000001
  0
LINE
  5
A8
  8
0
 10
193.11566099999999
 20
139.13352800000001
 30
0.0
 11
193.11566099999999
 21
132.018304
 31
0.0
  0
ARC
  5
A9
  8
0
 10
198.11566999999999
 20
132.01830699999999
 30
0.0
 40
5.0000089999999986
 50
180.00003899999999
 51
224.99995799999999
  0
LINE
  5
AA
  8
0
 10
194.580127
 20
128.48276999999999
 30
0.0
 11
196.022515
 21
127.04038199999999
 31
0.0
  0
ARC
  5
AB
  8
0
 10
199.558052
 20
130.57592500000001
 30
0.0
 40
5.0000089999999986
 50
225.00004200000001
 51
269.99996099999998
  0
LINE
  5
AC
  8
0
 10
199.55804900000001
 20
125.57591600000001
 30
0.0
 11
200.86566099999999
 21
125.57591600000001
 31
0.0
  0
ARC
  5
AD
  8
0
 10
200.86566300000001
 20
128.07591400000001
 30
0.0
 40
2.4999980000000002
 50
269.99995699999999
 51
0.000043
  0
LINE
  5
AE
  8
0
 10
203.36566099999999
 20
128.07591600000001
 30
0.0
 11
203.36566099999999
 21
128.07591600000001
 31
0.0
  0
ARC
  5
AF
  8
0
 10
202.86566099999999
 20
128.07591600000001
 30
0.0
 40
0.5
 50
359.99995699999999
 51
90.000043000000005
  0
LINE
  5
B0
  8
0
 10
202.86566099999999
 20
128.57591600000001
 30
0.0
 11
201.36566099999999
 21
128.57591600000001
 31
0.0
  0
ARC
  5
B1
  8
0
 10
201.36566099999999
 20
129.07591600000001
 30
0.0
 40
0.5
 50
179.99995699999999
 51
270.00004300000001
  0
LINE
  5
B2
  8
0
 10
200.86566099999999
 20
129.07591600000001
 30
0.0
 11
200.86566099999999
 21
130.57591600000001
 31
0.0
  0
ARC
  5
B3
  8
0
 10
201.86565999999999
 20
130.575917
 30
0.0
 40
0.999999
 50
89.999956999999995
 51
180.00004300000001
  0
LINE
  5
B4
  8
0
 10
201.86566099999999
 20
131.57591600000001
 30
0.0
 11
203.86380600000001
 21
131.57591600000001
 31
0.0
  0
ARC
  5
B5
  8
0
 10
201.364723
 20
119.576853
 30
0.0
 40
4.0
 50
268.77307100000002
 51
1.2269429999999999
  0
LINE
  5
B6
  8
0
 10
201.27907400000001
 20
115.57777
 30
0.0
 11
195.33654899999999
 21
115.57777
 31
0.0
  0
ARC
  5
B7
  8
0
 10
195.336546
 20
119.577764
 30
0.0
 40
3.999994
 50
224.366647
 51
270.00004000000001
  0
ARC
  5
B8
  8
0
 10
169.365658
 20
145.548663
 30
0.0
 40
3.999992999999999
 50
179.982111
 51
225.633341
  0
LINE
  5
B9
  8
0
 10
165.36566500000001
 20
145.54991200000001
 30
0.0
 11
165.367515
 21
151.489329
 31
0.0
  0
ARC
  5
BA
  8
0
 10
169.36659700000001
 20
151.57497900000001
 30
0.0
 40
3.999998999999999
 50
88.773064000000005
 51
181.22693599999999
  0
LINE
  5
BB
  8
0
 10
181.36566099999999
 20
154.074061
 30
0.0
 11
181.36566099999999
 21
152.07591600000001
 31
0.0
  0
ARC
  5
BC
  8
0
 10
180.36566199999999
 20
152.07591500000001
 30
0.0
 40
0.999999
 50
269.99995699999999
 51
0.000043
  0
LINE
  5
BD
  8
0
 10
180.36566099999999
 20
151.07591600000001
 30
0.0
 11
178.86566099999999
 21
151.07591600000001
 31
0.0
  0
ARC
  5
BE
  8
0
 10
178.86566099999999
 20
151.57591599999989
 30
0.0
 40
0.5
 50
179.99995699999999
 51
270.00004300000001
  0
LINE
  5
BF
  8
0
 10
205.36380600000001
 20
130.07591600000001
 30
0.0
 11
205.36380600000001
 21
119.662503
 31
0.0
  0
LINE
  5
C0
  8
0
 10
190.86566099999999
 20
155.574061
 30
0.0
 11
201.27907400000001
 21
155.574061
 31
0.0
  0
LINE
  5
C1
  8
0
 10
166.56867299999999
 20
142.68914899999999
 30
0.0
 11
192.47703100000001
 21
116.780779
 31
0.0
  0
ARC
  5
C2
  8
0
 10
179.86566099999999
 20
154.074061
 30
0.0
 40
1.5
 50
0.0
 51
90.0
  0
ARC
  5
C3
  8
0
 10
190.86566099999999
 20
154.074061
 30
0.0
 40
1.5
 50
90.0
 51
180.0
  0
ARC
  5
C4
  8
0
 10
203.86380600000001
 20
141.07591600000001
 30
0.0
 40
1.5
 50
270.0
 51
0.0
  0
ARC
  5
C5
  8
0
 10
203.86380600000001
 20
130.07591600000001
 30
0.0
 40
1.5
 50
0.0
 51
90.0
  0
LINE
  5
C6
  8
0
 10
225.36380600000001
 20
155.574061
 30
0.0
 11
225.36380600000001
 21
115.57777
 31
0.0
  0
LINE
  5
C7
  8
0
 10
205.36380600000001
 20
95.577769999999987
 30
0.0
 11
165.36566500000001
 21
95.577769999999987
 31
0.0
  0
LINE
  5
C8
  8
0
 10
94.367515999999995
 20
155.574061
 30
0.0
 11
145.36751599999999
 21
155.574061
 31
0.0
  0
LINE
  5
C9
  8
0
 10
94.367515999999995
 20
115.57777
 30
0.0
 11
145.36751599999999
 21
115.57777
 31
0.0
  0
LINE
  5
CA
  8
0
 10
205.36380600000001
 20
95.577769999999987
 30
0.0
 11
205.36380600000001
 21
44.577770000000001
 31
0.0
  0
LINE
  5
CB
  8
0
 10
165.36566500000001
 20
95.577769999999987
 30
0.0
 11
165.36566500000001
 21
44.577770000000001
 31
0.0
  0
LINE
  5
CC
  8
0
 10
276.36380600000001
 20
115.57777
 30
0.0
 11
225.36380600000001
 21
115.57777
 31
0.0
  0
LINE
  5
CD
  8
0
 10
276.36380600000001
 20
155.574061
 30
0.0
 11
225.36380600000001
 21
155.574061
 31
0.0
  0
LINE
  5
CE
  8
0
 10
145.36751599999999
 20
155.574061
 30
0.0
 11
145.36751599999999
 21
115.57777
 31
0.0
  0
LINE
  5
CF
  8
0
 10
276.36380600000001
 20
139.57591600000001
 30
0.0
 11
225.36380600000001
 21
139.57591600000001
 31
0.0
  0
LINE
  5
D0
  8
0
 10
276.36380600000001
 20
131.57591600000001
 30
0.0
 11
225.36380600000001
 21
131.57591600000001
 31
0.0
  0
LINE
  5
D1
  8
0
 10
94.367515999999995
 20
143.99810600000001
 30
0.0
 11
145.36751599999999
 21
143.99810600000001
 31
0.0
  0
LINE
  5
D2
  8
0
 10
276.36380600000001
 20
155.574061
 30
0.0
 11
276.36380600000001
 21
115.57777
 31
0.0
  0
LINE
  5
D3
  8
0
 10
94.367515999999995
 20
155.574061
 30
0.0
 11
94.367515999999995
 21
115.57777
 31
0.0
  0
LINE
  5
D4
  8
0
 10
205.36380600000001
 20
44.577770000000001
 30
0.0
 11
165.36566500000001
 21
44.577770000000001
 31
0.0
  0
LINE
  5
D5
  8
0
 10
145.36751599999999
 20
155.574061
 30
0.0
 11
94.367515999999995
 21
155.574061
 31
0.0
  0
LINE
  5
D6
  8
0
 10
145.36751599999999
 20
115.57777
 30
0.0
 11
94.367515999999995
 21
115.57777
 31
0.0
  0
LINE
  5
D7
  8
0
 10
225.36380600000001
 20
155.574061
 30
0.0
 11
226.36380600000001
 21
155.574061
 31
0.0
  0
LINE
  5
D8
  8
0
 10
225.36380600000001
 20
115.57777
 30
0.0
 11
226.36380600000001
 21
115.57777
 31
0.0
  0
LINE
  5
D9
  8
0
 10
205.36380600000001
 20
226.574062
 30
0.0
 11
165.36566500000001
 21
226.574062
 31
0.0
  0
LINE
  5
DA
  8
0
 10
189.36566099999999
 20
175.574062
 30
0.0
 11
189.36566099999999
 21
226.574062
 31
0.0
  0
LINE
  5
DB
  8
0
 10
181.36566099999999
 20
175.574062
 30
0.0
 11
181.36566099999999
 21
226.574062
 31
0.0
  0
LINE
  5
DC
  8
0
 10
165.36566500000001
 20
175.574062
 30
0.0
 11
165.36566500000001
 21
226.574062
 31
0.0
  0
LINE
  5
DD
  8
0
 10
205.36380600000001
 20
175.574062
 30
0.0
 11
205.36380600000001
 21
226.574062
 31
0.0
  0
LINE
  5
DE
  8
0
 10
205.36380600000001
 20
175.574062
 30
0.0
 11
165.36566500000001
 21
175.574062
 31
0.0
  0
LINE
  5
DF
  8
0
 10
193.785414
 20
95.577769999999987
 30
0.0
 11
193.785414
 21
44.577770000000001
 31
0.0
  0
TEXT
  5
204
  8
0
 62
     3
 10
0.0
 20
0.0
 30
0.0
 40
10.0
  1
APL4040B
  7
STANDARD1
  0
ENDSEC
  0
EOF
