  0
SECTION
  2
HEADER
  9
$ACADVER
  1
AC1009
  9
$INSBASE
 10
0.0
 20
0.0
 30
0.0
  9
$EXTMIN
 10
-0.0204638472032742
 20
-2.960436562073669
 30
0.0
  9
$EXTMAX
 10
326.11141500000002
 20
251.38207299999999
 30
0.0
  9
$LIMMIN
 10
0.0
 20
0.0
  9
$LIMMAX
 10
375.0
 20
270.0
  9
$ORTHOMODE
 70
     1
  9
$REGENMODE
 70
     1
  9
$FILLMODE
 70
     1
  9
$QTEXTMODE
 70
     0
  9
$MIRRTEXT
 70
     0
  9
$DRAGMODE
 70
     2
  9
$LTSCALE
 40
10.0
  9
$OSMODE
 70
  3071
  9
$ATTMODE
 70
     1
  9
$TEXTSIZE
 40
0.2
  9
$TRACEWID
 40
0.05
  9
$TEXTSTYLE
  7
STANDARD
  9
$CLAYER
  8
0
  9
$CELTYPE
  6
BYLAYER
  9
$CECOLOR
 62
   256
  9
$DIMSCALE
 40
1.0
  9
$DIMASZ
 40
3.0
  9
$DIMEXO
 40
2.0
  9
$DIMDLI
 40
10.0
  9
$DIMRND
 40
0.0
  9
$DIMDLE
 40
0.0
  9
$DIMEXE
 40
2.0
  9
$DIMTP
 40
0.0
  9
$DIMTM
 40
0.0
  9
$DIMTXT
 40
3.2000000000000002
  9
$DIMCEN
 40
0.0
  9
$DIMTSZ
 40
0.0
  9
$DIMTOL
 70
     0
  9
$DIMLIM
 70
     0
  9
$DIMTIH
 70
     0
  9
$DIMTOH
 70
     0
  9
$DIMSE1
 70
     0
  9
$DIMSE2
 70
     0
  9
$DIMTAD
 70
     1
  9
$DIMZIN
 70
     0
  9
$DIMBLK
  1

  9
$DIMASO
 70
     0
  9
$DIMSHO
 70
     0
  9
$DIMPOST
  1

  9
$DIMAPOST
  1

  9
$DIMALT
 70
     0
  9
$DIMALTD
 70
     2
  9
$DIMALTF
 40
25.399999999999999
  9
$DIMLFAC
 40
1.0
  9
$DIMTOFL
 70
     1
  9
$DIMTVP
 40
1.6000000000000001
  9
$DIMTIX
 70
     1
  9
$DIMSOXD
 70
     0
  9
$DIMSAH
 70
     0
  9
$DIMBLK1
  1

  9
$DIMBLK2
  1

  9
$DIMSTYLE
  2
STANDARD
  9
$DIMCLRD
 70
     0
  9
$DIMCLRE
 70
     0
  9
$DIMCLRT
 70
     0
  9
$DIMTFAC
 40
1.0
  9
$DIMGAP
 40
0.09
  9
$LUNITS
 70
     2
  9
$LUPREC
 70
     4
  9
$SKETCHINC
 40
0.1
  9
$FILLETRAD
 40
1.5
  9
$AUNITS
 70
     0
  9
$AUPREC
 70
     4
  9
$MENU
  1
E:\r13\win\SUPPORT\ACAD
  9
$ELEVATION
 40
0.0
  9
$PELEVATION
 40
0.0
  9
$THICKNESS
 40
0.0
  9
$LIMCHECK
 70
     0
  9
$BLIPMODE
 70
     0
  9
$CHAMFERA
 40
0.0
  9
$CHAMFERB
 40
0.0
  9
$SKPOLY
 70
     0
  9
$TDCREATE
 40
2449567.5539151621
  9
$TDUPDATE
 40
2456597.5615237039
  9
$TDINDWG
 40
0.0005380556
  9
$TDUSRTIMER
 40
0.0005380556
  9
$USRTIMER
 70
     1
  9
$ANGBASE
 50
0.0
  9
$ANGDIR
 70
     0
  9
$PDMODE
 70
    35
  9
$PDSIZE
 40
0.0
  9
$PLINEWID
 40
0.0
  9
$COORDS
 70
     1
  9
$SPLFRAME
 70
     0
  9
$SPLINETYPE
 70
     6
  9
$SPLINESEGS
 70
     8
  9
$ATTDIA
 70
     0
  9
$ATTREQ
 70
     1
  9
$HANDLING
 70
     1
  9
$HANDSEED
  5
5D8
  9
$SURFTAB1
 70
     6
  9
$SURFTAB2
 70
     6
  9
$SURFTYPE
 70
     6
  9
$SURFU
 70
     6
  9
$SURFV
 70
     6
  9
$UCSNAME
  2

  9
$UCSORG
 10
0.0
 20
0.0
 30
0.0
  9
$UCSXDIR
 10
1.0
 20
0.0
 30
0.0
  9
$UCSYDIR
 10
0.0
 20
1.0
 30
0.0
  9
$PUCSNAME
  2

  9
$PUCSORG
 10
0.0
 20
0.0
 30
0.0
  9
$PUCSXDIR
 10
1.0
 20
0.0
 30
0.0
  9
$PUCSYDIR
 10
0.0
 20
1.0
 30
0.0
  9
$USERI1
 70
     0
  9
$USERI2
 70
     1
  9
$USERI3
 70
     0
  9
$USERI4
 70
     0
  9
$USERI5
 70
     0
  9
$USERR1
 40
0.0
  9
$USERR2
 40
0.0
  9
$USERR3
 40
0.0
  9
$USERR4
 40
0.0
  9
$USERR5
 40
0.0
  9
$WORLDVIEW
 70
     1
  9
$SHADEDGE
 70
     3
  9
$SHADEDIF
 70
    70
  9
$TILEMODE
 70
     1
  9
$MAXACTVP
 70
    16
  9
$PLIMCHECK
 70
     0
  9
$PEXTMIN
 10
1.0000000000000000E+020
 20
1.0000000000000000E+020
 30
1.0000000000000000E+020
  9
$PEXTMAX
 10
-1.0000000000000000E+020
 20
-1.0000000000000000E+020
 30
-1.0000000000000000E+020
  9
$PLIMMIN
 10
0.0
 20
0.0
  9
$PLIMMAX
 10
12.0
 20
9.0
  9
$UNITMODE
 70
     0
  9
$VISRETAIN
 70
     0
  9
$PLINEGEN
 70
     1
  9
$PSLTSCALE
 70
     0
  0
ENDSEC
  0
SECTION
  2
TABLES
  0
TABLE
  2
VPORT
 70
     1
  0
VPORT
  2
*ACTIVE
 70
     0
 10
0.0
 20
0.0
 11
1.0
 21
1.0
 12
195.04380321732449
 22
133.5127261426681
 13
0.0
 23
0.0
 14
10.0
 24
10.0
 15
10.0
 25
10.0
 16
0.0
 26
0.0
 36
1.0
 17
0.0
 27
0.0
 37
0.0
 40
275.42274993631997
 41
1.831871345029239
 42
50.0
 43
0.0
 44
0.0
 50
0.0
 51
0.0
 71
     0
 72
   500
 73
     1
 74
     0
 75
     0
 76
     0
 77
     0
 78
     2
  0
ENDTAB
  0
TABLE
  2
LTYPE
 70
     3
  0
LTYPE
  2
CONTINUOUS
 70
     0
  3
Solid Line
 72
    65
 73
     0
 40
0.0
  0
LTYPE
  2
CENTER
 70
     0
  3
____ _ ____ _ ____ _ ____ _ ____ _ ____ _ ____
 72
    65
 73
     4
 40
2.0
 49
1.25
 49
-0.25
 49
0.25
 49
-0.25
  0
LTYPE
  2
PHANTOM2
 70
     0
  3
___ _ _ ___ _ _ ___ _ _ ___ _ _
 72
    65
 73
     6
 40
1.25
 49
0.625
 49
-0.125
 49
0.125
 49
-0.125
 49
0.125
 49
-0.125
  0
ENDTAB
  0
TABLE
  2
LAYER
 70
     1
  0
LAYER
  2
0
 70
     0
 62
     7
  6
CONTINUOUS
  0
ENDTAB
  0
TABLE
  2
STYLE
 70
     2
  0
STYLE
  2
STANDARD
 70
     0
 40
0.0
 41
1.0
 50
0.0
 71
     0
 42
0.2
  3
ROMANS
  4
BIGFONT
  0
STYLE
  2
STANDARD1
 70
     0
 40
0.0
 41
1.0
 50
0.0
 71
     0
 42
3.0
  3
txt
  4

  0
ENDTAB
  0
TABLE
  2
VIEW
 70
     1
  0
VIEW
  2
ALL
 70
     0
 40
175.0
 10
143.23529411764699
 20
87.5
 41
0.0
 11
0.0
 21
0.0
 31
1.0
 12
0.0
 22
0.0
 32
0.0
 42
0.0
 43
0.0
 44
0.0
 50
0.0
 71
     0
  0
ENDTAB
  0
TABLE
  2
UCS
 70
     0
  0
ENDTAB
  0
TABLE
  2
APPID
 70
     3
  0
APPID
  2
ACAD
 70
     0
  0
APPID
  2
ACAD_MLEADERVER
 70
     0
  0
APPID
  2
ACAD_NAV_VCDISPLAY
 70
     0
  0
ENDTAB
  0
TABLE
  2
DIMSTYLE
 70
     1
  0
DIMSTYLE
  2
STANDARD
 70
     0
  3

  4

  5

  6

  7

 40
1.0
 41
0.18
 42
0.0625
 43
0.38
 44
0.18
 45
0.0
 46
0.0
 47
0.0
 48
0.0
140
0.18
141
0.09
142
0.0
143
25.399999999999999
144
1.0
145
0.0
146
1.0
147
0.09
 71
     0
 72
     0
 73
     1
 74
     1
 75
     0
 76
     0
 77
     0
 78
     0
170
     0
171
     2
172
     0
173
     0
174
     0
175
     0
176
     0
177
     0
178
     0
  0
ENDTAB
  0
ENDSEC
  0
SECTION
  2
BLOCKS
  0
BLOCK
  8
0
  2
$MODEL_SPACE
 70
     0
 10
0.0
 20
0.0
 30
0.0
  3
$MODEL_SPACE
  1

  0
ENDBLK
  5
459
  8
0
  0
BLOCK
 67
     1
  8
0
  2
$PAPER_SPACE
 70
     0
 10
0.0
 20
0.0
 30
0.0
  3
$PAPER_SPACE
  1

  0
ENDBLK
  5
457
 67
     1
  8
0
  0
BLOCK
  8
0
  2
STDGX5
 70
     0
 10
0.0
 20
0.0
 30
0.0
  3
STDGX5
  1

  0
ENDBLK
  5
28
  8
0
  0
ENDSEC
  0
SECTION
  2
ENTITIES
  0
INSERT
  5
30
  8
0
  6
CONTINUOUS
 62
     7
  2
STDGX5
 10
0.0
 20
0.0
 30
0.0
  0
LINE
  5
31
  8
0
  6
CONTINUOUS
 62
     7
 10
211.71976900000001
 20
186.38207299999999
 30
0.0
 11
211.71976900000001
 21
246.38207299999999
 31
0.0
  0
LINE
  5
32
  8
0
  6
CONTINUOUS
 62
     7
 10
203.71976900000001
 20
186.38207299999999
 30
0.0
 11
203.71976900000001
 21
246.38207299999999
 31
0.0
  0
LINE
  5
33
  8
0
  6
CONTINUOUS
 62
     7
 10
163.7197689999999
 20
186.38207299999999
 30
0.0
 11
163.71976900000001
 21
246.38207299999999
 31
0.0
  0
LINE
  5
34
  8
0
  6
CONTINUOUS
 62
     7
 10
171.71976900000001
 20
186.38207299999999
 30
0.0
 11
171.71976900000001
 21
246.38207299999999
 31
0.0
  0
LINE
  5
40
  8
0
  6
CONTINUOUS
 62
     7
 10
147.7206984958577
 20
246.38207299999999
 30
0.0
 11
227.7206985363577
 21
246.38207299999999
 31
0.0
  0
LINE
  5
41
  8
0
  6
CONTINUOUS
 62
     7
 10
147.7206984958577
 20
186.38207299999999
 30
0.0
 11
227.7206985363577
 21
186.38207299999991
 31
0.0
  0
LINE
  5
42
  8
0
  6
CONTINUOUS
 62
     7
 10
54.328122999999991
 20
167.35698599999989
 30
0.0
 11
54.328122999999998
 21
87.356985999999992
 31
0.0
  0
LINE
  5
43
  8
0
  6
CONTINUOUS
 62
     7
 10
54.328122999999998
 20
111.35698600000001
 30
0.0
 11
114.32812300000001
 21
111.35698600000001
 31
0.0
  0
LINE
  5
44
  8
0
  6
CONTINUOUS
 62
     7
 10
54.328122999999998
 20
103.35698600000001
 30
0.0
 11
114.32812300000001
 21
103.35698600000001
 31
0.0
  0
LINE
  5
49
  8
0
  6
CONTINUOUS
 62
     7
 10
54.328122999999998
 20
143.35698600000001
 30
0.0
 11
114.32812300000001
 21
143.35698600000001
 31
0.0
  0
LINE
  5
4A
  8
0
  6
CONTINUOUS
 62
     7
 10
54.328122999999998
 20
151.35698600000001
 30
0.0
 11
114.32812300000001
 21
151.35698600000001
 31
0.0
  0
LINE
  5
4E
  8
0
  6
CONTINUOUS
 62
     7
 10
114.32812300000001
 20
167.35698599999989
 30
0.0
 11
114.32812300000001
 21
87.356985999999992
 31
0.0
  0
CIRCLE
  5
53
  8
0
  6
CONTINUOUS
 62
     7
 10
167.71976900000001
 20
147.35698600000001
 30
0.0
 40
3.399999999999999
  0
CIRCLE
  5
54
  8
0
  6
CONTINUOUS
 62
     7
 10
207.71976900000001
 20
147.35698600000001
 30
0.0
 40
3.399999999999999
  0
CIRCLE
  5
55
  8
0
  6
CONTINUOUS
 62
     7
 10
167.71976900000001
 20
107.35698600000001
 30
0.0
 40
3.399999999999999
  0
LINE
  5
56
  8
0
  6
CENTER
 62
     1
 10
167.71976900000001
 20
181.38207299999999
 30
0.0
 11
167.71976900000001
 21
251.38207299999999
 31
0.0
  0
LINE
  5
57
  8
0
  6
CENTER
 62
     1
 10
207.71976900000001
 20
181.38207299999999
 30
0.0
 11
207.7197690000001
 21
251.38207299999999
 31
0.0
  0
LINE
  5
58
  8
0
  6
CENTER
 62
     1
 10
49.328122999999998
 20
147.35698600000001
 30
0.0
 11
119.32812300000001
 21
147.35698600000001
 31
0.0
  0
LINE
  5
59
  8
0
  6
CENTER
 62
     1
 10
49.328122999999998
 20
107.35698600000001
 30
0.0
 11
119.32812300000001
 21
107.35698600000001
 31
0.0
  0
LINE
  5
61
  8
0
  6
CONTINUOUS
 62
     7
 10
163.7197689999999
 20
88.856986000000035
 30
0.0
 11
163.7197689999999
 21
90.856985999999978
 31
0.0
  0
ARC
  5
62
  8
0
  6
CONTINUOUS
 62
     7
 10
162.71976974707511
 20
90.856986747075169
 30
0.0
 40
0.9999992529251022
 50
359.99995719571342
 51
90.000042804286579
  0
LINE
  5
63
  8
0
  6
CONTINUOUS
 62
     7
 10
162.71976900000001
 20
91.856986000000006
 30
0.0
 11
161.21976900000001
 21
91.856986000000006
 31
0.0
  0
ARC
  5
64
  8
0
  6
CONTINUOUS
 62
     7
 10
161.21976862646241
 20
91.35698637353758
 30
0.0
 40
0.4999996264625512
 50
89.999957195711787
 51
180.00004280428661
  0
LINE
  5
65
  8
0
  6
CONTINUOUS
 62
     7
 10
160.71976900000001
 20
91.356985999999992
 30
0.0
 11
160.71976900000001
 21
89.856985999999992
 31
0.0
  0
ARC
  5
66
  8
0
  6
CONTINUOUS
 62
     7
 10
160.21976937353759
 20
89.856985626462404
 30
0.0
 40
0.4999996264625369
 50
269.99995719571177
 51
0.0000428042865895
  0
ARC
  5
67
  8
0
  6
CONTINUOUS
 62
     7
 10
160.219767132312
 20
91.856984132312036
 30
0.0
 40
2.4999981323127409
 50
179.99995719571311
 51
270.00004280428692
  0
LINE
  5
68
  8
0
  6
CONTINUOUS
 62
     7
 10
157.71976900000001
 20
91.856986000000006
 30
0.0
 11
157.71976900000001
 21
93.164597999999998
 31
0.0
  0
ARC
  5
69
  8
0
  6
CONTINUOUS
 62
     7
 10
162.7197775982917
 20
93.164594626605776
 30
0.0
 40
5.0000085982929079
 50
135.00004233647169
 51
179.99996134381621
  0
LINE
  5
6A
  8
0
  6
CONTINUOUS
 62
     7
 10
159.184235
 20
96.700131999999996
 30
0.0
 11
160.62662399999999
 21
98.14251999999999
 31
0.0
  0
ARC
  5
6B
  8
0
  6
CONTINUOUS
 62
     7
 10
164.16216137339421
 20
94.606977401708221
 30
0.0
 40
5.0000085982929079
 50
90.000038656183648
 51
134.99995766352819
  0
LINE
  5
6C
  8
0
  6
CONTINUOUS
 62
     7
 10
164.16215800000001
 20
99.606986000000006
 30
0.0
 11
171.27738099999999
 21
99.606986000000006
 31
0.0
  0
ARC
  5
6D
  8
0
  6
CONTINUOUS
 62
     7
 10
171.27737762660581
 20
94.606977401708264
 30
0.0
 40
5.0000085982928661
 50
45.000042336471473
 51
89.999961343816025
  0
LINE
  5
6E
  8
0
  6
CONTINUOUS
 62
     7
 10
174.812915
 20
98.14251999999999
 30
0.0
 11
176.255303
 21
96.700131999999996
 31
0.0
  0
ARC
  5
6F
  8
0
  6
CONTINUOUS
 62
     7
 10
172.71976040170821
 20
93.164594626605805
 30
0.0
 40
5.000008598292899
 50
0.0000386561835068
 51
44.999957663527837
  0
LINE
  5
70
  8
0
  6
CONTINUOUS
 62
     7
 10
177.71976900000001
 20
93.164597999999998
 30
0.0
 11
177.71976900000001
 21
91.856986000000006
 31
0.0
  0
ARC
  5
71
  8
0
  6
CONTINUOUS
 62
     7
 10
175.21977086768791
 20
91.856984132312036
 30
0.0
 40
2.4999981323127409
 50
269.99995719571308
 51
0.0000428042869152
  0
ARC
  5
72
  8
0
  6
CONTINUOUS
 62
     7
 10
175.21976862646241
 20
89.856985626462404
 30
0.0
 40
0.4999996264625512
 50
179.99995719571339
 51
270.00004280428823
  0
LINE
  5
73
  8
0
  6
CONTINUOUS
 62
     7
 10
174.71976900000001
 20
89.856985999999992
 30
0.0
 11
174.71976900000001
 21
91.356985999999992
 31
0.0
  0
ARC
  5
74
  8
0
  6
CONTINUOUS
 62
     7
 10
174.2197693735375
 20
91.35698637353758
 30
0.0
 40
0.4999996264625369
 50
359.99995719571342
 51
90.000042804288213
  0
LINE
  5
75
  8
0
  6
CONTINUOUS
 62
     7
 10
174.21976900000001
 20
91.856986000000006
 30
0.0
 11
172.71976900000001
 21
91.856986000000006
 31
0.0
  0
ARC
  5
76
  8
0
  6
CONTINUOUS
 62
     7
 10
172.71976825292481
 20
90.856986747075169
 30
0.0
 40
0.9999992529251022
 50
89.999957195713435
 51
180.00004280428661
  0
LINE
  5
77
  8
0
  6
CONTINUOUS
 62
     7
 10
171.71976900000001
 20
90.856985999999978
 30
0.0
 11
171.71976900000001
 21
88.856986000000006
 31
0.0
  0
LINE
  5
7E
  8
0
  6
CONTINUOUS
 62
     7
 10
203.82940739420681
 20
105.5904936066985
 30
0.0
 11
202.41646900000001
 21
107.003433
 31
0.0
  0
ARC
  5
7F
  8
0
  6
CONTINUOUS
 62
     7
 10
201.709362
 20
106.29632705652421
 30
0.0
 40
0.9999995623738271
 50
44.999957195713023
 51
135.00004280428701
  0
LINE
  5
80
  8
0
  6
CONTINUOUS
 62
     7
 10
201.00225499999999
 20
107.003433
 30
0.0
 11
199.94159500000001
 21
105.94277200000001
 31
0.0
  0
ARC
  5
81
  8
0
  6
CONTINUOUS
 62
     7
 10
200.29514747173869
 20
105.589219
 30
0.0
 40
0.4999990740806569
 50
134.99995719571231
 51
225.00004280428649
  0
LINE
  5
82
  8
0
  6
CONTINUOUS
 62
     7
 10
199.94159500000001
 20
105.23566599999999
 30
0.0
 11
201.00225499999999
 21
104.175005
 31
0.0
  0
ARC
  5
83
  8
0
  6
CONTINUOUS
 62
     7
 10
200.64870252826131
 20
103.82145199999999
 30
0.0
 40
0.4999990740806569
 50
314.99995719571348
 51
45.000042804287631
  0
ARC
  5
84
  8
0
  6
CONTINUOUS
 62
     7
 10
199.234488
 20
105.2356633586903
 30
0.0
 40
2.4999981988282811
 50
224.99995719571311
 51
315.00004280428692
  0
LINE
  5
85
  8
0
  6
CONTINUOUS
 62
     7
 10
197.46672100000001
 20
103.467899
 30
0.0
 11
196.5421
 21
104.39252
 31
0.0
  0
ARC
  5
86
  8
0
  6
CONTINUOUS
 62
     7
 10
200.0776425982917
 20
107.9280573733942
 30
0.0
 40
5.0000085982928892
 50
180.00003865618351
 51
224.99995766352819
  0
LINE
  5
87
  8
0
  6
CONTINUOUS
 62
     7
 10
195.07763399999999
 20
107.928054
 30
0.0
 11
195.07763399999999
 21
109.967899
 31
0.0
  0
ARC
  5
88
  8
0
  6
CONTINUOUS
 62
     7
 10
200.0776425982917
 20
109.9678956266058
 30
0.0
 40
5.0000085982928804
 50
135.00004233647189
 51
179.99996134381649
  0
LINE
  5
89
  8
0
  6
CONTINUOUS
 62
     7
 10
196.5421
 20
113.503433
 30
0.0
 11
201.57332299999999
 21
118.534656
 31
0.0
  0
ARC
  5
8A
  8
0
  6
CONTINUOUS
 62
     7
 10
205.10886037339421
 20
114.9991134017082
 30
0.0
 40
5.0000085982929177
 50
90.000038656183648
 51
134.99995766352799
  0
LINE
  5
8B
  8
0
  6
CONTINUOUS
 62
     7
 10
205.108857
 20
119.999122
 30
0.0
 11
207.14870199999999
 21
119.999122
 31
0.0
  0
ARC
  5
8C
  8
0
  6
CONTINUOUS
 62
     7
 10
207.14869812660581
 20
114.99911460881739
 30
0.0
 40
5.0000073911840488
 50
45.000036606893119
 51
89.999955614237535
  0
LINE
  5
8D
  8
0
  6
CONTINUOUS
 62
     7
 10
210.684235
 20
118.534656
 30
0.0
 11
211.608857
 21
117.610034
 31
0.0
  0
ARC
  5
8E
  8
0
  6
CONTINUOUS
 62
     7
 10
209.8410926413097
 20
115.84226700000001
 30
0.0
 40
2.4999981988283011
 50
314.99995719571319
 51
45.000042804286878
  0
ARC
  5
8F
  8
0
  6
CONTINUOUS
 62
     7
 10
211.2553035
 20
114.4280529717379
 30
0.0
 40
0.4999997811869036
 50
224.99995719571419
 51
315.00004280428823
  0
LINE
  5
90
  8
0
  6
CONTINUOUS
 62
     7
 10
210.90174999999999
 20
114.0745
 30
0.0
 11
209.84109000000001
 21
115.135161
 31
0.0
  0
ARC
  5
91
  8
0
  6
CONTINUOUS
 62
     7
 10
209.4875365
 20
114.7816080282621
 30
0.0
 40
0.4999997811869036
 50
44.999957195711872
 51
135.00004280428581
  0
LINE
  5
92
  8
0
  6
CONTINUOUS
 62
     7
 10
209.133983
 20
115.135161
 30
0.0
 11
208.07332299999999
 21
114.0745
 31
0.0
  0
ARC
  5
93
  8
0
  6
CONTINUOUS
 62
     7
 10
208.78042844347661
 20
113.36739350000001
 30
0.0
 40
0.9999988552675603
 50
134.99995719571319
 51
225.00004280428669
  0
LINE
  5
94
  8
0
  6
CONTINUOUS
 62
     7
 10
208.07332299999999
 20
112.660287
 30
0.0
 11
209.48648657313501
 21
111.2471224276055
 31
0.0
  0
LINE
  5
9B
  8
0
  6
CONTINUOUS
 62
     7
 10
226.21944951005651
 20
143.35698599999989
 30
0.0
 11
224.21976900000001
 21
143.35698600000001
 31
0.0
  0
ARC
  5
9C
  8
0
  6
CONTINUOUS
 62
     7
 10
224.21976825292481
 20
142.3569867470751
 30
0.0
 40
0.9999992529251022
 50
89.999957195713435
 51
180.00004280428661
  0
LINE
  5
9D
  8
0
  6
CONTINUOUS
 62
     7
 10
223.21976900000001
 20
142.35698600000001
 30
0.0
 11
223.21976900000001
 21
140.85698600000001
 31
0.0
  0
ARC
  5
9E
  8
0
  6
CONTINUOUS
 62
     7
 10
223.71976862646241
 20
140.8569856264624
 30
0.0
 40
0.4999996264625369
 50
179.99995719571169
 51
270.00004280428823
  0
LINE
  5
9F
  8
0
  6
CONTINUOUS
 62
     7
 10
223.71976900000001
 20
140.35698600000001
 30
0.0
 11
225.21976900000001
 21
140.35698600000001
 31
0.0
  0
ARC
  5
A0
  8
0
  6
CONTINUOUS
 62
     7
 10
225.21976937353759
 20
139.85698637353761
 30
0.0
 40
0.4999996264625369
 50
359.99995719571177
 51
90.000042804288213
  0
LINE
  5
A1
  8
0
  6
CONTINUOUS
 62
     7
 10
225.71976900000001
 20
139.85698600000001
 30
0.0
 11
225.71976900000001
 21
139.85698600000001
 31
0.0
  0
ARC
  5
A2
  8
0
  6
CONTINUOUS
 62
     7
 10
223.219770867688
 20
139.85698413231199
 30
0.0
 40
2.4999981323127409
 50
269.99995719571308
 51
0.0000428042869152
  0
LINE
  5
A3
  8
0
  6
CONTINUOUS
 62
     7
 10
223.21976900000001
 20
137.35698600000001
 30
0.0
 11
221.91215800000001
 21
137.35698600000001
 31
0.0
  0
ARC
  5
A4
  8
0
  6
CONTINUOUS
 62
     7
 10
221.91216137339421
 20
142.35699459829169
 30
0.0
 40
5.0000085982928804
 50
225.00004233647201
 51
269.99996134381638
  0
LINE
  5
A5
  8
0
  6
CONTINUOUS
 62
     7
 10
218.37662399999999
 20
138.82145199999999
 30
0.0
 11
216.934235
 21
140.26383999999999
 31
0.0
  0
ARC
  5
A6
  8
0
  6
CONTINUOUS
 62
     7
 10
220.46977759829181
 20
143.79937737339421
 30
0.0
 40
5.0000085982929177
 50
180.00003865618399
 51
224.99995766352859
  0
LINE
  5
A7
  8
0
  6
CONTINUOUS
 62
     7
 10
215.46976900000001
 20
143.799374
 30
0.0
 11
215.46976900000001
 21
150.91459800000001
 31
0.0
  0
ARC
  5
A8
  8
0
  6
CONTINUOUS
 62
     7
 10
220.4697775982917
 20
150.91459462660569
 30
0.0
 40
5.0000085982928804
 50
135.00004233647141
 51
179.99996134381601
  0
LINE
  5
A9
  8
0
  6
CONTINUOUS
 62
     7
 10
216.934235
 20
154.450132
 30
0.0
 11
218.37662399999999
 21
155.89251999999999
 31
0.0
  0
ARC
  5
AA
  8
0
  6
CONTINUOUS
 62
     7
 10
221.9121613733943
 20
152.35697740170821
 30
0.0
 40
5.0000085982928777
 50
90.000038656183989
 51
134.99995766352851
  0
LINE
  5
AB
  8
0
  6
CONTINUOUS
 62
     7
 10
221.91215800000001
 20
157.35698600000001
 30
0.0
 11
223.21976900000001
 21
157.35698600000001
 31
0.0
  0
ARC
  5
AC
  8
0
  6
CONTINUOUS
 62
     7
 10
223.219770867688
 20
154.85698786768791
 30
0.0
 40
2.4999981323127409
 50
359.99995719571308
 51
90.000042804286906
  0
LINE
  5
AD
  8
0
  6
CONTINUOUS
 62
     7
 10
225.71976900000001
 20
154.85698600000001
 30
0.0
 11
225.71976900000001
 21
154.85698600000001
 31
0.0
  0
ARC
  5
AE
  8
0
  6
CONTINUOUS
 62
     7
 10
225.21976937353759
 20
154.8569856264624
 30
0.0
 40
0.4999996264625369
 50
269.99995719571177
 51
0.0000428042882179
  0
LINE
  5
AF
  8
0
  6
CONTINUOUS
 62
     7
 10
225.21976900000001
 20
154.35698600000001
 30
0.0
 11
223.71976900000001
 21
154.35698600000001
 31
0.0
  0
ARC
  5
B0
  8
0
  6
CONTINUOUS
 62
     7
 10
223.71976862646241
 20
153.85698637353761
 30
0.0
 40
0.4999996264625369
 50
89.999957195711787
 51
180.0000428042882
  0
LINE
  5
B1
  8
0
  6
CONTINUOUS
 62
     7
 10
223.21976900000001
 20
153.85698600000001
 30
0.0
 11
223.21976900000001
 21
152.35698600000001
 31
0.0
  0
ARC
  5
B2
  8
0
  6
CONTINUOUS
 62
     7
 10
224.21976825292481
 20
152.3569852529248
 30
0.0
 40
0.9999992529251022
 50
179.99995719571339
 51
270.00004280428658
  0
LINE
  5
B3
  8
0
  6
CONTINUOUS
 62
     7
 10
224.21976900000001
 20
151.35698600000001
 30
0.0
 11
226.22069853635779
 21
151.35698600000001
 31
0.0
  0
LINE
  5
B9
  8
0
  6
CONTINUOUS
 62
     7
 10
211.71976900000001
 20
165.85698600000001
 30
0.0
 11
211.71976900000001
 21
163.85698600000001
 31
0.0
  0
ARC
  5
BA
  8
0
  6
CONTINUOUS
 62
     7
 10
212.71976825292481
 20
163.8569852529248
 30
0.0
 40
0.9999992529251022
 50
179.99995719571339
 51
270.00004280428658
  0
LINE
  5
BB
  8
0
  6
CONTINUOUS
 62
     7
 10
212.71976900000001
 20
162.85698600000001
 30
0.0
 11
214.21976900000001
 21
162.85698600000001
 31
0.0
  0
ARC
  5
BC
  8
0
  6
CONTINUOUS
 62
     7
 10
214.21976937353759
 20
163.3569856264624
 30
0.0
 40
0.4999996264625369
 50
269.99995719571177
 51
0.0000428042882179
  0
LINE
  5
BD
  8
0
  6
CONTINUOUS
 62
     7
 10
214.71976900000001
 20
163.35698600000001
 30
0.0
 11
214.71976900000001
 21
164.85698600000001
 31
0.0
  0
ARC
  5
BE
  8
0
  6
CONTINUOUS
 62
     7
 10
215.21976862646241
 20
164.85698637353761
 30
0.0
 40
0.4999996264625369
 50
89.999957195711787
 51
180.0000428042882
  0
ARC
  5
BF
  8
0
  6
CONTINUOUS
 62
     7
 10
215.21977086768791
 20
162.85698786768791
 30
0.0
 40
2.4999981323127409
 50
359.99995719571308
 51
90.000042804286906
  0
LINE
  5
C0
  8
0
  6
CONTINUOUS
 62
     7
 10
217.71976900000001
 20
162.85698600000001
 30
0.0
 11
217.71976900000001
 21
161.549374
 31
0.0
  0
ARC
  5
C1
  8
0
  6
CONTINUOUS
 62
     7
 10
212.71976040170821
 20
161.54937737339421
 30
0.0
 40
5.0000085982929079
 50
315.00004233647149
 51
359.99996134381598
  0
LINE
  5
C2
  8
0
  6
CONTINUOUS
 62
     7
 10
216.255303
 20
158.01383999999999
 30
0.0
 11
214.812915
 21
156.57145199999999
 31
0.0
  0
ARC
  5
C3
  8
0
  6
CONTINUOUS
 62
     7
 10
211.27737762660581
 20
160.10699459829169
 30
0.0
 40
5.0000085982928777
 50
270.00003865618368
 51
314.99995766352811
  0
LINE
  5
C4
  8
0
  6
CONTINUOUS
 62
     7
 10
211.27738099999999
 20
155.10698600000001
 30
0.0
 11
204.16215800000001
 21
155.10698600000001
 31
0.0
  0
ARC
  5
C5
  8
0
  6
CONTINUOUS
 62
     7
 10
204.16216137339421
 20
160.10699459829181
 30
0.0
 40
5.0000085982929079
 50
225.00004233647221
 51
269.99996134381661
  0
LINE
  5
C6
  8
0
  6
CONTINUOUS
 62
     7
 10
200.62662399999999
 20
156.57145199999999
 30
0.0
 11
199.184235
 21
158.01383999999999
 31
0.0
  0
ARC
  5
C7
  8
0
  6
CONTINUOUS
 62
     7
 10
202.71977759829181
 20
161.54937737339421
 30
0.0
 40
5.0000085982929177
 50
180.00003865618399
 51
224.99995766352859
  0
LINE
  5
C8
  8
0
  6
CONTINUOUS
 62
     7
 10
197.71976900000001
 20
161.549374
 30
0.0
 11
197.71976900000001
 21
162.85698600000001
 31
0.0
  0
ARC
  5
C9
  8
0
  6
CONTINUOUS
 62
     7
 10
200.219767132312
 20
162.85698786768791
 30
0.0
 40
2.4999981323127409
 50
89.999957195713066
 51
180.00004280428689
  0
ARC
  5
CA
  8
0
  6
CONTINUOUS
 62
     7
 10
200.21976937353759
 20
164.85698637353761
 30
0.0
 40
0.4999996264625369
 50
359.99995719571177
 51
90.000042804288213
  0
LINE
  5
CB
  8
0
  6
CONTINUOUS
 62
     7
 10
200.71976900000001
 20
164.85698600000001
 30
0.0
 11
200.71976900000001
 21
163.35698600000001
 31
0.0
  0
ARC
  5
CC
  8
0
  6
CONTINUOUS
 62
     7
 10
201.21976862646241
 20
163.3569856264624
 30
0.0
 40
0.4999996264625369
 50
179.99995719571169
 51
270.00004280428823
  0
LINE
  5
CD
  8
0
  6
CONTINUOUS
 62
     7
 10
201.21976900000001
 20
162.85698600000001
 30
0.0
 11
202.71976900000001
 21
162.85698600000001
 31
0.0
  0
ARC
  5
CE
  8
0
  6
CONTINUOUS
 62
     7
 10
202.71976974707511
 20
163.8569852529248
 30
0.0
 40
0.9999992529251022
 50
269.99995719571342
 51
0.0000428042865895
  0
LINE
  5
CF
  8
0
  6
CONTINUOUS
 62
     7
 10
203.71976900000001
 20
163.85698600000001
 30
0.0
 11
203.71976900000001
 21
165.85698600000001
 31
0.0
  0
LINE
  5
D3
  8
0
  6
CONTINUOUS
 62
     7
 10
171.71976900000001
 20
165.85698600000001
 30
0.0
 11
171.71976900000001
 21
163.85698600000001
 31
0.0
  0
ARC
  5
D4
  8
0
  6
CONTINUOUS
 62
     7
 10
172.71976825292481
 20
163.8569852529248
 30
0.0
 40
0.9999992529251022
 50
179.99995719571339
 51
270.00004280428658
  0
LINE
  5
D5
  8
0
  6
CONTINUOUS
 62
     7
 10
172.71976900000001
 20
162.85698600000001
 30
0.0
 11
174.21976900000001
 21
162.85698600000001
 31
0.0
  0
ARC
  5
D6
  8
0
  6
CONTINUOUS
 62
     7
 10
174.2197693735375
 20
163.3569856264624
 30
0.0
 40
0.4999996264625369
 50
269.99995719571177
 51
0.0000428042882179
  0
LINE
  5
D7
  8
0
  6
CONTINUOUS
 62
     7
 10
174.71976900000001
 20
163.35698600000001
 30
0.0
 11
174.71976900000001
 21
164.85698600000001
 31
0.0
  0
ARC
  5
D8
  8
0
  6
CONTINUOUS
 62
     7
 10
175.21976862646241
 20
164.85698637353761
 30
0.0
 40
0.4999996264625369
 50
89.999957195711787
 51
180.0000428042882
  0
ARC
  5
D9
  8
0
  6
CONTINUOUS
 62
     7
 10
175.21977086768791
 20
162.85698786768791
 30
0.0
 40
2.4999981323127409
 50
359.99995719571308
 51
90.000042804286906
  0
LINE
  5
DA
  8
0
  6
CONTINUOUS
 62
     7
 10
177.71976900000001
 20
162.85698600000001
 30
0.0
 11
177.71976900000001
 21
161.549374
 31
0.0
  0
ARC
  5
DB
  8
0
  6
CONTINUOUS
 62
     7
 10
172.71976040170821
 20
161.54937737339421
 30
0.0
 40
5.0000085982929079
 50
315.00004233647201
 51
359.99996134381638
  0
LINE
  5
DC
  8
0
  6
CONTINUOUS
 62
     7
 10
176.255303
 20
158.01383999999999
 30
0.0
 11
174.812915
 21
156.57145199999999
 31
0.0
  0
ARC
  5
DD
  8
0
  6
CONTINUOUS
 62
     7
 10
171.27737762660581
 20
160.10699459829169
 30
0.0
 40
5.0000085982928777
 50
270.00003865618368
 51
314.99995766352811
  0
LINE
  5
DE
  8
0
  6
CONTINUOUS
 62
     7
 10
171.27738099999999
 20
155.10698600000001
 30
0.0
 11
164.16215800000001
 21
155.10698600000001
 31
0.0
  0
ARC
  5
DF
  8
0
  6
CONTINUOUS
 62
     7
 10
164.16216137339421
 20
160.10699459829181
 30
0.0
 40
5.0000085982929079
 50
225.00004233647221
 51
269.99996134381661
  0
LINE
  5
E0
  8
0
  6
CONTINUOUS
 62
     7
 10
160.62662399999999
 20
156.57145199999999
 30
0.0
 11
159.184235
 21
158.01383999999999
 31
0.0
  0
ARC
  5
E1
  8
0
  6
CONTINUOUS
 62
     7
 10
162.7197775982917
 20
161.54937737339421
 30
0.0
 40
5.0000085982929177
 50
180.00003865618399
 51
224.99995766352859
  0
LINE
  5
E2
  8
0
  6
CONTINUOUS
 62
     7
 10
157.71976900000001
 20
161.549374
 30
0.0
 11
157.71976900000001
 21
162.85698600000001
 31
0.0
  0
ARC
  5
E3
  8
0
  6
CONTINUOUS
 62
     7
 10
160.219767132312
 20
162.85698786768791
 30
0.0
 40
2.4999981323127409
 50
89.999957195713066
 51
180.00004280428689
  0
ARC
  5
E4
  8
0
  6
CONTINUOUS
 62
     7
 10
160.21976937353759
 20
164.85698637353761
 30
0.0
 40
0.4999996264625369
 50
359.99995719571177
 51
90.000042804288213
  0
LINE
  5
E5
  8
0
  6
CONTINUOUS
 62
     7
 10
160.71976900000001
 20
164.85698600000001
 30
0.0
 11
160.71976900000001
 21
163.35698600000001
 31
0.0
  0
ARC
  5
E6
  8
0
  6
CONTINUOUS
 62
     7
 10
161.21976862646241
 20
163.3569856264624
 30
0.0
 40
0.4999996264625369
 50
179.99995719571169
 51
270.00004280428823
  0
LINE
  5
E7
  8
0
  6
CONTINUOUS
 62
     7
 10
161.21976900000001
 20
162.85698600000001
 30
0.0
 11
162.71976900000001
 21
162.85698600000001
 31
0.0
  0
ARC
  5
E8
  8
0
  6
CONTINUOUS
 62
     7
 10
162.71976974707511
 20
163.8569852529248
 30
0.0
 40
0.9999992529251022
 50
269.99995719571342
 51
0.0000428042865895
  0
LINE
  5
E9
  8
0
  6
CONTINUOUS
 62
     7
 10
163.7197689999999
 20
163.85698600000001
 30
0.0
 11
163.7197689999999
 21
165.85698600000001
 31
0.0
  0
LINE
  5
EF
  8
0
  6
CONTINUOUS
 62
     7
 10
149.22008848994321
 20
151.35698600000001
 30
0.0
 11
151.2197689999999
 21
151.35698600000001
 31
0.0
  0
ARC
  5
F0
  8
0
  6
CONTINUOUS
 62
     7
 10
151.21976974707511
 20
152.3569852529248
 30
0.0
 40
0.9999992529251022
 50
269.99995719571342
 51
0.0000428042865895
  0
LINE
  5
F1
  8
0
  6
CONTINUOUS
 62
     7
 10
152.21976900000001
 20
152.35698600000001
 30
0.0
 11
152.21976900000001
 21
153.85698600000001
 31
0.0
  0
ARC
  5
F2
  8
0
  6
CONTINUOUS
 62
     7
 10
151.71976937353759
 20
153.85698637353761
 30
0.0
 40
0.4999996264625369
 50
359.99995719571177
 51
90.000042804288213
  0
LINE
  5
F3
  8
0
  6
CONTINUOUS
 62
     7
 10
151.71976900000001
 20
154.35698600000001
 30
0.0
 11
150.21976900000001
 21
154.35698600000001
 31
0.0
  0
ARC
  5
F4
  8
0
  6
CONTINUOUS
 62
     7
 10
150.21976862646241
 20
154.8569856264624
 30
0.0
 40
0.4999996264625369
 50
179.99995719571169
 51
270.00004280428823
  0
LINE
  5
F5
  8
0
  6
CONTINUOUS
 62
     7
 10
149.71976900000001
 20
154.85698600000001
 30
0.0
 11
149.71976900000001
 21
154.85698600000001
 31
0.0
  0
ARC
  5
F6
  8
0
  6
CONTINUOUS
 62
     7
 10
152.219767132312
 20
154.85698786768791
 30
0.0
 40
2.4999981323127409
 50
89.999957195713066
 51
180.00004280428689
  0
LINE
  5
F7
  8
0
  6
CONTINUOUS
 62
     7
 10
152.21976900000001
 20
157.35698600000001
 30
0.0
 11
153.52738099999999
 21
157.35698600000001
 31
0.0
  0
ARC
  5
F8
  8
0
  6
CONTINUOUS
 62
     7
 10
153.5273776266057
 20
152.35697740170821
 30
0.0
 40
5.0000085982928804
 50
45.000042336471473
 51
89.999961343816025
  0
LINE
  5
F9
  8
0
  6
CONTINUOUS
 62
     7
 10
157.062915
 20
155.89251999999999
 30
0.0
 11
158.505303
 21
154.450132
 31
0.0
  0
ARC
  5
FA
  8
0
  6
CONTINUOUS
 62
     7
 10
154.96976040170821
 20
150.9145946266058
 30
0.0
 40
5.0000085982928777
 50
0.0000386561836696
 51
44.999957663528058
  0
LINE
  5
FB
  8
0
  6
CONTINUOUS
 62
     7
 10
159.96976900000001
 20
150.91459800000001
 30
0.0
 11
159.96976900000001
 21
143.799374
 31
0.0
  0
ARC
  5
FC
  8
0
  6
CONTINUOUS
 62
     7
 10
154.96976040170821
 20
143.79937737339421
 30
0.0
 40
5.0000085982929079
 50
315.00004233647201
 51
359.99996134381638
  0
LINE
  5
FD
  8
0
  6
CONTINUOUS
 62
     7
 10
158.505303
 20
140.26383999999999
 30
0.0
 11
157.062915
 21
138.82145199999999
 31
0.0
  0
ARC
  5
FE
  8
0
  6
CONTINUOUS
 62
     7
 10
153.52737762660581
 20
142.35699459829169
 30
0.0
 40
5.0000085982928777
 50
270.00003865618368
 51
314.99995766352811
  0
LINE
  5
FF
  8
0
  6
CONTINUOUS
 62
     7
 10
153.52738099999999
 20
137.35698600000001
 30
0.0
 11
152.21976900000001
 21
137.35698600000001
 31
0.0
  0
ARC
  5
100
  8
0
  6
CONTINUOUS
 62
     7
 10
152.219767132312
 20
139.85698413231199
 30
0.0
 40
2.4999981323127409
 50
179.99995719571311
 51
270.00004280428692
  0
ARC
  5
101
  8
0
  6
CONTINUOUS
 62
     7
 10
150.21976862646241
 20
139.85698637353761
 30
0.0
 40
0.4999996264625369
 50
89.999957195711787
 51
180.0000428042882
  0
LINE
  5
102
  8
0
  6
CONTINUOUS
 62
     7
 10
150.21976900000001
 20
140.35698600000001
 30
0.0
 11
151.71976900000001
 21
140.35698600000001
 31
0.0
  0
ARC
  5
103
  8
0
  6
CONTINUOUS
 62
     7
 10
151.71976937353759
 20
140.8569856264624
 30
0.0
 40
0.4999996264625369
 50
269.99995719571177
 51
0.0000428042882179
  0
LINE
  5
104
  8
0
  6
CONTINUOUS
 62
     7
 10
152.21976900000001
 20
140.85698600000001
 30
0.0
 11
152.21976900000001
 21
142.35698600000001
 31
0.0
  0
ARC
  5
105
  8
0
  6
CONTINUOUS
 62
     7
 10
151.21976974707511
 20
142.3569867470751
 30
0.0
 40
0.9999992529251022
 50
359.99995719571342
 51
90.000042804286579
  0
LINE
  5
106
  8
0
  6
CONTINUOUS
 62
     7
 10
151.2197689999999
 20
143.35698600000001
 30
0.0
 11
149.2165156733725
 21
143.35698600000001
 31
0.0
  0
LINE
  5
10A
  8
0
  6
CONTINUOUS
 62
     7
 10
149.2165156733725
 20
111.35698600000001
 30
0.0
 11
151.2197689999999
 21
111.35698600000001
 31
0.0
  0
ARC
  5
10B
  8
0
  6
CONTINUOUS
 62
     7
 10
151.21976974707511
 20
112.3569852529248
 30
0.0
 40
0.9999992529251022
 50
269.99995719571342
 51
0.0000428042865895
  0
LINE
  5
10C
  8
0
  6
CONTINUOUS
 62
     7
 10
152.21976900000001
 20
112.35698600000001
 30
0.0
 11
152.21976900000001
 21
113.85698600000001
 31
0.0
  0
ARC
  5
10D
  8
0
  6
CONTINUOUS
 62
     7
 10
151.71976937353759
 20
113.85698637353759
 30
0.0
 40
0.4999996264625369
 50
359.99995719571342
 51
90.000042804288213
  0
LINE
  5
10E
  8
0
  6
CONTINUOUS
 62
     7
 10
151.71976900000001
 20
114.35698600000001
 30
0.0
 11
150.21976900000001
 21
114.35698600000001
 31
0.0
  0
ARC
  5
10F
  8
0
  6
CONTINUOUS
 62
     7
 10
150.21976862646241
 20
114.8569856264624
 30
0.0
 40
0.4999996264625512
 50
179.99995719571339
 51
270.00004280428823
  0
ARC
  5
110
  8
0
  6
CONTINUOUS
 62
     7
 10
152.219767132312
 20
114.85698786768791
 30
0.0
 40
2.4999981323127409
 50
89.999957195713066
 51
180.00004280428689
  0
LINE
  5
111
  8
0
  6
CONTINUOUS
 62
     7
 10
152.21976900000001
 20
117.35698600000001
 30
0.0
 11
153.52738099999999
 21
117.35698600000001
 31
0.0
  0
ARC
  5
112
  8
0
  6
CONTINUOUS
 62
     7
 10
153.5273776266057
 20
112.35697740170821
 30
0.0
 40
5.0000085982928804
 50
45.000042336471473
 51
89.999961343816025
  0
LINE
  5
113
  8
0
  6
CONTINUOUS
 62
     7
 10
157.062915
 20
115.89252
 30
0.0
 11
158.505303
 21
114.450132
 31
0.0
  0
ARC
  5
114
  8
0
  6
CONTINUOUS
 62
     7
 10
154.96976040170821
 20
110.9145946266058
 30
0.0
 40
5.0000085982929079
 50
0.0000386561835068
 51
44.999957663527951
  0
LINE
  5
115
  8
0
  6
CONTINUOUS
 62
     7
 10
159.96976900000001
 20
110.914598
 30
0.0
 11
159.96976900000001
 21
103.799374
 31
0.0
  0
ARC
  5
116
  8
0
  6
CONTINUOUS
 62
     7
 10
154.96976040170821
 20
103.79937737339419
 30
0.0
 40
5.0000085982929079
 50
315.00004233647201
 51
359.99996134381638
  0
LINE
  5
117
  8
0
  6
CONTINUOUS
 62
     7
 10
158.505303
 20
100.26384
 30
0.0
 11
157.062915
 21
98.821452000000008
 31
0.0
  0
ARC
  5
118
  8
0
  6
CONTINUOUS
 62
     7
 10
153.5273776266057
 20
102.35699459829171
 30
0.0
 40
5.0000085982928777
 50
270.00003865618402
 51
314.99995766352851
  0
LINE
  5
119
  8
0
  6
CONTINUOUS
 62
     7
 10
153.52738099999999
 20
97.356985999999992
 30
0.0
 11
152.21976900000001
 21
97.356985999999992
 31
0.0
  0
ARC
  5
11A
  8
0
  6
CONTINUOUS
 62
     7
 10
152.219767132312
 20
99.856984132312036
 30
0.0
 40
2.4999981323127409
 50
179.99995719571311
 51
270.00004280428692
  0
ARC
  5
11B
  8
0
  6
CONTINUOUS
 62
     7
 10
150.21976862646241
 20
99.85698637353758
 30
0.0
 40
0.4999996264625369
 50
89.999957195711787
 51
180.00004280428661
  0
LINE
  5
11C
  8
0
  6
CONTINUOUS
 62
     7
 10
150.21976900000001
 20
100.35698600000001
 30
0.0
 11
151.71976900000001
 21
100.35698600000001
 31
0.0
  0
ARC
  5
11D
  8
0
  6
CONTINUOUS
 62
     7
 10
151.71976937353759
 20
100.8569856264624
 30
0.0
 40
0.4999996264625512
 50
269.99995719571177
 51
0.0000428042865895
  0
LINE
  5
11E
  8
0
  6
CONTINUOUS
 62
     7
 10
152.21976900000001
 20
100.85698600000001
 30
0.0
 11
152.21976900000001
 21
102.35698600000001
 31
0.0
  0
ARC
  5
11F
  8
0
  6
CONTINUOUS
 62
     7
 10
151.21976974707511
 20
102.3569867470751
 30
0.0
 40
0.9999992529251022
 50
359.99995719571342
 51
90.000042804286579
  0
LINE
  5
120
  8
0
  6
CONTINUOUS
 62
     7
 10
151.2197689999999
 20
103.35698600000001
 30
0.0
 11
149.2165156733725
 21
103.35698600000001
 31
0.0
  0
LINE
  5
123
  8
0
  6
CENTER
 62
     1
 10
167.7212212612107
 20
172.355132
 30
0.0
 11
167.71599285218221
 21
82.3571817213261
 31
0.0
  0
LINE
  5
124
  8
0
  6
CENTER
 62
     1
 10
207.72122126121079
 20
172.355132
 30
0.0
 11
207.71599285218221
 21
82.357181721326114
 31
0.0
  0
LINE
  5
125
  8
0
  6
CENTER
 62
     1
 10
142.7216934316634
 20
147.35698600000001
 30
0.0
 11
232.72056452068921
 21
147.35698600000001
 31
0.0
  0
LINE
  5
126
  8
0
  6
CENTER
 62
     1
 10
142.7216934316634
 20
107.35698600000001
 30
0.0
 11
232.72056452068921
 21
107.35698600000001
 31
0.0
  0
LINE
  5
127
  8
0
  6
CONTINUOUS
 62
     7
 10
155.919769
 20
89.157062999999994
 30
0.0
 11
151.71976900000001
 21
89.157062999999994
 31
0.0
  0
ARC
  5
128
  8
0
  6
CONTINUOUS
 62
     7
 10
151.7197673564346
 20
91.357061356434585
 30
0.0
 40
2.1999983564352039
 50
179.9999571957128
 51
270.00004280428652
  0
LINE
  5
129
  8
0
  6
CONTINUOUS
 62
     7
 10
149.519769
 20
91.357062999999997
 30
0.0
 11
149.519769
 21
95.557062999999999
 31
0.0
  0
LINE
  5
12A
  8
0
  6
CONTINUOUS
 62
     7
 10
149.519769
 20
95.557062999999999
 30
0.0
 11
155.919769
 21
95.557062999999999
 31
0.0
  0
LINE
  5
12B
  8
0
  6
CONTINUOUS
 62
     7
 10
155.919769
 20
95.557062999999999
 30
0.0
 11
155.919769
 21
89.157062999999994
 31
0.0
  0
ARC
  5
12C
  8
0
  6
CONTINUOUS
 62
     7
 10
220.66952037339419
 20
139.35699459829169
 30
0.0
 40
5.0000085982928804
 50
225.00004233647201
 51
269.99996134381638
  0
LINE
  5
12D
  8
0
  6
CONTINUOUS
 62
     7
 10
217.133983
 20
135.82145199999999
 30
0.0
 11
214.812915
 21
138.14251999999999
 31
0.0
  0
ARC
  5
12E
  8
0
  6
CONTINUOUS
 62
     7
 10
211.27737762660581
 20
134.60697740170821
 30
0.0
 40
5.0000085982928777
 50
45.000042336471473
 51
89.999961343816025
  0
LINE
  5
12F
  8
0
  6
CONTINUOUS
 62
     7
 10
211.27738099999999
 20
139.60698600000001
 30
0.0
 11
203.96976900000001
 21
139.60698600000001
 31
0.0
  0
ARC
  5
130
  8
0
  6
CONTINUOUS
 62
     7
 10
203.96976825292481
 20
138.60698674707521
 30
0.0
 40
0.9999992529251022
 50
89.999957195713435
 51
180.00004280428661
  0
LINE
  5
131
  8
0
  6
CONTINUOUS
 62
     7
 10
202.96976900000001
 20
138.60698600000001
 30
0.0
 11
202.96976900000001
 21
124.35698600000001
 31
0.0
  0
ARC
  5
132
  8
0
  6
CONTINUOUS
 62
     7
 10
203.96976825292481
 20
124.3569852529248
 30
0.0
 40
0.9999992529251022
 50
179.99995719571339
 51
270.00004280428658
  0
LINE
  5
133
  8
0
  6
CONTINUOUS
 62
     7
 10
203.96976900000001
 20
123.35698600000001
 30
0.0
 11
211.104546
 21
123.35698600000001
 31
0.0
  0
ARC
  5
134
  8
0
  6
CONTINUOUS
 62
     7
 10
211.10454566674301
 20
122.3569841389198
 30
0.0
 40
1.0000018610802199
 50
45.000061898470108
 51
89.99998090581478
  0
LINE
  5
135
  8
0
  6
CONTINUOUS
 62
     7
 10
211.81165300000001
 20
123.064093
 30
0.0
 11
213.730177
 21
121.145568
 31
0.0
  0
ARC
  5
136
  8
0
  6
CONTINUOUS
 62
     7
 10
215.49794399999999
 20
122.9133323586903
 30
0.0
 40
2.4999981988282811
 50
224.99995719571311
 51
315.00004280428692
  0
LINE
  5
137
  8
0
  6
CONTINUOUS
 62
     7
 10
217.26571100000001
 20
121.145568
 30
0.0
 11
223.98753600000001
 21
127.867394
 31
0.0
  0
ARC
  5
138
  8
0
  6
CONTINUOUS
 62
     7
 10
222.21976470085411
 20
129.6351626866971
 30
0.0
 40
2.5000042991464788
 50
315.00004233647149
 51
359.99996134381598
  0
LINE
  5
139
  8
0
  6
CONTINUOUS
 62
     7
 10
224.71976900000001
 20
129.63516100000001
 30
0.0
 11
224.71976900000001
 21
131.85698600000001
 31
0.0
  0
ARC
  5
13A
  8
0
  6
CONTINUOUS
 62
     7
 10
222.21977086768791
 20
131.85698786768791
 30
0.0
 40
2.4999981323127409
 50
359.99995719571308
 51
90.000042804286906
  0
LINE
  5
13B
  8
0
  6
CONTINUOUS
 62
     7
 10
222.21976900000001
 20
134.35698600000001
 30
0.0
 11
220.57179600000001
 21
134.35698600000001
 31
0.0
  0
ARC
  5
13C
  8
0
  6
CONTINUOUS
 62
     7
 10
175.71976160881741
 20
94.407235126605798
 30
0.0
 40
5.0000073911840488
 50
0.0000443857624692
 51
44.999963393106867
  0
LINE
  5
13D
  8
0
  6
CONTINUOUS
 62
     7
 10
179.255303
 20
97.942771999999991
 30
0.0
 11
176.934235
 21
100.26384
 31
0.0
  0
ARC
  5
13E
  8
0
  6
CONTINUOUS
 62
     7
 10
180.4697775982917
 20
103.79937737339419
 30
0.0
 40
5.0000085982929079
 50
180.00003865618399
 51
224.99995766352839
  0
LINE
  5
13F
  8
0
  6
CONTINUOUS
 62
     7
 10
175.46976900000001
 20
103.799374
 30
0.0
 11
175.46976900000001
 21
111.10698600000001
 31
0.0
  0
ARC
  5
140
  8
0
  6
CONTINUOUS
 62
     7
 10
176.46976825292481
 20
111.1069867470751
 30
0.0
 40
0.9999992529251022
 50
89.999957195713435
 51
180.00004280428661
  0
LINE
  5
141
  8
0
  6
CONTINUOUS
 62
     7
 10
176.46976900000001
 20
112.10698600000001
 30
0.0
 11
190.71976900000001
 21
112.10698600000001
 31
0.0
  0
ARC
  5
142
  8
0
  6
CONTINUOUS
 62
     7
 10
190.71976974707511
 20
111.1069867470751
 30
0.0
 40
0.9999992529251022
 50
359.99995719571342
 51
90.000042804286579
  0
LINE
  5
143
  8
0
  6
CONTINUOUS
 62
     7
 10
191.71976900000001
 20
111.10698600000001
 30
0.0
 11
191.71976900000001
 21
103.97221
 31
0.0
  0
ARC
  5
144
  8
0
  6
CONTINUOUS
 62
     7
 10
192.71977136108021
 20
103.9722115403662
 30
0.0
 40
1.000002361081378
 50
180.0000882562729
 51
225.0000072636175
  0
LINE
  5
145
  8
0
  6
CONTINUOUS
 62
     7
 10
192.012663
 20
103.265103
 30
0.0
 11
193.93118699999999
 21
101.34657799999999
 31
0.0
  0
ARC
  5
146
  8
0
  6
CONTINUOUS
 62
     7
 10
192.16342264130969
 20
99.578811000000016
 30
0.0
 40
2.4999981988283011
 50
314.99995719571319
 51
45.000042804286878
  0
LINE
  5
147
  8
0
  6
CONTINUOUS
 62
     7
 10
193.93118699999999
 20
97.811043999999995
 30
0.0
 11
187.209362
 21
91.089219
 31
0.0
  0
ARC
  5
148
  8
0
  6
CONTINUOUS
 62
     7
 10
185.44159331330289
 20
92.856990299145863
 30
0.0
 40
2.5000042991464388
 50
270.00003865618402
 51
314.99995766352851
  0
LINE
  5
149
  8
0
  6
CONTINUOUS
 62
     7
 10
185.44159500000001
 20
90.356985999999992
 30
0.0
 11
183.21976900000001
 21
90.356985999999992
 31
0.0
  0
ARC
  5
14A
  8
0
  6
CONTINUOUS
 62
     7
 10
183.219767132312
 20
92.856984132312036
 30
0.0
 40
2.4999981323127409
 50
179.99995719571311
 51
270.00004280428692
  0
LINE
  5
14B
  8
0
  6
CONTINUOUS
 62
     7
 10
180.71976900000001
 20
92.856985999999992
 30
0.0
 11
180.71976900000001
 21
94.504958999999985
 31
0.0
  0
LINE
  5
14C
  8
0
  6
CONTINUOUS
 62
     7
 10
183.21976900000001
 20
163.35698600000001
 30
0.0
 11
192.21976900000001
 21
163.35698600000001
 31
0.0
  0
ARC
  5
14D
  8
0
  6
CONTINUOUS
 62
     7
 10
192.21977086768791
 20
160.85698786768791
 30
0.0
 40
2.4999981323127409
 50
359.99995719571308
 51
90.000042804286906
  0
LINE
  5
14E
  8
0
  6
CONTINUOUS
 62
     7
 10
194.71976900000001
 20
160.85698600000001
 30
0.0
 11
194.71976900000001
 21
160.30673300000001
 31
0.0
  0
ARC
  5
14F
  8
0
  6
CONTINUOUS
 62
     7
 10
199.71977639118251
 20
160.30673687339419
 30
0.0
 40
5.0000073911840781
 50
180.00004438576281
 51
224.99996339310741
  0
LINE
  5
150
  8
0
  6
CONTINUOUS
 62
     7
 10
196.184235
 20
156.77119999999999
 30
0.0
 11
198.505303
 21
154.450132
 31
0.0
  0
ARC
  5
151
  8
0
  6
CONTINUOUS
 62
     7
 10
194.96976040170821
 20
150.9145946266058
 30
0.0
 40
5.0000085982928777
 50
0.0000386561836696
 51
44.999957663528058
  0
LINE
  5
152
  8
0
  6
CONTINUOUS
 62
     7
 10
199.9697689999999
 20
150.91459800000001
 30
0.0
 11
199.9697689999999
 21
124.659024
 31
0.0
  0
ARC
  5
153
  8
0
  6
CONTINUOUS
 62
     7
 10
194.96976040170821
 20
124.6590273733942
 30
0.0
 40
5.0000085982929079
 50
315.00004233647201
 51
359.99996134381649
  0
LINE
  5
154
  8
0
  6
CONTINUOUS
 62
     7
 10
198.505303
 20
121.12349
 30
0.0
 11
193.95326499999999
 21
116.57145199999999
 31
0.0
  0
ARC
  5
155
  8
0
  6
CONTINUOUS
 62
     7
 10
190.41772762660571
 20
120.10699459829171
 30
0.0
 40
5.0000085982928884
 50
270.00003865618402
 51
314.99995766352851
  0
LINE
  5
156
  8
0
  6
CONTINUOUS
 62
     7
 10
190.417731
 20
115.10698600000001
 30
0.0
 11
164.16215800000001
 21
115.10698600000001
 31
0.0
  0
ARC
  5
157
  8
0
  6
CONTINUOUS
 62
     7
 10
164.16216137339421
 20
120.10699459829181
 30
0.0
 40
5.0000085982929221
 50
225.00004233647201
 51
269.99996134381638
  0
LINE
  5
158
  8
0
  6
CONTINUOUS
 62
     7
 10
160.62662399999999
 20
116.57145199999999
 30
0.0
 11
158.305556
 21
118.89252
 31
0.0
  0
ARC
  5
159
  8
0
  6
CONTINUOUS
 62
     7
 10
154.77001862660569
 20
115.35697740170821
 30
0.0
 40
5.0000085982929283
 50
45.000042336471587
 51
89.999961343816025
  0
LINE
  5
15A
  8
0
  6
CONTINUOUS
 62
     7
 10
154.77002200000001
 20
120.35698600000001
 30
0.0
 11
154.21976900000001
 21
120.35698600000001
 31
0.0
  0
ARC
  5
15B
  8
0
  6
CONTINUOUS
 62
     7
 10
154.219767132312
 20
122.85698413231199
 30
0.0
 40
2.4999981323127409
 50
179.99995719571311
 51
270.00004280428692
  0
LINE
  5
15C
  8
0
  6
CONTINUOUS
 62
     7
 10
151.71976900000001
 20
122.85698600000001
 30
0.0
 11
151.71976900000001
 21
131.85698600000001
 31
0.0
  0
ARC
  5
15D
  8
0
  6
CONTINUOUS
 62
     7
 10
154.219767132312
 20
131.85698786768791
 30
0.0
 40
2.4999981323127409
 50
89.999957195713066
 51
180.00004280428689
  0
LINE
  5
15E
  8
0
  6
CONTINUOUS
 62
     7
 10
154.21976900000001
 20
134.35698600000001
 30
0.0
 11
154.77002200000001
 21
134.35698600000001
 31
0.0
  0
ARC
  5
15F
  8
0
  6
CONTINUOUS
 62
     7
 10
154.77001862660569
 20
139.35699459829181
 30
0.0
 40
5.0000085982929079
 50
270.00003865618368
 51
314.99995766352811
  0
LINE
  5
160
  8
0
  6
CONTINUOUS
 62
     7
 10
158.305556
 20
135.82145199999999
 30
0.0
 11
160.62662399999999
 21
138.14251999999999
 31
0.0
  0
ARC
  5
161
  8
0
  6
CONTINUOUS
 62
     7
 10
164.16216137339421
 20
134.60697740170821
 30
0.0
 40
5.000008598292899
 50
90.000038656183648
 51
134.99995766352831
  0
LINE
  5
162
  8
0
  6
CONTINUOUS
 62
     7
 10
164.16215800000001
 20
139.60698600000001
 30
0.0
 11
171.27128500000001
 21
139.60698600000001
 31
0.0
  0
ARC
  5
163
  8
0
  6
CONTINUOUS
 62
     7
 10
171.27128416674299
 20
140.60698665397089
 30
0.0
 40
1.000000653971318
 50
270.00004774207758
 51
314.99996674942219
  0
LINE
  5
164
  8
0
  6
CONTINUOUS
 62
     7
 10
171.97839099999999
 20
139.899879
 30
0.0
 11
175.17687599999999
 21
143.098364
 31
0.0
  0
ARC
  5
165
  8
0
  6
CONTINUOUS
 62
     7
 10
174.46976713891979
 20
143.805471333257
 30
0.0
 40
1.0000018610802091
 50
315.00006189847193
 51
359.99998090581653
  0
LINE
  5
166
  8
0
  6
CONTINUOUS
 62
     7
 10
175.46976900000001
 20
143.80547100000001
 30
0.0
 11
175.46976900000001
 21
150.91459800000001
 31
0.0
  0
ARC
  5
167
  8
0
  6
CONTINUOUS
 62
     7
 10
180.4697775982917
 20
150.91459462660569
 30
0.0
 40
5.0000085982928804
 50
135.00004233647141
 51
179.99996134381601
  0
LINE
  5
168
  8
0
  6
CONTINUOUS
 62
     7
 10
176.934235
 20
154.450132
 30
0.0
 11
179.255303
 21
156.77119999999999
 31
0.0
  0
ARC
  5
169
  8
0
  6
CONTINUOUS
 62
     7
 10
175.717359540464
 20
160.30914908288349
 30
0.0
 40
5.003411599693746
 50
314.99995446594448
 51
358.85323086229118
  0
LINE
  5
16A
  8
0
  6
CONTINUOUS
 62
     7
 10
180.71976900000001
 20
160.209013
 30
0.0
 11
180.71976900000001
 21
160.85698600000001
 31
0.0
  0
ARC
  5
16B
  8
0
  6
CONTINUOUS
 62
     7
 10
183.219767132312
 20
160.85698786768791
 30
0.0
 40
2.4999981323127409
 50
89.999957195713066
 51
180.00004280428689
  0
LINE
  5
16C
  8
0
  6
CONTINUOUS
 62
     7
 10
183.21976900000001
 20
163.35698600000001
 30
0.0
 11
183.21976900000001
 21
163.35698600000001
 31
0.0
  0
LINE
  5
16D
  8
0
  6
CONTINUOUS
 62
     7
 10
219.519769
 20
165.55698599999999
 30
0.0
 11
223.71976900000001
 21
165.55698599999999
 31
0.0
  0
ARC
  5
16E
  8
0
  6
CONTINUOUS
 62
     7
 10
223.7197706435654
 20
163.35698764356539
 30
0.0
 40
2.199998356435219
 50
359.9999571957128
 51
90.000042804287176
  0
LINE
  5
16F
  8
0
  6
CONTINUOUS
 62
     7
 10
225.919769
 20
163.35698600000001
 30
0.0
 11
225.919769
 21
159.15698599999999
 31
0.0
  0
LINE
  5
170
  8
0
  6
CONTINUOUS
 62
     7
 10
225.919769
 20
159.15698599999999
 30
0.0
 11
219.519769
 21
159.15698599999999
 31
0.0
  0
LINE
  5
171
  8
0
  6
CONTINUOUS
 62
     7
 10
219.519769
 20
159.15698599999999
 30
0.0
 11
219.519769
 21
165.55698599999999
 31
0.0
  0
LINE
  5
172
  8
0
  6
CONTINUOUS
 62
     7
 10
155.919769
 20
165.55698599999999
 30
0.0
 11
151.71976900000001
 21
165.55698599999999
 31
0.0
  0
ARC
  5
173
  8
0
  6
CONTINUOUS
 62
     7
 10
151.7197673564346
 20
163.35698764356539
 30
0.0
 40
2.1999983564351901
 50
89.999957195713563
 51
180.00004280428789
  0
LINE
  5
174
  8
0
  6
CONTINUOUS
 62
     7
 10
149.519769
 20
163.35698600000001
 30
0.0
 11
149.519769
 21
159.15698599999999
 31
0.0
  0
LINE
  5
175
  8
0
  6
CONTINUOUS
 62
     7
 10
149.519769
 20
159.15698599999999
 30
0.0
 11
155.919769
 21
159.15698599999999
 31
0.0
  0
LINE
  5
176
  8
0
  6
CONTINUOUS
 62
     7
 10
155.919769
 20
159.15698599999999
 30
0.0
 11
155.919769
 21
165.55698599999999
 31
0.0
  0
LINE
  5
181
  8
0
  6
CONTINUOUS
 62
     7
 10
213.21976900000001
 20
167.35698600000001
 30
0.0
 11
223.7206985431078
 21
167.35698599999989
 31
0.0
  0
LINE
  5
182
  8
0
  6
CONTINUOUS
 62
     7
 10
151.71651566662251
 20
87.356986000000006
 30
0.0
 11
162.21976900000001
 21
87.35698600000002
 31
0.0
  0
LINE
  5
183
  8
0
  6
CONTINUOUS
 62
     7
 10
147.7206984958577
 20
163.35721837902651
 30
0.0
 11
147.72008849247439
 21
152.85707314213491
 31
0.0
  0
LINE
  5
184
  8
0
  6
CONTINUOUS
 62
     7
 10
227.7194495075253
 20
141.85689885786499
 30
0.0
 11
227.71870338920539
 21
129.013772182888
 31
0.0
  0
LINE
  5
187
  8
0
  6
CONTINUOUS
 62
     7
 10
203.82937621025701
 20
103.4691428300839
 30
0.0
 11
188.8878421262545
 21
88.528476720440537
 31
0.0
  0
ARC
  5
3C5
  8
0
  6
CONTINUOUS
 62
     7
 10
223.7206985431078
 20
163.35698599999989
 30
0.0
 40
4.0
 50
359.99667141563071
 51
90.0
  0
ARC
  5
3C6
  8
0
  6
CONTINUOUS
 62
     7
 10
151.72069848910769
 20
163.35698599999989
 30
0.0
 40
4.0
 50
90.0
 51
179.99667141563069
  0
ARC
  5
3C7
  8
0
  6
CONTINUOUS
 62
     7
 10
151.71651566662251
 20
91.356986000000006
 30
0.0
 40
4.0
 50
179.99667141563069
 51
270.0
  0
ARC
  5
3C8
  8
0
  6
CONTINUOUS
 62
     7
 10
186.05949715870801
 20
91.356986000000006
 30
0.0
 40
4.0
 50
270.0
 51
314.99833575615588
  0
ARC
  5
3C9
  8
0
  6
CONTINUOUS
 62
     7
 10
223.7187033959554
 20
129.0140045619145
 30
0.0
 40
4.0
 50
314.99833575615588
 51
359.99667141563077
  0
ARC
  5
3CA
  8
0
  6
CONTINUOUS
 62
     7
 10
213.21976900000001
 20
165.85698600000001
 30
0.0
 40
1.5
 50
90.0
 51
180.0
  0
LINE
  5
3CB
  8
0
  6
CONTINUOUS
 62
     7
 10
173.21976900000001
 20
167.35698599999989
 30
0.0
 11
202.21976900000001
 21
167.35698600000001
 31
0.0
  0
ARC
  5
3CC
  8
0
  6
CONTINUOUS
 62
     7
 10
202.21976900000001
 20
165.85698600000001
 30
0.0
 40
1.5
 50
0.0
 51
90.0
  0
ARC
  5
3CD
  8
0
  6
CONTINUOUS
 62
     7
 10
173.21976900000001
 20
165.85698600000001
 30
0.0
 40
1.5
 50
90.000000000000057
 51
180.0
  0
LINE
  5
3CE
  8
0
  6
CONTINUOUS
 62
     7
 10
151.72069848910769
 20
167.35698599999989
 30
0.0
 11
162.21976900000001
 21
167.35698600000001
 31
0.0
  0
ARC
  5
3CF
  8
0
  6
CONTINUOUS
 62
     7
 10
162.21976900000001
 20
165.85698600000001
 30
0.0
 40
1.5
 50
0.0
 51
90.0
  0
ARC
  5
3D0
  8
0
  6
CONTINUOUS
 62
     7
 10
149.22008848994321
 20
152.85698600000001
 30
0.0
 40
1.5
 50
179.99667141563069
 51
270.0
  0
LINE
  5
3D1
  8
0
  6
CONTINUOUS
 62
     7
 10
147.7165156733725
 20
112.85698600000001
 30
0.0
 11
147.7165156733725
 21
141.85698600000001
 31
0.0
  0
ARC
  5
3D2
  8
0
  6
CONTINUOUS
 62
     7
 10
149.2165156733725
 20
141.85698600000001
 30
0.0
 40
1.5
 50
90.0
 51
180.0
  0
ARC
  5
3D3
  8
0
  6
CONTINUOUS
 62
     7
 10
149.2165156733725
 20
112.85698600000001
 30
0.0
 40
1.5
 50
180.0
 51
270.0
  0
LINE
  5
3D4
  8
0
  6
CONTINUOUS
 62
     7
 10
147.7165156733725
 20
91.357218379026577
 30
0.0
 11
147.7165156733725
 21
101.85698600000001
 31
0.0
  0
ARC
  5
3D5
  8
0
  6
CONTINUOUS
 62
     7
 10
149.2165156733725
 20
101.85698600000001
 30
0.0
 40
1.5
 50
90.0
 51
180.0
  0
ARC
  5
3D6
  8
0
  6
CONTINUOUS
 62
     7
 10
162.21976900000001
 20
88.856986000000035
 30
0.0
 40
1.5
 50
270.0
 51
0.0
  0
LINE
  5
3D7
  8
0
  6
CONTINUOUS
 62
     7
 10
186.05949715870801
 20
87.356986000000006
 30
0.0
 11
173.21976900000001
 21
87.356986000000006
 31
0.0
  0
ARC
  5
3D8
  8
0
  6
CONTINUOUS
 62
     7
 10
173.21976900000001
 20
88.856986000000006
 30
0.0
 40
1.5
 50
180.0
 51
270.0
  0
ARC
  5
3D9
  8
0
  6
CONTINUOUS
 62
     7
 10
202.76874684742711
 20
104.5298338099187
 30
0.0
 40
1.5
 50
314.998335756156
 51
44.999979742881742
  0
LINE
  5
3DA
  8
0
  6
CONTINUOUS
 62
     7
 10
226.547048363502
 20
126.18549528235511
 30
0.0
 11
211.60777648274461
 21
111.2470912445504
 31
0.0
  0
ARC
  5
3DB
  8
0
  6
CONTINUOUS
 62
     7
 10
210.5471471199148
 20
112.30778222438531
 30
0.0
 40
1.5
 50
224.99997974288209
 51
314.99833575615128
  0
ARC
  5
3DC
  8
0
  6
CONTINUOUS
 62
     7
 10
226.21944951005651
 20
141.85698600000001
 30
0.0
 40
1.5
 50
359.99667141563071
 51
90.0
  0
LINE
  5
3DD
  8
0
  6
CONTINUOUS
 62
     7
 10
227.7206985363577
 20
163.35675362097339
 30
0.0
 11
227.7206985363577
 21
152.85698600000001
 31
0.0
  0
ARC
  5
3DE
  8
0
  6
CONTINUOUS
 62
     7
 10
226.22069853635779
 20
152.85698600000001
 30
0.0
 40
1.5
 50
270.0
 51
0.0
  0
LINE
  5
3DF
  8
0
  6
CONTINUOUS
 62
     7
 10
114.32812300000001
 20
167.35698600000001
 30
0.0
 11
54.328122999999998
 21
167.35698599999989
 31
0.0
  0
LINE
  5
3E0
  8
0
  6
CONTINUOUS
 62
     7
 10
114.32812300000001
 20
87.356986000000006
 30
0.0
 11
54.328122999999998
 21
87.356986000000006
 31
0.0
  0
LINE
  5
3E1
  8
0
  6
CONTINUOUS
 62
     7
 10
147.7206984958577
 20
186.38207299999991
 30
0.0
 11
147.7206984958577
 21
246.38207299999999
 31
0.0
  0
LINE
  5
3E2
  8
0
  6
CONTINUOUS
 62
     7
 10
227.7206985363577
 20
186.38207299999991
 30
0.0
 11
227.7206985363577
 21
246.38207299999999
 31
0.0
  0
LINE
  5
3E3
  8
0
  6
CONTINUOUS
 62
     7
 10
321.11141500000002
 20
167.35698599999989
 30
0.0
 11
321.11141500000002
 21
87.356985999999992
 31
0.0
  0
LINE
  5
3E4
  8
0
  6
CONTINUOUS
 62
     7
 10
261.11141500000002
 20
167.35698599999989
 30
0.0
 11
261.11141500000002
 21
87.356985999999992
 31
0.0
  0
LINE
  5
3E5
  8
0
  6
CONTINUOUS
 62
     7
 10
261.11141500000002
 20
87.356986000000006
 30
0.0
 11
321.11141500000002
 21
87.356986000000006
 31
0.0
  0
LINE
  5
3E6
  8
0
  6
CENTER
 62
     1
 10
326.11141500000002
 20
107.35698600000001
 30
0.0
 11
256.11141500000002
 21
107.35698600000001
 31
0.0
  0
LINE
  5
3E7
  8
0
  6
CONTINUOUS
 62
     7
 10
321.11141500000002
 20
103.35698600000001
 30
0.0
 11
261.11141500000002
 21
103.35698600000001
 31
0.0
  0
LINE
  5
3E8
  8
0
  6
CONTINUOUS
 62
     7
 10
321.11141500000002
 20
111.35698600000001
 30
0.0
 11
261.11141500000002
 21
111.35698600000001
 31
0.0
  0
LINE
  5
3E9
  8
0
  6
CONTINUOUS
 62
     7
 10
261.11141500000002
 20
167.35698600000001
 30
0.0
 11
321.11141500000002
 21
167.35698599999989
 31
0.0
  0
LINE
  5
3EA
  8
0
  6
CENTER
 62
     1
 10
326.11141500000002
 20
147.35698600000001
 30
0.0
 11
256.11141500000002
 21
147.35698600000001
 31
0.0
  0
LINE
  5
3EB
  8
0
  6
CONTINUOUS
 62
     7
 10
321.11141500000002
 20
151.35698600000001
 30
0.0
 11
261.11141500000002
 21
151.35698600000001
 31
0.0
  0
LINE
  5
3EC
  8
0
  6
CONTINUOUS
 62
     7
 10
321.11141500000002
 20
143.35698600000001
 30
0.0
 11
261.11141500000002
 21
143.35698600000001
 31
0.0
  0
LINE
  5
3ED
  8
0
  6
CONTINUOUS
 62
     7
 10
147.7206984958577
 20
8.3318989999999928
 30
0.0
 11
227.7206985363577
 21
8.3318990000000213
 31
0.0
  0
LINE
  5
3EE
  8
0
  6
CONTINUOUS
 62
     7
 10
147.7206984958577
 20
68.331899000000021
 30
0.0
 11
227.7206985363577
 21
68.33189900000005
 31
0.0
  0
LINE
  5
3EF
  8
0
  6
CONTINUOUS
 62
     7
 10
147.7206984958577
 20
68.33189900000005
 30
0.0
 11
147.7206984958577
 21
8.3318990000000213
 31
0.0
  0
LINE
  5
3F0
  8
0
  6
CENTER
 62
     1
 10
167.71976900000001
 20
73.331899000000021
 30
0.0
 11
167.71976900000001
 21
3.3318990000000208
 31
0.0
  0
LINE
  5
3F1
  8
0
  6
CONTINUOUS
 62
     7
 10
171.71976900000001
 20
68.331899000000021
 30
0.0
 11
171.71976900000001
 21
8.3318989999999928
 31
0.0
  0
LINE
  5
3F2
  8
0
  6
CONTINUOUS
 62
     7
 10
163.7197689999999
 20
68.331899000000021
 30
0.0
 11
163.71976900000001
 21
8.3318989999999928
 31
0.0
  0
LINE
  5
3F3
  8
0
  6
CONTINUOUS
 62
     7
 10
227.7206985363577
 20
68.331899000000064
 30
0.0
 11
227.7206985363577
 21
8.3318990000000213
 31
0.0
  0
LINE
  5
3F4
  8
0
  6
CENTER
 62
     1
 10
207.71976900000001
 20
73.331899000000021
 30
0.0
 11
207.7197690000001
 21
3.3318990000000208
 31
0.0
  0
LINE
  5
3F5
  8
0
  6
CONTINUOUS
 62
     7
 10
203.71976900000001
 20
68.331899000000021
 30
0.0
 11
203.71976900000001
 21
8.3318989999999928
 31
0.0
  0
LINE
  5
3F6
  8
0
  6
CONTINUOUS
 62
     7
 10
211.71976900000001
 20
68.331899000000021
 30
0.0
 11
211.71976900000001
 21
8.3318989999999928
 31
0.0
  0
TEXT
  5
547
  8
0
 62
     3
 10
0.0
 20
0.0
 30
0.0
 40
10.0
  1
APL8080N-3M
  7
STANDARD1
  0
ENDSEC
  0
EOF
