  0
SECTION
  2
HEADER
  9
$ACADVER
  1
AC1009
  9
$INSBASE
 10
0.0
 20
0.0
 30
0.0
  9
$EXTMIN
 10
-0.0204638472032742
 20
-2.960436562073669
 30
0.0
  9
$EXTMAX
 10
226.3919289328694
 20
493.7733573851923
 30
0.0
  9
$LIMMIN
 10
0.0
 20
0.0
  9
$LIMMAX
 10
385.0
 20
270.0
  9
$ORTHOMODE
 70
     1
  9
$REGENMODE
 70
     1
  9
$FILLMODE
 70
     1
  9
$QTEXTMODE
 70
     0
  9
$MIRRTEXT
 70
     0
  9
$DRAGMODE
 70
     2
  9
$LTSCALE
 40
10.0
  9
$OSMODE
 70
    37
  9
$ATTMODE
 70
     1
  9
$TEXTSIZE
 40
0.2
  9
$TRACEWID
 40
0.05
  9
$TEXTSTYLE
  7
STANDARD
  9
$CLAYER
  8
0
  9
$CELTYPE
  6
BYLAYER
  9
$CECOLOR
 62
   256
  9
$DIMSCALE
 40
1.0
  9
$DIMASZ
 40
3.0
  9
$DIMEXO
 40
1.0
  9
$DIMDLI
 40
6.0
  9
$DIMRND
 40
0.0
  9
$DIMDLE
 40
0.0
  9
$DIMEXE
 40
1.0
  9
$DIMTP
 40
495.0
  9
$DIMTM
 40
0.0
  9
$DIMTXT
 40
3.0
  9
$DIMCEN
 40
0.0
  9
$DIMTSZ
 40
0.0
  9
$DIMTOL
 70
     0
  9
$DIMLIM
 70
     0
  9
$DIMTIH
 70
     0
  9
$DIMTOH
 70
     0
  9
$DIMSE1
 70
     0
  9
$DIMSE2
 70
     0
  9
$DIMTAD
 70
     1
  9
$DIMZIN
 70
     0
  9
$DIMBLK
  1

  9
$DIMASO
 70
     0
  9
$DIMSHO
 70
     0
  9
$DIMPOST
  1

  9
$DIMAPOST
  1

  9
$DIMALT
 70
     0
  9
$DIMALTD
 70
     2
  9
$DIMALTF
 40
25.399999999999999
  9
$DIMLFAC
 40
1.0
  9
$DIMTOFL
 70
     1
  9
$DIMTVP
 40
0.0
  9
$DIMTIX
 70
     1
  9
$DIMSOXD
 70
     0
  9
$DIMSAH
 70
     0
  9
$DIMBLK1
  1

  9
$DIMBLK2
  1

  9
$DIMSTYLE
  2
STANDARD
  9
$DIMCLRD
 70
     0
  9
$DIMCLRE
 70
     0
  9
$DIMCLRT
 70
     4
  9
$DIMTFAC
 40
1.0
  9
$DIMGAP
 40
1.0
  9
$LUNITS
 70
     2
  9
$LUPREC
 70
     4
  9
$SKETCHINC
 40
0.1
  9
$FILLETRAD
 40
2.5
  9
$AUNITS
 70
     0
  9
$AUPREC
 70
     0
  9
$MENU
  1
E:\r13\win\SUPPORT\ACAD
  9
$ELEVATION
 40
0.0
  9
$PELEVATION
 40
0.0
  9
$THICKNESS
 40
0.0
  9
$LIMCHECK
 70
     0
  9
$BLIPMODE
 70
     0
  9
$CHAMFERA
 40
0.0
  9
$CHAMFERB
 40
0.0
  9
$SKPOLY
 70
     0
  9
$TDCREATE
 40
2450653.5278402781
  9
$TDUPDATE
 40
2457907.5905985651
  9
$TDINDWG
 40
0.4311588657
  9
$TDUSRTIMER
 40
0.4311588657
  9
$USRTIMER
 70
     1
  9
$ANGBASE
 50
0.0
  9
$ANGDIR
 70
     0
  9
$PDMODE
 70
     0
  9
$PDSIZE
 40
0.0
  9
$PLINEWID
 40
0.0
  9
$COORDS
 70
     1
  9
$SPLFRAME
 70
     0
  9
$SPLINETYPE
 70
     6
  9
$SPLINESEGS
 70
     8
  9
$ATTDIA
 70
     0
  9
$ATTREQ
 70
     1
  9
$HANDLING
 70
     1
  9
$HANDSEED
  5
5048
  9
$SURFTAB1
 70
     6
  9
$SURFTAB2
 70
     6
  9
$SURFTYPE
 70
     6
  9
$SURFU
 70
     6
  9
$SURFV
 70
     6
  9
$UCSNAME
  2

  9
$UCSORG
 10
0.0
 20
0.0
 30
0.0
  9
$UCSXDIR
 10
1.0
 20
0.0
 30
0.0
  9
$UCSYDIR
 10
0.0
 20
1.0
 30
0.0
  9
$PUCSNAME
  2

  9
$PUCSORG
 10
0.0
 20
0.0
 30
0.0
  9
$PUCSXDIR
 10
1.0
 20
0.0
 30
0.0
  9
$PUCSYDIR
 10
0.0
 20
1.0
 30
0.0
  9
$USERI1
 70
     3
  9
$USERI2
 70
     1
  9
$USERI3
 70
     0
  9
$USERI4
 70
     0
  9
$USERI5
 70
     0
  9
$USERR1
 40
1.0
  9
$USERR2
 40
3.0
  9
$USERR3
 40
3.0
  9
$USERR4
 40
3.0
  9
$USERR5
 40
10.0
  9
$WORLDVIEW
 70
     1
  9
$SHADEDGE
 70
     3
  9
$SHADEDIF
 70
    70
  9
$TILEMODE
 70
     1
  9
$MAXACTVP
 70
    16
  9
$PLIMCHECK
 70
     0
  9
$PEXTMIN
 10
1.0000000000000000E+020
 20
1.0000000000000000E+020
 30
1.0000000000000000E+020
  9
$PEXTMAX
 10
-1.0000000000000000E+020
 20
-1.0000000000000000E+020
 30
-1.0000000000000000E+020
  9
$PLIMMIN
 10
0.0
 20
0.0
  9
$PLIMMAX
 10
12.0
 20
9.0
  9
$UNITMODE
 70
     0
  9
$VISRETAIN
 70
     0
  9
$PLINEGEN
 70
     0
  9
$PSLTSCALE
 70
     0
  0
ENDSEC
  0
SECTION
  2
TABLES
  0
TABLE
  2
VPORT
 70
     1
  0
VPORT
  2
*ACTIVE
 70
     0
 10
0.0
 20
0.0
 11
1.0
 21
1.0
 12
139.17093646283149
 22
245.406467062128
 13
0.0
 23
0.0
 14
5.0
 24
5.0
 15
10.0
 25
10.0
 16
0.0
 26
0.0
 36
1.0
 17
0.0
 27
0.0
 37
0.0
 40
500.80832067298587
 41
1.368715083798882
 42
50.0
 43
0.0
 44
0.0
 50
0.0
 51
0.0
 71
     0
 72
  1000
 73
     1
 74
     0
 75
     0
 76
     0
 77
     0
 78
     0
  0
ENDTAB
  0
TABLE
  2
LTYPE
 70
     3
  0
LTYPE
  2
CONTINUOUS
 70
     0
  3
Solid Line
 72
    65
 73
     0
 40
0.0
  0
LTYPE
  2
CENTER
 70
     0
  3
____ _ ____ _ ____ _ ____ _ ____ _ ____ _ ____
 72
    65
 73
     4
 40
2.0
 49
1.25
 49
-0.25
 49
0.25
 49
-0.25
  0
LTYPE
  2
PHANTOM2
 70
     0
  3
___ _ _ ___ _ _ ___ _ _ ___ _ _
 72
    65
 73
     6
 40
1.25
 49
0.625
 49
-0.125
 49
0.125
 49
-0.125
 49
0.125
 49
-0.125
  0
ENDTAB
  0
TABLE
  2
LAYER
 70
     3
  0
LAYER
  2
0
 70
     0
 62
     7
  6
CONTINUOUS
  0
LAYER
  2
1
 70
     0
 62
     1
  6
CENTER
  0
LAYER
  2
3
 70
     0
 62
     3
  6
CONTINUOUS
  0
ENDTAB
  0
TABLE
  2
STYLE
 70
     2
  0
STYLE
  2
STANDARD
 70
     0
 40
0.0
 41
1.0
 50
0.0
 71
     0
 42
0.2
  3
simplex
  4
bigfont
  0
STYLE
  2
STANDARD1
 70
     0
 40
0.0
 41
1.0
 50
0.0
 71
     0
 42
3.0
  3
txt
  4

  0
ENDTAB
  0
TABLE
  2
VIEW
 70
     0
  0
ENDTAB
  0
TABLE
  2
UCS
 70
     0
  0
ENDTAB
  0
TABLE
  2
APPID
 70
     4
  0
APPID
  2
ACAD
 70
     0
  0
APPID
  2
ACAD_MLEADERVER
 70
     0
  0
APPID
  2
ACAD_NAV_VCDISPLAY
 70
     0
  0
APPID
  2
ACAD_EXEMPT_FROM_CAD_STANDARDS
 70
     0
  0
ENDTAB
  0
TABLE
  2
DIMSTYLE
 70
     2
  0
DIMSTYLE
  2
STANDARD
 70
     0
  3

  4

  5

  6

  7

 40
1.0
 41
0.18
 42
0.0625
 43
0.38
 44
0.18
 45
0.0
 46
0.0
 47
0.0
 48
0.0
140
0.18
141
0.09
142
0.0
143
25.399999999999999
144
1.0
145
0.0
146
1.0
147
0.09
 71
     0
 72
     0
 73
     1
 74
     1
 75
     0
 76
     0
 77
     0
 78
     0
170
     0
171
     2
172
     0
173
     0
174
     0
175
     0
176
     0
177
     0
178
     0
  0
DIMSTYLE
  2
ISO-25
 70
     0
  3

  4

  5

  6

  7

 40
1.0
 41
2.5
 42
0.625
 43
3.75
 44
1.25
 45
0.0
 46
0.0
 47
0.0
 48
0.0
140
2.5
141
2.5
142
0.0
143
0.0393700787
144
1.0
145
0.0
146
1.0
147
0.625
 71
     0
 72
     0
 73
     0
 74
     0
 75
     0
 76
     0
 77
     1
 78
     8
170
     0
171
     3
172
     1
173
     0
174
     0
175
     0
176
     0
177
     0
178
     0
  0
ENDTAB
  0
ENDSEC
  0
SECTION
  2
BLOCKS
  0
BLOCK
  8
0
  2
$MODEL_SPACE
 70
     0
 10
0.0
 20
0.0
 30
0.0
  3
$MODEL_SPACE
  1

  0
ENDBLK
  5
82A
  8
0
  0
BLOCK
 67
     1
  8
0
  2
$PAPER_SPACE
 70
     0
 10
0.0
 20
0.0
 30
0.0
  3
$PAPER_SPACE
  1

  0
ENDBLK
  5
828
 67
     1
  8
0
  0
ENDSEC
  0
SECTION
  2
ENTITIES
  0
TEXT
  5
2E18
  8
0
 62
     3
 10
0.0
 20
0.0
 30
0.0
 40
10.0
  1
APS100-EP
  7
STANDARD1
  0
LINE
  5
387D
  8
0
 10
220.8919316449695
 20
132.1733550777256
 30
0.0
 11
221.3919289328694
 21
132.6733551597255
 31
0.0
  0
LINE
  5
387E
  8
0
 10
221.3919289328694
 20
145.6733554279256
 30
0.0
 11
220.8919316449695
 21
146.1733555099255
 31
0.0
  0
LINE
  5
387F
  8
0
 10
220.8919316449695
 20
146.1733555099255
 30
0.0
 11
217.89192929056949
 21
146.1733555099255
 31
0.0
  0
LINE
  5
3880
  8
0
 10
217.89192929056949
 20
132.1733550777256
 30
0.0
 11
220.8919316449695
 21
132.1733550777256
 31
0.0
  0
LINE
  5
3881
  8
0
 10
217.89192929056949
 20
146.1733555099255
 30
0.0
 11
217.4580413299071
 21
145.73946676505381
 31
0.0
  0
LINE
  5
3882
  8
0
 10
217.45804132990719
 20
132.6072438225973
 30
0.0
 11
217.89192929056949
 21
132.1733550777256
 31
0.0
  0
LINE
  5
3883
  8
0
 10
115.0919281520695
 20
132.1733550777256
 30
0.0
 11
118.0919305064695
 21
132.1733550777256
 31
0.0
  0
LINE
  5
3884
  8
0
 10
118.0919305064695
 20
146.1733555099255
 30
0.0
 11
115.0919281520695
 21
146.1733555099255
 31
0.0
  0
LINE
  5
3885
  8
0
 10
115.0919281520695
 20
146.1733555099255
 30
0.0
 11
114.5919308640695
 21
145.6733554279256
 31
0.0
  0
LINE
  5
3886
  8
0
 10
114.5919308640695
 20
132.6733551597255
 30
0.0
 11
115.0919281520695
 21
132.1733550777256
 31
0.0
  0
LINE
  5
3887
  8
0
 10
118.0919305064695
 20
132.1733550777256
 30
0.0
 11
118.5258184670238
 21
132.60724382265769
 31
0.0
  0
LINE
  5
3888
  8
0
 10
118.5258184670238
 20
145.73946676499341
 30
0.0
 11
118.0919305064695
 21
146.1733555099255
 31
0.0
  0
CIRCLE
  5
388D
  8
0
 10
183.04081620486949
 20
97.826879979225581
 30
0.0
 40
2.5
  0
LINE
  5
3899
  8
0
 10
220.8919316449695
 20
146.1733555099255
 30
0.0
 11
220.8919316449695
 21
132.1733550777256
 31
0.0
  0
LINE
  5
389A
  8
0
 10
221.3919289328694
 20
132.6733551597255
 30
0.0
 11
221.3919289328694
 21
145.6733554279256
 31
0.0
  0
LINE
  5
389B
  8
0
 10
217.89192929056949
 20
139.16556630040989
 30
0.0
 11
217.89192929056949
 21
132.1733550777256
 31
0.0
  0
LINE
  5
389C
  8
0
 10
217.89192929056949
 20
146.1733555099255
 30
0.0
 11
217.89192929056949
 21
139.1811442872411
 31
0.0
  0
LINE
  5
389D
  8
0
 10
115.0919281520695
 20
132.1733550777256
 30
0.0
 11
115.0919281520695
 21
146.1733555099255
 31
0.0
  0
LINE
  5
389E
  8
0
 10
118.0919305064695
 20
132.1733550777256
 30
0.0
 11
118.0919305064695
 21
139.16556565973761
 31
0.0
  0
LINE
  5
389F
  8
0
 10
118.0919305064695
 20
139.18114492791341
 30
0.0
 11
118.0919305064695
 21
146.1733555099255
 31
0.0
  0
LINE
  5
38A0
  8
0
 10
114.5919308640695
 20
145.6733554279256
 30
0.0
 11
114.5919308640695
 21
132.6733551597255
 31
0.0
  0
LINE
  5
3912
  8
0
 10
181.1484221615695
 20
101.6637686318256
 30
0.0
 11
180.85424064336951
 21
102.7616675621256
 31
0.0
  0
ARC
  5
3913
  8
0
 10
177.37412028346949
 20
104.1585440908256
 30
0.0
 40
3.7500000000000009
 50
338.13010235420029
 51
231.86989764580201
  0
LINE
  5
3914
  8
0
 10
175.05868545406949
 20
101.2087542241256
 30
0.0
 11
175.35286743796951
 21
100.1108515685255
 31
0.0
  0
LINE
  5
3916
  8
0
 10
142.08592029896951
 20
109.0247038429256
 30
0.0
 11
142.8896386422694
 21
109.8284240490256
 31
0.0
  0
ARC
  5
3917
  8
0
 10
142.3593090804695
 20
113.5407344758255
 30
0.0
 40
3.7500000000000062
 50
278.13010235420069
 51
171.869897645799
  0
LINE
  5
3918
  8
0
 10
138.64699865366941
 20
114.0710640376256
 30
0.0
 11
137.84327844766949
 21
113.2673456942256
 31
0.0
  0
LINE
  5
391A
  8
0
 10
128.9294261731695
 20
146.53429283332559
 30
0.0
 11
130.0273288287695
 21
146.24011084942561
 31
0.0
  0
ARC
  5
391B
  8
0
 10
132.97711869556949
 20
148.55554567882561
 30
0.0
 40
3.749999999999984
 50
218.130102354196
 51
111.869897645799
  0
LINE
  5
391C
  8
0
 10
131.58024216676949
 20
152.03566603862561
 30
0.0
 11
130.48234323646949
 21
152.32984755692561
 31
0.0
  0
LINE
  5
391E
  8
0
 10
154.83543763546939
 20
176.68294195592549
 30
0.0
 11
155.12961915366949
 21
175.58504302562559
 31
0.0
  0
ARC
  5
391F
  8
0
 10
158.60973951356951
 20
174.1881664968256
 30
0.0
 40
3.7500000000000351
 50
158.13010235420029
 51
51.869897645801927
  0
LINE
  5
3920
  8
0
 10
160.92517434296951
 20
177.1379563635256
 30
0.0
 11
160.6309923590695
 21
178.2358590191256
 31
0.0
  0
LINE
  5
3922
  8
0
 10
193.89793949806949
 20
169.32200674472571
 30
0.0
 11
193.0942211546695
 21
168.51828653872559
 31
0.0
  0
ARC
  5
3923
  8
0
 10
193.6245507165695
 20
164.8059761118256
 30
0.0
 40
3.75000000000002
 50
98.130102354200787
 51
351.86989764579909
  0
LINE
  5
3924
  8
0
 10
197.3368611433695
 20
164.2756465500255
 30
0.0
 11
198.14058134936951
 21
165.07936489342561
 31
0.0
  0
LINE
  5
3926
  8
0
 10
207.0544336237696
 20
131.81241775432559
 30
0.0
 11
205.95653096816949
 21
132.10659973822561
 31
0.0
  0
ARC
  5
3927
  8
0
 10
203.00674110146949
 20
129.79116490882561
 30
0.0
 40
3.750000000000008
 50
38.130102354195991
 51
291.86989764579903
  0
LINE
  5
3928
  8
0
 10
204.40361763026951
 20
126.3110445490255
 30
0.0
 11
205.50151656056951
 21
126.0168630307255
 31
0.0
  0
CIRCLE
  5
3AD9
  8
0
 10
167.99192989846949
 20
139.17335529382549
 30
0.0
 40
39.850000000000009
  0
CIRCLE
  5
3AE0
  8
0
 10
167.99192989846949
 20
139.17335529382549
 30
0.0
 40
40.0
  0
CIRCLE
  5
3AF5
  8
0
 10
167.99192989846949
 20
139.17335529382549
 30
0.0
 40
49.400000000000013
  0
CIRCLE
  5
3AF6
  8
0
 10
122.99192989846949
 20
139.17335529382549
 30
0.0
 40
3.5
  0
CIRCLE
  5
3AF7
  8
0
 10
195.38619420386951
 20
174.8742556069256
 30
0.0
 40
3.5
  0
CIRCLE
  5
3AF8
  8
0
 10
212.99192989846949
 20
139.17335529382549
 30
0.0
 40
3.5
  0
CIRCLE
  5
3AF9
  8
0
 10
167.99192989846949
 20
139.17335529382549
 30
0.0
 40
49.899999999999999
  0
CIRCLE
  5
3B1E
  8
0
 10
140.90204630766951
 20
103.86913165092569
 30
0.0
 40
3.0
  0
CIRCLE
  5
3B1F
  8
0
 10
212.99192989846949
 20
139.17335529382549
 30
0.0
 40
1.6999999999999951
  0
CIRCLE
  5
3B20
  8
0
 10
195.38619420386951
 20
174.8742556069256
 30
0.0
 40
1.7000000000000031
  0
CIRCLE
  5
3B21
  8
0
 10
122.99192989846949
 20
139.17335529382549
 30
0.0
 40
1.7000000000000171
  0
CIRCLE
  5
3B22
  8
0
 10
195.38619420386951
 20
174.8742556069256
 30
0.0
 40
0.5
  0
LINE
  5
3B23
  8
0
 10
220.89193144916959
 20
431.87335610888567
 30
0.0
 11
221.39192873716959
 21
432.37335619088572
 31
0.0
  0
LINE
  5
3B24
  8
0
 10
221.39192873716959
 20
445.37335645908581
 30
0.0
 11
220.89193144916959
 21
445.87335654108568
 31
0.0
  0
LINE
  5
3B25
  8
0
 10
220.89193144916959
 20
445.87335654108568
 30
0.0
 11
217.89192909476969
 21
445.87335654108568
 31
0.0
  0
LINE
  5
3B26
  8
0
 10
217.89192909476969
 20
431.87335610888567
 30
0.0
 11
220.89193144916959
 21
431.87335610888567
 31
0.0
  0
LINE
  5
3B27
  8
0
 10
217.89192909476969
 20
445.87335654108568
 30
0.0
 11
217.41349999523999
 21
445.39492744139773
 31
0.0
  0
LINE
  5
3B28
  8
0
 10
217.41349999523999
 20
432.35178520857369
 30
0.0
 11
217.89192909476969
 21
431.87335610888567
 31
0.0
  0
LINE
  5
3B29
  8
0
 10
115.0919279563697
 20
431.87335610888567
 30
0.0
 11
118.0919303107697
 21
431.87335610888567
 31
0.0
  0
LINE
  5
3B2A
  8
0
 10
118.0919303107697
 20
445.87335654108568
 30
0.0
 11
115.0919279563697
 21
445.87335654108568
 31
0.0
  0
LINE
  5
3B2B
  8
0
 10
115.0919279563697
 20
445.87335654108568
 30
0.0
 11
114.5919306683697
 21
445.37335645908581
 31
0.0
  0
LINE
  5
3B2C
  8
0
 10
114.5919306683697
 20
432.37335619088572
 30
0.0
 11
115.0919279563697
 21
431.87335610888567
 31
0.0
  0
LINE
  5
3B2D
  8
0
 10
118.0919303107697
 20
431.87335610888567
 30
0.0
 11
118.5703594102994
 21
432.35178520857392
 31
0.0
  0
LINE
  5
3B2E
  8
0
 10
118.5703594102994
 20
445.39492744139761
 30
0.0
 11
118.0919303107697
 21
445.87335654108568
 31
0.0
  0
LINE
  5
3B30
  8
0
 10
220.89193144916959
 20
445.87335654108568
 30
0.0
 11
220.89193144916959
 21
431.87335610888567
 31
0.0
  0
LINE
  5
3B32
  8
0
 10
221.39192873716959
 20
432.37335619088572
 30
0.0
 11
221.39192873716959
 21
445.37335645908581
 31
0.0
  0
LINE
  5
3B33
  8
0
 10
217.89192909476969
 20
445.87335654108568
 30
0.0
 11
217.89192909476969
 21
431.87335610888567
 31
0.0
  0
LINE
  5
3B35
  8
0
 10
115.0919279563697
 20
431.87335610888567
 30
0.0
 11
115.0919279563697
 21
445.87335654108568
 31
0.0
  0
LINE
  5
3B37
  8
0
 10
118.0919303107697
 20
431.87335610888567
 30
0.0
 11
118.0919303107697
 21
445.87335654108568
 31
0.0
  0
LINE
  5
3B38
  8
0
 10
114.5919306683697
 20
445.37335645908581
 30
0.0
 11
114.5919306683697
 21
432.37335619088572
 31
0.0
  0
CIRCLE
  5
3B49
  8
0
 10
167.99192970276971
 20
438.87335632498582
 30
0.0
 40
37.5
  0
CIRCLE
  5
3B4A
  8
0
 10
195.38619400816961
 20
403.17245601188569
 30
0.0
 40
0.5
  0
ARC
  5
3B4B
  8
0
 10
167.99192970276971
 20
438.87800130948568
 30
0.0
 40
48.345597552768297
 50
71.429534128500876
 51
108.57046970096771
  0
ARC
  5
3B4C
  8
0
 10
167.99404899296971
 20
438.87611921458569
 30
0.0
 40
48.34665373641247
 50
36.430143903702159
 51
68.5698546847008
  0
ARC
  5
3B4E
  8
0
 10
167.99559423416969
 20
438.8722484647858
 30
0.0
 40
48.346334372629862
 50
326.42998039149819
 51
33.566458573778647
  0
ARC
  5
3B4F
  8
0
 10
167.99408147666969
 20
438.87055110188578
 30
0.0
 40
48.346602461279062
 50
291.43012781059952
 51
323.5698736010022
  0
ARC
  5
3B50
  8
0
 10
167.99192970276971
 20
438.86871134048567
 30
0.0
 40
48.345597552768282
 50
251.42953412850079
 51
288.57046587149921
  0
ARC
  5
3B51
  8
0
 10
167.98981041256971
 20
438.87059343538579
 30
0.0
 40
48.346653736411902
 50
216.43014390370209
 51
248.5698546847008
  0
ARC
  5
3B52
  8
0
 10
167.98828724526959
 20
438.8722551227857
 30
0.0
 40
48.3463564464057
 50
133.4319255986386
 51
143.55868125457619
  0
ARC
  5
3B55
  8
0
 10
140.90204611186971
 20
474.17757996788561
 30
0.0
 40
6.0000000000000471
 50
183.94269023809761
 51
71.057309761900584
  0
LINE
  5
3B57
  8
0
 10
142.68288856036969
 20
480.07013846688568
 30
0.0
 11
142.84977970306969
 21
479.85264111808573
 31
0.0
  0
LINE
  5
3B58
  8
0
 10
134.9162468838696
 20
473.76502875738572
 30
0.0
 11
134.74935387856971
 21
473.98252610618579
 31
0.0
  0
POLYLINE
  5
3B62
  8
0
 66
     1
 10
0.0
 20
0.0
 30
0.0
 70
   128
  0
VERTEX
  5
5010
  8
0
 10
141.76497330546971
 20
481.26638878638579
 30
0.0
  0
VERTEX
  5
5011
  8
0
 10
141.81630408046971
 20
481.19949374848568
 30
0.0
  0
VERTEX
  5
5012
  8
0
 10
141.96434152906971
 20
481.00656841448568
 30
0.0
  0
VERTEX
  5
5013
  8
0
 10
142.19272231346969
 20
480.70893634608581
 30
0.0
  0
VERTEX
  5
5014
  8
0
 10
142.4768595177697
 20
480.33864249048571
 30
0.0
  0
VERTEX
  5
5015
  8
0
 10
142.68288856036969
 20
480.07013846688568
 30
0.0
  0
SEQEND
  5
5016
  8
0
  0
POLYLINE
  5
3B63
  8
0
 66
     1
 10
0.0
 20
0.0
 30
0.0
 70
   128
  0
VERTEX
  5
5017
  8
0
 10
134.74935387856971
 20
473.98252610618579
 30
0.0
  0
VERTEX
  5
5018
  8
0
 10
134.44430103186971
 20
474.38008163628581
 30
0.0
  0
VERTEX
  5
5019
  8
0
 10
134.1736288893697
 20
474.73282564928559
 30
0.0
  0
VERTEX
  5
501A
  8
0
 10
133.96871184586959
 20
474.9998768096857
 30
0.0
  0
VERTEX
  5
501B
  8
0
 10
133.85282551526981
 20
475.15090752898573
 30
0.0
  0
VERTEX
  5
501C
  8
0
 10
133.8314386236697
 20
475.17877642568573
 30
0.0
  0
SEQEND
  5
501D
  8
0
  0
CIRCLE
  5
3B6C
  8
0
 10
167.99192970276971
 20
438.87335632498582
 30
0.0
 40
37.199999999999989
  0
CIRCLE
  5
3B6D
  8
0
 10
167.99192970276971
 20
438.87335632498582
 30
0.0
 40
25.300000000000011
  0
CIRCLE
  5
3B6E
  8
0
 10
167.99192970276971
 20
438.87335632498582
 30
0.0
 40
25.0
  0
CIRCLE
  5
3B6F
  8
0
 10
167.99192970276971
 20
438.87335632498582
 30
0.0
 40
15.0
  0
CIRCLE
  5
3B70
  8
0
 10
167.99192970276971
 20
438.87335632498582
 30
0.0
 40
14.69999999999999
  0
CIRCLE
  5
3B73
  8
0
 10
167.99192970276971
 20
438.87335632498582
 30
0.0
 40
11.715875087738601
  0
ARC
  5
3EA3
  8
0
 10
167.99192970276971
 20
441.00216262058569
 30
0.0
 40
9.1069105409296771
 50
46.434381812497243
 51
133.56561818750271
  0
ARC
  5
3EA4
  8
0
 10
167.99192970276971
 20
438.87335632498582
 30
0.0
 40
10.750000000000011
 50
125.7215100447002
 51
234.27848995529979
  0
ARC
  5
3EA5
  8
0
 10
167.99192970276971
 20
436.74455002938572
 30
0.0
 40
9.1069105409296771
 50
226.43438181249721
 51
313.56561818750271
  0
ARC
  5
3EA6
  8
0
 10
167.99192970276971
 20
438.87335632498582
 30
0.0
 40
10.75000000000005
 50
305.72151004470021
 51
54.27848995529974
  0
CIRCLE
  5
3EC1
  8
0
 10
140.90204611186971
 20
474.17757996788561
 30
0.0
 40
3.0
  0
CIRCLE
  5
3EC4
  8
0
 10
167.99192970276971
 20
438.87335632498582
 30
0.0
 40
3.5
  0
LINE
  5
3F63
  8
0
 10
129.4492380845696
 20
288.4233549660056
 30
0.0
 11
129.4492380845696
 21
280.22335585700557
 31
0.0
  0
LINE
  5
3F64
  8
0
 10
134.44924076676949
 20
280.22335585700557
 30
0.0
 11
134.44924076676949
 21
288.4233549660056
 31
0.0
  0
LINE
  5
3F65
  8
0
 10
129.4492380845696
 20
280.22335585700557
 30
0.0
 11
130.24924045086971
 21
279.42335349070561
 31
0.0
  0
LINE
  5
3F66
  8
0
 10
133.6492384004697
 20
279.42335349070561
 30
0.0
 11
134.44924076676949
 21
280.22335585700557
 31
0.0
  0
LINE
  5
3F67
  8
0
 10
150.4430426436696
 20
280.22335585700557
 30
0.0
 11
151.24304314736969
 21
279.42335349070561
 31
0.0
  0
LINE
  5
3F68
  8
0
 10
154.64304295956961
 20
279.42335349070561
 30
0.0
 11
155.44304346326959
 21
280.22335585700557
 31
0.0
  0
LINE
  5
3F69
  8
0
 10
150.4430426436696
 20
288.4233549660056
 30
0.0
 11
150.4430426436696
 21
280.22335585700557
 31
0.0
  0
LINE
  5
3F6A
  8
0
 10
155.44304346326959
 20
280.22335585700557
 30
0.0
 11
155.44304346326959
 21
288.4233549660056
 31
0.0
  0
LINE
  5
3F6B
  8
0
 10
180.5408159423697
 20
288.4233549660056
 30
0.0
 11
180.5408159423697
 21
280.22335585700557
 31
0.0
  0
LINE
  5
3F6C
  8
0
 10
185.54081676186971
 20
280.22335585700557
 30
0.0
 11
185.54081676186971
 21
288.4233549660056
 31
0.0
  0
LINE
  5
3F6D
  8
0
 10
180.5408159423697
 20
280.22335585700557
 30
0.0
 11
181.34081644596961
 21
279.42335349070561
 31
0.0
  0
LINE
  5
3F6E
  8
0
 10
184.7408162582696
 20
279.42335349070561
 30
0.0
 11
185.54081676186971
 21
280.22335585700557
 31
0.0
  0
LINE
  5
3F6F
  8
0
 10
201.53461863876959
 20
280.22335585700557
 30
0.0
 11
202.33462100506961
 21
279.42335349070561
 31
0.0
  0
LINE
  5
3F70
  8
0
 10
205.7346189546696
 20
279.42335349070561
 30
0.0
 11
206.53462132096971
 21
280.22335585700557
 31
0.0
  0
LINE
  5
3F71
  8
0
 10
201.53461863876959
 20
288.4233549660056
 30
0.0
 11
201.53461863876959
 21
280.22335585700557
 31
0.0
  0
LINE
  5
3F72
  8
0
 10
206.53462132096971
 20
280.22335585700557
 30
0.0
 11
206.53462132096971
 21
288.4233549660056
 31
0.0
  0
LINE
  5
3F73
  8
0
 10
220.89193144926961
 20
293.42335578550558
 30
0.0
 11
221.39192873716959
 21
293.92335493620561
 31
0.0
  0
LINE
  5
3F74
  8
0
 10
221.39192873716959
 20
306.92335520440548
 30
0.0
 11
220.89193144926961
 21
307.42335482070558
 31
0.0
  0
LINE
  5
3F75
  8
0
 10
220.89193144926961
 20
307.42335482070558
 30
0.0
 11
217.8919300213839
 21
307.42335381114111
 31
0.0
  0
LINE
  5
3F76
  8
0
 10
217.8919297381394
 20
293.42335337894121
 30
0.0
 11
220.89193144926961
 21
293.42335578550558
 31
0.0
  0
LINE
  5
3F77
  8
0
 10
115.0919279563696
 20
293.42335578550558
 30
0.0
 11
118.0919303107695
 21
293.42335438850557
 31
0.0
  0
LINE
  5
3F78
  8
0
 10
118.0919303107695
 20
307.42335482070558
 30
0.0
 11
115.0919279563696
 21
307.42335482070558
 31
0.0
  0
LINE
  5
3F79
  8
0
 10
115.0919279563696
 20
307.42335482070558
 30
0.0
 11
114.5919306683697
 21
306.92335520440548
 31
0.0
  0
LINE
  5
3F7A
  8
0
 10
114.5919306683697
 20
293.92335493620561
 30
0.0
 11
115.0919279563696
 21
293.42335578550558
 31
0.0
  0
LINE
  5
3F7B
  8
0
 10
128.2419311034696
 20
271.62335556500562
 30
0.0
 11
128.2419311034696
 21
266.6233566081055
 31
0.0
  0
LINE
  5
3F7C
  8
0
 10
207.7419283020696
 20
266.6233566081055
 30
0.0
 11
207.7419283020696
 21
271.62335556500562
 31
0.0
  0
LINE
  5
3F7D
  8
0
 10
118.09193065056969
 20
288.92335411660548
 30
0.0
 11
118.5919279384696
 21
288.4233549660056
 31
0.0
  0
LINE
  5
3F7E
  8
0
 10
217.39193146706961
 20
288.4233549660056
 30
0.0
 11
217.8919287550697
 21
288.92335411660548
 31
0.0
  0
LINE
  5
3F7F
  8
0
 10
217.8919287550697
 20
288.92335411660548
 30
0.0
 11
217.8919287550697
 21
292.92335477220553
 31
0.0
  0
LINE
  5
3F80
  8
0
 10
118.09193065056969
 20
292.92335477220553
 30
0.0
 11
118.09193065056969
 21
288.92335411660548
 31
0.0
  0
ARC
  5
3F81
  8
0
 10
119.6419297027696
 20
309.92335501070562
 30
0.0
 40
1.5
 50
90.0
 51
180.0
  0
ARC
  5
3F82
  8
0
 10
216.34192970276951
 20
309.92335501070562
 30
0.0
 40
1.5
 50
0.0
 51
90.0
  0
LINE
  5
3F83
  8
0
 10
217.84192790866959
 20
307.92335490260558
 30
0.0
 11
217.84192790866959
 21
309.9233549976056
 31
0.0
  0
LINE
  5
3F84
  8
0
 10
118.1419314968697
 20
309.9233549976056
 30
0.0
 11
118.1419314968697
 21
307.92335490260558
 31
0.0
  0
ARC
  5
3F85
  8
0
 10
208.4919297027696
 20
287.82335501070548
 30
0.0
 40
0.800000000000011
 50
131.40962210929939
 51
180.0
  0
ARC
  5
3F86
  8
0
 10
127.4919297027696
 20
287.82335501070548
 30
0.0
 40
0.8000000000000113
 50
0.0
 51
48.59037789070058
  0
LINE
  5
3F87
  8
0
 10
207.9919288087697
 20
285.92335548750549
 30
0.0
 11
207.69193118096959
 21
286.2233549779055
 31
0.0
  0
LINE
  5
3F88
  8
0
 10
128.29192822456969
 20
286.2233549779055
 30
0.0
 11
127.99193059686949
 21
285.92335548750549
 31
0.0
  0
LINE
  5
3F89
  8
0
 10
207.9919288087697
 20
280.42335551730559
 30
0.0
 11
207.9919288087697
 21
285.92335548750549
 31
0.0
  0
LINE
  5
3F8A
  8
0
 10
127.99193059686949
 20
285.92335548750549
 30
0.0
 11
127.99193059686949
 21
280.42335551730559
 31
0.0
  0
LINE
  5
3F8B
  8
0
 10
127.99193059686949
 20
280.42335551730559
 30
0.0
 11
128.14192941076959
 21
280.1635463213056
 31
0.0
  0
LINE
  5
3F8C
  8
0
 10
207.8419299948697
 20
280.1635463213056
 30
0.0
 11
207.9919288087697
 21
280.42335551730559
 31
0.0
  0
LINE
  5
3F8D
  8
0
 10
207.8419299948697
 20
271.62335556500562
 30
0.0
 11
207.8419299948697
 21
280.1635463213056
 31
0.0
  0
LINE
  5
3F8E
  8
0
 10
128.14192941076959
 20
280.1635463213056
 30
0.0
 11
128.14192941076959
 21
271.62335556500562
 31
0.0
  0
LINE
  5
3F8F
  8
0
 10
207.69193118096959
 20
286.2233549779055
 30
0.0
 11
207.69193118096959
 21
287.82335412260562
 31
0.0
  0
LINE
  5
3F90
  8
0
 10
128.29192822456969
 20
287.82335412260562
 30
0.0
 11
128.29192822456969
 21
286.2233549779055
 31
0.0
  0
LINE
  5
3F91
  8
0
 10
129.4492380845696
 20
280.22335585700557
 30
0.0
 11
134.44924076676949
 21
280.22335585700557
 31
0.0
  0
LINE
  5
3F92
  8
0
 10
130.24924045086971
 20
279.42335349070561
 30
0.0
 11
133.6492384004697
 21
279.42335349070561
 31
0.0
  0
LINE
  5
3F93
  8
0
 10
150.4430426436696
 20
280.22335585700557
 30
0.0
 11
155.44304346326959
 21
280.22335585700557
 31
0.0
  0
LINE
  5
3F94
  8
0
 10
151.24304314736969
 20
279.42335349070561
 30
0.0
 11
154.64304295956961
 21
279.42335349070561
 31
0.0
  0
LINE
  5
3F95
  8
0
 10
185.52193885326969
 20
280.22335585700557
 30
0.0
 11
185.54081676186971
 21
280.22335585700557
 31
0.0
  0
LINE
  5
3F96
  8
0
 10
180.5408159423697
 20
280.22335585700557
 30
0.0
 11
185.52193885326969
 21
280.22335585700557
 31
0.0
  0
LINE
  5
3F97
  8
0
 10
184.72797890786961
 20
279.42335349070561
 30
0.0
 11
184.7408162582696
 21
279.42335349070561
 31
0.0
  0
LINE
  5
3F98
  8
0
 10
181.34081644596961
 20
279.42335349070561
 30
0.0
 11
184.72797890786961
 21
279.42335349070561
 31
0.0
  0
LINE
  5
3F99
  8
0
 10
201.53461863876959
 20
280.22335585700557
 30
0.0
 11
206.53462132096971
 21
280.22335585700557
 31
0.0
  0
LINE
  5
3F9A
  8
0
 10
202.33462100506961
 20
279.42335349070561
 30
0.0
 11
205.7346189546696
 21
279.42335349070561
 31
0.0
  0
LINE
  5
3F9B
  8
0
 10
220.89193144926961
 20
307.42335482070558
 30
0.0
 11
220.89193144926961
 21
293.42335578550558
 31
0.0
  0
LINE
  5
3F9E
  8
0
 10
221.39192873716959
 20
293.92335493620561
 30
0.0
 11
221.39192873716959
 21
306.92335520440548
 31
0.0
  0
LINE
  5
3F9F
  8
0
 10
217.8919300213839
 20
307.42335381114111
 30
0.0
 11
217.8919297381394
 21
293.42335337894121
 31
0.0
  0
LINE
  5
3FA0
  8
0
 10
115.0919279563696
 20
293.42335578550558
 30
0.0
 11
115.0919279563696
 21
307.42335482070558
 31
0.0
  0
LINE
  5
3FA2
  8
0
 10
118.0919303107695
 20
293.42335438850557
 30
0.0
 11
118.0919303107695
 21
307.42335482070558
 31
0.0
  0
LINE
  5
3FA3
  8
0
 10
114.5919306683697
 20
306.92335520440548
 30
0.0
 11
114.5919306683697
 21
293.92335493620561
 31
0.0
  0
LINE
  5
3FA4
  8
0
 10
154.83543743976961
 20
269.62335523720549
 30
0.0
 11
160.63099216326961
 21
269.62335523720549
 31
0.0
  0
LINE
  5
3FA5
  8
0
 10
154.83543743976961
 20
266.6233566081055
 30
0.0
 11
154.83543743976961
 21
269.62335523720549
 31
0.0
  0
LINE
  5
3FA7
  8
0
 10
130.48234304076971
 20
269.62335523720549
 30
0.0
 11
130.48234304076971
 21
266.6233566081055
 31
0.0
  0
LINE
  5
3FA8
  8
0
 10
128.92942597746949
 20
269.62335523720549
 30
0.0
 11
130.48234304076971
 21
269.62335523720549
 31
0.0
  0
LINE
  5
3FA9
  8
0
 10
128.92942597746949
 20
266.6233566081055
 30
0.0
 11
128.92942597746949
 21
269.62335523720549
 31
0.0
  0
LINE
  5
3FAB
  8
0
 10
207.7419283020696
 20
266.6233566081055
 30
0.0
 11
128.2419311034696
 21
266.6233566081055
 31
0.0
  0
LINE
  5
3FAC
  8
0
 10
198.14058115366959
 20
269.62335523720549
 30
0.0
 11
198.14058115366959
 21
266.6233566081055
 31
0.0
  0
LINE
  5
3FAD
  8
0
 10
193.89793930236959
 20
269.62335523720549
 30
0.0
 11
198.14058115366959
 21
269.62335523720549
 31
0.0
  0
LINE
  5
3FAE
  8
0
 10
193.89793930236959
 20
266.6233566081055
 30
0.0
 11
193.89793930236959
 21
269.62335523720549
 31
0.0
  0
LINE
  5
3FB0
  8
0
 10
160.63099216326961
 20
269.62335523720549
 30
0.0
 11
160.63099216326961
 21
266.6233566081055
 31
0.0
  0
LINE
  5
3FB1
  8
0
 10
155.12961895796971
 20
266.6233566081055
 30
0.0
 11
155.12961895796971
 21
269.62335523720549
 31
0.0
  0
LINE
  5
3FB4
  8
0
 10
197.1245442640313
 20
269.62335523720549
 30
0.0
 11
197.1245442640313
 21
266.6233566081055
 31
0.0
  0
LINE
  5
3FB7
  8
0
 10
129.47712055817451
 20
266.6233566081055
 30
0.0
 11
129.47712055817451
 21
269.62335523720549
 31
0.0
  0
LINE
  5
3FBA
  8
0
 10
118.09193065056969
 20
288.92335411660548
 30
0.0
 11
217.8919287550697
 21
288.92335411660548
 31
0.0
  0
LINE
  5
3FBB
  8
0
 10
118.5919279384696
 20
288.4233549660056
 30
0.0
 11
217.39193146706961
 21
288.4233549660056
 31
0.0
  0
ARC
  5
3FC4
  8
0
 10
167.9919297027696
 20
298.14108090640548
 30
0.0
 40
7.9989205323579897
 50
177.97766985520019
 51
2.0223301447997239
  0
LINE
  5
3FC5
  8
0
 10
217.36560856586959
 20
298.42335474240548
 30
0.0
 11
175.9858681041697
 21
298.42335474240548
 31
0.0
  0
ARC
  5
3FC6
  8
0
 10
268.30747368856959
 20
300.52303216920558
 30
0.0
 40
50.98511809808322
 50
182.36023157969981
 51
188.5722693931996
  0
ARC
  5
3FC7
  8
0
 10
67.637616324169699
 20
300.52674219000562
 30
0.0
 40
51.024007431477273
 50
351.43010026260049
 51
357.63739876449949
  0
LINE
  5
3FC8
  8
0
 10
159.9979913014696
 20
298.42335474240548
 30
0.0
 11
118.6182508397696
 21
298.42335474240548
 31
0.0
  0
CIRCLE
  5
3FC9
  8
0
 10
167.9919297027696
 20
298.42335501070562
 30
0.0
 40
7.5
  0
LINE
  5
3FCA
  8
0
 10
159.9979913014696
 20
298.42335474240548
 30
0.0
 11
160.02487579026959
 21
298.47335465750558
 31
0.0
  0
ARC
  5
3FCB
  8
0
 10
167.9919297027696
 20
298.70601976890549
 30
0.0
 40
7.9704504954239104
 50
358.32724350169951
 51
181.67275649829961
  0
LINE
  5
3FCC
  8
0
 10
175.9589836153697
 20
298.47335465750558
 30
0.0
 11
175.9858681041697
 21
298.42335474240548
 31
0.0
  0
LINE
  5
3FCD
  8
0
 10
216.34192970276951
 20
311.42335501070551
 30
0.0
 11
119.64193081146971
 21
311.42335501070551
 31
0.0
  0
ARC
  5
3FD6
  8
0
 10
267.49471442086963
 20
300.40480202750558
 30
0.0
 40
50.218799724402878
 50
171.3895369980001
 51
182.20417620769999
  0
LINE
  5
3FD7
  8
0
 10
175.9589836153697
 20
298.47335465750558
 30
0.0
 11
217.31307079676969
 21
298.47335465750558
 31
0.0
  0
LINE
  5
3FD8
  8
0
 10
118.6707886088696
 20
298.47335465750558
 30
0.0
 11
160.02487579026959
 21
298.47335465750558
 31
0.0
  0
ARC
  5
3FD9
  8
0
 10
68.445765744769574
 20
300.40237436410558
 30
0.0
 40
50.262053666020783
 50
357.80049100829962
 51
8.6057957860005079
  0
LINE
  5
3FDA
  8
0
 10
217.36560856586959
 20
298.42335474240548
 30
0.0
 11
217.31307079676969
 21
298.47335465750558
 31
0.0
  0
LINE
  5
3FDB
  8
0
 10
118.6707886088696
 20
298.47335465750558
 30
0.0
 11
118.6182508397696
 21
298.42335474240548
 31
0.0
  0
LINE
  5
3FDC
  8
0
 10
207.9919288087697
 20
285.92335548750549
 30
0.0
 11
206.53462132096971
 21
285.92335548750549
 31
0.0
  0
LINE
  5
3FDD
  8
0
 10
201.53461863876959
 20
285.92335548750549
 30
0.0
 11
185.54081676186971
 21
285.92335548750549
 31
0.0
  0
LINE
  5
3FDE
  8
0
 10
180.5408159423697
 20
285.92335548750549
 30
0.0
 11
155.44304346326959
 21
285.92335548750549
 31
0.0
  0
LINE
  5
3FDF
  8
0
 10
150.4430426436696
 20
285.92335548750549
 30
0.0
 11
134.44924076676949
 21
285.92335548750549
 31
0.0
  0
LINE
  5
3FE0
  8
0
 10
129.4492380845696
 20
285.92335548750549
 30
0.0
 11
127.99193059686949
 21
285.92335548750549
 31
0.0
  0
LINE
  5
3FE1
  8
0
 10
207.69193118096959
 20
286.2233549779055
 30
0.0
 11
206.53462132096971
 21
286.2233549779055
 31
0.0
  0
LINE
  5
3FE2
  8
0
 10
201.53461863876959
 20
286.2233549779055
 30
0.0
 11
185.54081676186971
 21
286.2233549779055
 31
0.0
  0
LINE
  5
3FE3
  8
0
 10
180.5408159423697
 20
286.2233549779055
 30
0.0
 11
155.44304346326959
 21
286.2233549779055
 31
0.0
  0
LINE
  5
3FE4
  8
0
 10
150.4430426436696
 20
286.2233549779055
 30
0.0
 11
134.44924076676949
 21
286.2233549779055
 31
0.0
  0
LINE
  5
3FE5
  8
0
 10
129.4492380845696
 20
286.2233549779055
 30
0.0
 11
128.29192822456969
 21
286.2233549779055
 31
0.0
  0
LINE
  5
3FE6
  8
0
 10
207.9919288087697
 20
280.42335551730559
 30
0.0
 11
206.53462132096971
 21
280.42335551730559
 31
0.0
  0
LINE
  5
3FE7
  8
0
 10
201.53461863876959
 20
280.42335551730559
 30
0.0
 11
185.54081676186971
 21
280.42335551730559
 31
0.0
  0
LINE
  5
3FE8
  8
0
 10
180.5408159423697
 20
280.42335551730559
 30
0.0
 11
155.44304346326959
 21
280.42335551730559
 31
0.0
  0
LINE
  5
3FE9
  8
0
 10
150.4430426436696
 20
280.42335551730559
 30
0.0
 11
134.44924076676949
 21
280.42335551730559
 31
0.0
  0
LINE
  5
3FEA
  8
0
 10
129.4492380845696
 20
280.42335551730559
 30
0.0
 11
127.99193059686949
 21
280.42335551730559
 31
0.0
  0
LINE
  5
3FEB
  8
0
 10
207.8419299948697
 20
280.1635463213056
 30
0.0
 11
206.47481178526959
 21
280.1635463213056
 31
0.0
  0
LINE
  5
3FEC
  8
0
 10
201.59442817456949
 20
280.1635463213056
 30
0.0
 11
185.48100908876961
 21
280.1635463213056
 31
0.0
  0
LINE
  5
3FED
  8
0
 10
180.6006236154696
 20
280.1635463213056
 30
0.0
 11
155.38323579016949
 21
280.1635463213056
 31
0.0
  0
LINE
  5
3FEE
  8
0
 10
150.5028503167697
 20
280.1635463213056
 30
0.0
 11
134.38943123106961
 21
280.1635463213056
 31
0.0
  0
LINE
  5
3FEF
  8
0
 10
129.50904762036961
 20
280.1635463213056
 30
0.0
 11
128.14192941076959
 21
280.1635463213056
 31
0.0
  0
LINE
  5
3FF0
  8
0
 10
207.8419299948697
 20
271.62335556500562
 30
0.0
 11
128.14192941076959
 21
271.62335556500562
 31
0.0
  0
LINE
  5
3FF7
  8
0
 10
217.84192790866959
 20
309.9233549976056
 30
0.0
 11
118.1419314968697
 21
309.9233549976056
 31
0.0
  0
LINE
  5
3FF8
  8
0
 10
207.69193118096959
 20
287.82335412260562
 30
0.0
 11
206.53462132096971
 21
287.82335412260562
 31
0.0
  0
LINE
  5
3FF9
  8
0
 10
201.53461863876959
 20
287.82335412260562
 30
0.0
 11
185.54081676186971
 21
287.82335412260562
 31
0.0
  0
LINE
  5
3FFA
  8
0
 10
180.5408159423697
 20
287.82335412260562
 30
0.0
 11
155.44304346326959
 21
287.82335412260562
 31
0.0
  0
LINE
  5
3FFB
  8
0
 10
150.4430426436696
 20
287.82335412260562
 30
0.0
 11
134.44924076676949
 21
287.82335412260562
 31
0.0
  0
LINE
  5
3FFC
  8
0
 10
129.4492380845696
 20
287.82335412260562
 30
0.0
 11
128.29192822456969
 21
287.82335412260562
 31
0.0
  0
ARC
  5
4081
  8
0
 10
167.99192970276971
 20
438.87335612918559
 30
0.0
 40
49.900001256006583
 50
187.56121784674269
 51
352.43878215325708
  0
ARC
  5
4088
  8
0
 10
167.99192970276971
 20
438.87335612918559
 30
0.0
 40
49.900001256006583
 50
7.5612182471736071
 51
172.43878175282629
  0
CIRCLE
  5
408B
  8
0
 10
167.99192970276971
 20
438.87335632498582
 30
0.0
 40
49.850000000000037
  0
LINE
  5
4099
  8
1
 10
226.39192873716959
 20
438.87335632498571
 30
0.0
 11
109.5919306683697
 21
438.87335632498571
 31
0.0
  0
LINE
  5
409A
  8
1
 10
167.99192970276971
 20
493.7733573851923
 30
0.0
 11
167.99192970276971
 21
383.97335487317912
 31
0.0
  0
LINE
  5
409B
  8
1
 10
226.3919289328694
 20
139.17335529382549
 30
0.0
 11
109.5919308640695
 21
139.17335529382549
 31
0.0
  0
LINE
  5
409C
  8
1
 10
167.99192989846949
 20
194.073356354032
 30
0.0
 11
167.99192989846949
 21
84.273353842018864
 31
0.0
  0
LINE
  5
409F
  8
1
 10
212.47591781329839
 20
300.4233550703056
 30
0.0
 11
226.39192873716959
 21
300.4233550703056
 31
0.0
  0
LINE
  5
40A0
  8
1
 10
109.5919306683696
 20
300.4233550703056
 30
0.0
 11
123.5078154280389
 21
300.4233550703056
 31
0.0
  0
LINE
  5
40A3
  8
1
 10
167.99193025711961
 20
316.42335501070562
 30
0.0
 11
167.9919297027696
 21
261.62335660810561
 31
0.0
  0
CIRCLE
  5
4183
  8
3
 10
183.04081620486949
 20
97.826879979225581
 30
0.0
 40
2.0669999999999988
  0
ARC
  5
4217
  8
1
 10
167.99192989846949
 20
139.17335509802541
 30
0.0
 40
43.999999816051073
 50
282.83335666033679
 51
297.16664351422548
  0
LINE
  5
4218
  8
1
 10
181.1597054165714
 20
102.9951893935455
 30
0.0
 11
184.92192699316769
 21
92.658570564905617
 31
0.0
  0
CIRCLE
  5
4219
  8
0
 10
167.99192989846949
 20
139.17365925562561
 30
0.0
 40
41.300286882413793
  0
CIRCLE
  5
421A
  8
0
 10
167.99192989846949
 20
139.17335509802541
 30
0.0
 40
41.49999981427905
  0
CIRCLE
  5
421F
  8
0
 10
152.94304359218131
 20
97.826879979184866
 30
0.0
 40
2.5
  0
CIRCLE
  5
4220
  8
3
 10
152.94304359218131
 20
97.826879979184866
 30
0.0
 40
2.0669999999999988
  0
ARC
  5
4221
  8
1
 10
167.9919297726116
 20
139.17335514383399
 30
0.0
 40
43.999999816051073
 50
242.83335666033699
 51
257.1666435142256
  0
LINE
  5
4222
  8
1
 10
154.8241543804655
 20
102.9951893935099
 30
0.0
 11
151.06193280389709
 21
92.658570564859815
 31
0.0
  0
CIRCLE
  5
4223
  8
0
 10
204.0346198472545
 20
113.9359920944036
 30
0.0
 40
2.4999999999999991
  0
CIRCLE
  5
4224
  8
3
 10
204.0346198472545
 20
113.9359920944036
 30
0.0
 40
2.0669999999999988
  0
ARC
  5
4225
  8
1
 10
167.99193001077569
 20
139.17335513343551
 30
0.0
 40
43.999999816051059
 50
317.83335666033707
 51
332.16664351422571
  0
LINE
  5
4226
  8
1
 10
199.5292836036607
 20
117.0906624943283
 30
0.0
 11
208.53995609084819
 21
110.781321694479
 31
0.0
  0
CIRCLE
  5
422B
  8
0
 10
131.94923994968451
 20
113.9359920944036
 30
0.0
 40
2.4999999999999991
  0
CIRCLE
  5
422C
  8
3
 10
131.94923994968451
 20
113.9359920944036
 30
0.0
 40
2.0669999999999988
  0
ARC
  5
422D
  8
1
 10
167.99192978616321
 20
139.17335513343551
 30
0.0
 40
43.999999816051059
 50
207.83335648577429
 51
222.16664333966301
  0
LINE
  5
422E
  8
1
 10
136.4545761932782
 20
117.0906624943282
 30
0.0
 11
127.44390370609079
 21
110.7813216944789
 31
0.0
  0
CIRCLE
  5
422F
  8
0
 10
183.04081620486949
 20
180.51983060842551
 30
0.0
 40
2.5
  0
CIRCLE
  5
4230
  8
3
 10
183.04081620486949
 20
180.51983060842551
 30
0.0
 40
2.0669999999999988
  0
ARC
  5
4231
  8
1
 10
167.99192989846949
 20
139.17335548962549
 30
0.0
 40
43.999999816051073
 50
62.833356485774942
 51
77.166643339663239
  0
LINE
  5
4232
  8
1
 10
181.1597054165714
 20
175.35152119410549
 30
0.0
 11
184.92192699316769
 21
185.68814002274539
 31
0.0
  0
CIRCLE
  5
4233
  8
0
 10
152.94304359218131
 20
180.51983060846621
 30
0.0
 40
2.5
  0
CIRCLE
  5
4234
  8
3
 10
152.94304359218131
 20
180.51983060846621
 30
0.0
 40
2.0669999999999988
  0
ARC
  5
4235
  8
1
 10
167.9919297726116
 20
139.173355443817
 30
0.0
 40
43.999999816051073
 50
102.8333564857743
 51
117.16664333966359
  0
LINE
  5
4236
  8
1
 10
154.8241543804655
 20
175.3515211941411
 30
0.0
 11
151.06193280389709
 21
185.6881400227912
 31
0.0
  0
CIRCLE
  5
4237
  8
0
 10
204.0346198472545
 20
164.4107184932474
 30
0.0
 40
2.4999999999999991
  0
CIRCLE
  5
4238
  8
3
 10
204.0346198472545
 20
164.4107184932474
 30
0.0
 40
2.0669999999999988
  0
ARC
  5
4239
  8
1
 10
167.99193001077569
 20
139.17335545421551
 30
0.0
 40
43.999999816051059
 50
27.83335648577437
 51
42.166643339663608
  0
LINE
  5
423A
  8
1
 10
199.5292836036607
 20
161.2560480933227
 30
0.0
 11
208.53995609084819
 21
167.56538889317201
 31
0.0
  0
CIRCLE
  5
423B
  8
0
 10
131.94923994968451
 20
164.4107184932474
 30
0.0
 40
2.4999999999999991
  0
CIRCLE
  5
423C
  8
3
 10
131.94923994968451
 20
164.4107184932474
 30
0.0
 40
2.0669999999999988
  0
ARC
  5
423D
  8
1
 10
167.99192978616321
 20
139.17335545421551
 30
0.0
 40
43.999999816051059
 50
137.83335666033639
 51
152.1666435142256
  0
LINE
  5
423E
  8
1
 10
136.4545761932782
 20
161.25604809332279
 30
0.0
 11
127.44390370609079
 21
167.5653888931721
 31
0.0
  0
CIRCLE
  5
4287
  8
0
 10
167.99192989846949
 20
139.17335509802541
 30
0.0
 40
39.750001434527157
  0
LINE
  5
42D0
  8
3
 10
150.8760435921813
 20
279.79035390036012
 30
0.0
 11
150.8760435921813
 21
288.4233549660056
 31
0.0
  0
LINE
  5
42D1
  8
3
 10
155.01004359218129
 20
279.79035497778602
 30
0.0
 11
155.01004359218129
 21
288.4233549660056
 31
0.0
  0
LINE
  5
42D2
  8
3
 10
129.88223996438131
 20
279.79035390036012
 30
0.0
 11
129.88223996438131
 21
288.4233549660056
 31
0.0
  0
LINE
  5
42D3
  8
3
 10
134.01623996438141
 20
279.79035497778602
 30
0.0
 11
134.01623996438141
 21
288.4233549660056
 31
0.0
  0
LINE
  5
42D4
  8
3
 10
180.96739821563131
 20
279.79035390036012
 30
0.0
 11
180.96739821563131
 21
288.4233549660056
 31
0.0
  0
LINE
  5
42D5
  8
3
 10
185.10139821563129
 20
279.79035497778602
 30
0.0
 11
185.10139821563129
 21
288.4233549660056
 31
0.0
  0
LINE
  5
42D6
  8
3
 10
201.9676205185813
 20
279.79035390036012
 30
0.0
 11
201.9676205185813
 21
288.4233549660056
 31
0.0
  0
LINE
  5
42D7
  8
3
 10
206.10162051858131
 20
279.79035497778602
 30
0.0
 11
206.10162051858131
 21
288.4233549660056
 31
0.0
  0
CIRCLE
  5
4320
  8
0
 10
131.94923975406971
 20
464.11071952438579
 30
0.0
 40
4.5
  0
CIRCLE
  5
4321
  8
0
 10
152.9430433964697
 20
480.21983163958572
 30
0.0
 40
4.499999999999976
  0
CIRCLE
  5
4322
  8
0
 10
183.04081600906949
 20
480.21983163958572
 30
0.0
 40
4.5
  0
CIRCLE
  5
4323
  8
0
 10
204.0346196514696
 20
464.11071952438579
 30
0.0
 40
4.5
  0
CIRCLE
  5
4324
  8
0
 10
131.94923975406971
 20
413.63599312558568
 30
0.0
 40
4.5
  0
CIRCLE
  5
4325
  8
0
 10
152.9430433964697
 20
397.52688101038569
 30
0.0
 40
4.499999999999976
  0
CIRCLE
  5
4326
  8
0
 10
183.04081600906949
 20
397.52688101038569
 30
0.0
 40
4.5
  0
CIRCLE
  5
4327
  8
0
 10
204.0346196514696
 20
413.63599312558563
 30
0.0
 40
4.5
  0
CIRCLE
  5
4328
  8
0
 10
167.99192970276971
 20
438.87335612918559
 30
0.0
 40
13.696411625321099
  0
ARC
  5
4329
  8
0
 10
167.99192970276971
 20
438.87335612918559
 30
0.0
 40
7.749999873340129
 50
288.85251966325131
 51
71.147480722266778
  0
LINE
  5
4396
  8
0
 10
160.49192991685049
 20
445.33483200075273
 30
0.0
 11
160.49192977690251
 21
446.57481729755409
 31
0.0
  0
LINE
  5
4397
  8
0
 10
175.49192978341461
 20
446.57481714682513
 30
0.0
 11
175.4919293882013
 21
445.33483157469709
 31
0.0
  0
ARC
  5
4398
  8
0
 10
161.1557772466083
 20
446.60199030171782
 30
0.0
 40
1.43051859020824
 50
242.3505567222675
 51
265.17616271153429
  0
ARC
  5
439C
  8
0
 10
161.12461581741289
 20
446.42335612918612
 30
0.0
 40
1.250000000000701
 50
265.91091683995433
 51
289.82367147169651
  0
ARC
  5
439D
  8
0
 10
167.99192970276971
 20
427.37335612918469
 30
0.0
 40
19.000000000000892
 50
70.176328528332931
 51
109.823671471667
  0
ARC
  5
439E
  8
0
 10
174.85924358812591
 20
446.42335612918589
 30
0.0
 40
1.25000000000081
 50
250.17632852828621
 51
274.08908316007182
  0
ARC
  5
43A0
  8
0
 10
167.99192970277051
 20
442.37335612918531
 30
0.0
 40
7.5000000000001421
 50
21.947545858482759
 51
158.05245001409421
  0
LINE
  5
43A1
  8
0
 10
160.4919299603267
 20
432.41188020715481
 30
0.0
 11
160.49192982872199
 21
431.17189491035339
 31
0.0
  0
LINE
  5
43A2
  8
0
 10
175.49192983523409
 20
431.17189516201017
 30
0.0
 11
175.49192943167751
 21
432.41188073413821
 31
0.0
  0
ARC
  5
43A3
  8
0
 10
161.1557772986107
 20
431.14472191065602
 30
0.0
 40
1.4305185902085411
 50
94.823837673984343
 51
117.64944366324541
  0
ARC
  5
43A5
  8
0
 10
161.12461586821331
 20
431.32335608297819
 30
0.0
 40
1.250000000000701
 50
70.176328913819205
 51
94.089083545561536
  0
ARC
  5
43A6
  8
0
 10
167.99192962539169
 20
450.37335612918662
 30
0.0
 40
19.000000000000892
 50
250.1763289138496
 51
289.82367185718419
  0
ARC
  5
43A7
  8
0
 10
174.85924363892619
 20
431.32335617539241
 30
0.0
 40
1.25000000000081
 50
85.910917225444308
 51
109.8236718572299
  0
ARC
  5
43A8
  8
0
 10
167.99192972632039
 20
435.37335612918611
 30
0.0
 40
7.5000000000001421
 50
201.947550371419
 51
338.05245452703338
  0
ARC
  5
43A9
  8
0
 10
167.99192970276971
 20
438.87335612918559
 30
0.0
 40
7.749999873340129
 50
108.85251927773319
 51
251.14748110778069
  0
LINE
  5
43F4
  8
1
 10
122.99192989846949
 20
145.67335529382549
 30
0.0
 11
122.99192989846949
 21
132.67335529382549
 31
0.0
  0
LINE
  5
43F5
  8
1
 10
212.99192989846949
 20
145.67335529382549
 30
0.0
 11
212.99192989846949
 21
132.67335529382549
 31
0.0
  0
CIRCLE
  5
443E
  8
0
 10
167.99192989846949
 20
139.17335509802541
 30
0.0
 40
40.500000119209282
  0
ARC
  5
4B43
  8
0
 10
174.8280821589311
 20
446.60199030171782
 30
0.0
 40
1.43051859020824
 50
274.82383728846588
 51
297.64944327773247
  0
ARC
  5
4B44
  8
0
 10
174.82808210692869
 20
431.14472191065602
 30
0.0
 40
1.4305185902085411
 50
62.350556336755211
 51
85.176162326015387
  0
LINE
  5
4C68
  8
1
 10
180.47566494485909
 20
473.17213697978531
 30
0.0
 11
185.60596707328
 21
487.26752629938619
 31
0.0
  0
LINE
  5
4C6A
  8
1
 10
197.89097943816211
 20
459.80889620706688
 30
0.0
 11
210.17826008939571
 21
468.41254277104338
 31
0.0
  0
LINE
  5
4C6B
  8
1
 10
155.5081944606803
 20
473.17213697978531
 30
0.0
 11
150.37789233225939
 21
487.26752629938619
 31
0.0
  0
LINE
  5
4C6C
  8
1
 10
138.0928799673772
 20
459.80889620706688
 30
0.0
 11
125.8055993161437
 21
468.41254277104338
 31
0.0
  0
LINE
  5
4C6D
  8
1
 10
180.47566494485909
 20
404.57457567018622
 30
0.0
 11
185.60596707328
 21
390.47918635058528
 31
0.0
  0
LINE
  5
4C6E
  8
1
 10
197.89097943816211
 20
417.93781644290459
 30
0.0
 11
210.17826008939571
 21
409.33416987892809
 31
0.0
  0
LINE
  5
4C6F
  8
1
 10
155.5081944606803
 20
404.57457567018622
 30
0.0
 11
150.37789233225939
 21
390.47918635058528
 31
0.0
  0
LINE
  5
4C70
  8
1
 10
138.0928799673772
 20
417.93781644290459
 30
0.0
 11
125.8055993161437
 21
409.33416987892809
 31
0.0
  0
CIRCLE
  5
4D55
  8
0
 10
158.60973951356951
 20
174.18816649682569
 30
0.0
 40
3.4999999999999991
  0
POLYLINE
  5
4D57
  8
0
 66
     1
 10
0.0
 20
0.0
 30
0.0
 70
     1
  0
VERTEX
  5
501E
  8
0
 10
159.8344843866756
 20
175.4129113665027
 30
0.0
  0
VERTEX
  5
501F
  8
0
 10
158.1614517798275
 20
175.8611991049288
 30
0.0
  0
VERTEX
  5
5020
  8
0
 10
156.93670690672141
 20
174.63645423525179
 30
0.0
  0
VERTEX
  5
5021
  8
0
 10
157.3849946404633
 20
172.96342162714859
 30
0.0
  0
VERTEX
  5
5022
  8
0
 10
159.0580272473114
 20
172.51513388872249
 30
0.0
  0
VERTEX
  5
5023
  8
0
 10
160.28277212041749
 20
173.7398787583995
 30
0.0
  0
SEQEND
  5
5024
  8
0
  0
CIRCLE
  5
4DA0
  8
0
 10
132.97712055817439
 20
148.5555451797421
 30
0.0
 40
3.4999999999999991
  0
POLYLINE
  5
4DA1
  8
0
 66
     1
 10
0.0
 20
0.0
 30
0.0
 70
     1
  0
VERTEX
  5
5025
  8
0
 10
132.52883291343159
 20
150.2285778116925
 30
0.0
  0
VERTEX
  5
5026
  8
0
 10
131.3040879751737
 20
149.00383300716729
 30
0.0
  0
VERTEX
  5
5027
  8
0
 10
131.75237561991651
 20
147.33080037521691
 30
0.0
  0
VERTEX
  5
5028
  8
0
 10
133.42540820291731
 20
146.88251254779169
 30
0.0
  0
VERTEX
  5
5029
  8
0
 10
134.6501531411752
 20
148.10725735231691
 30
0.0
  0
VERTEX
  5
502A
  8
0
 10
134.2018654964325
 20
149.78028998426731
 30
0.0
  0
SEQEND
  5
502B
  8
0
  0
CIRCLE
  5
4DA2
  8
0
 10
142.3593118075604
 20
113.54073347764439
 30
0.0
 40
3.4999999999999991
  0
POLYLINE
  5
4DA3
  8
0
 66
     1
 10
0.0
 20
0.0
 30
0.0
 70
     1
  0
VERTEX
  5
502C
  8
0
 10
140.68627922455951
 20
113.9890213050696
 30
0.0
  0
VERTEX
  5
502D
  8
0
 10
141.1345668693024
 20
112.31598867311919
 30
0.0
  0
VERTEX
  5
502E
  8
0
 10
142.80759945230321
 20
111.867700845694
 30
0.0
  0
VERTEX
  5
502F
  8
0
 10
144.03234439056121
 20
113.0924456502192
 30
0.0
  0
VERTEX
  5
5030
  8
0
 10
143.5840567458184
 20
114.7654782821696
 30
0.0
  0
VERTEX
  5
5031
  8
0
 10
141.9110241628176
 20
115.2137661095949
 30
0.0
  0
SEQEND
  5
5032
  8
0
  0
CIRCLE
  5
4DA4
  8
0
 10
177.37412314426291
 20
104.1585463188711
 30
0.0
 40
3.4999999999999991
  0
POLYLINE
  5
4DA5
  8
0
 66
     1
 10
0.0
 20
0.0
 30
0.0
 70
     1
  0
VERTEX
  5
5033
  8
0
 10
176.14937820600491
 20
102.9338015143459
 30
0.0
  0
VERTEX
  5
5034
  8
0
 10
177.82241078900569
 20
102.4855136869207
 30
0.0
  0
VERTEX
  5
5035
  8
0
 10
179.04715572726371
 20
103.7102584914458
 30
0.0
  0
VERTEX
  5
5036
  8
0
 10
178.59886808252091
 20
105.3832911233963
 30
0.0
  0
VERTEX
  5
5037
  8
0
 10
176.9258354995201
 20
105.83157895082149
 30
0.0
  0
VERTEX
  5
5038
  8
0
 10
175.70109056126199
 20
104.60683414629629
 30
0.0
  0
SEQEND
  5
5039
  8
0
  0
POLYLINE
  5
4DA6
  8
0
 66
     1
 10
0.0
 20
0.0
 30
0.0
 70
     1
  0
VERTEX
  5
503A
  8
0
 10
203.455027881711
 20
128.1181365013056
 30
0.0
  0
VERTEX
  5
503B
  8
0
 10
204.67977281996889
 20
129.34288130583079
 30
0.0
  0
VERTEX
  5
503C
  8
0
 10
204.23148517522611
 20
131.01591393778119
 30
0.0
  0
VERTEX
  5
503D
  8
0
 10
202.55845259222531
 20
131.4642017652065
 30
0.0
  0
VERTEX
  5
503E
  8
0
 10
201.33370765396731
 20
130.23945696068131
 30
0.0
  0
VERTEX
  5
503F
  8
0
 10
201.78199529871009
 20
128.5664243287309
 30
0.0
  0
SEQEND
  5
5040
  8
0
  0
CIRCLE
  5
4DA7
  8
0
 10
203.00674023696811
 20
129.79116913325601
 30
0.0
 40
3.4999999999999991
  0
POLYLINE
  5
4DA8
  8
0
 66
     1
 10
0.0
 20
0.0
 30
0.0
 70
     1
  0
VERTEX
  5
5041
  8
0
 10
195.2975768470321
 20
164.35768828437759
 30
0.0
  0
VERTEX
  5
5042
  8
0
 10
194.84928920228921
 20
166.03072091632799
 30
0.0
  0
VERTEX
  5
5043
  8
0
 10
193.17625661928841
 20
166.4790087437533
 30
0.0
  0
VERTEX
  5
5044
  8
0
 10
191.95151168103041
 20
165.254263939228
 30
0.0
  0
VERTEX
  5
5045
  8
0
 10
192.39979932577319
 20
163.5812313072777
 30
0.0
  0
VERTEX
  5
5046
  8
0
 10
194.07283190877399
 20
163.13294347985229
 30
0.0
  0
SEQEND
  5
5047
  8
0
  0
CIRCLE
  5
4DA9
  8
0
 10
193.6245442640313
 20
164.80597611180281
 30
0.0
 40
3.4999999999999991
  0
ARC
  5
4E71
  8
0
 10
167.99192970276971
 20
438.87800130948568
 30
0.0
 40
48.345597552768297
 50
111.4336681894046
 51
121.56710890961919
  0
ARC
  5
4E72
  8
0
 10
167.98828724526959
 20
438.8722551227857
 30
0.0
 40
48.3463564464057
 50
146.4335279786149
 51
213.57001171749951
  0
CIRCLE
  5
4F03
  8
1
 10
167.99192970276971
 20
438.87335612918559
 30
0.0
 40
44.000000184000648
  0
LINE
  5
4F85
  8
0
 10
118.0919303107695
 20
293.42335438850557
 30
0.0
 11
118.1765777051166
 21
293.50800178288068
 31
0.0
  0
LINE
  5
4F86
  8
0
 10
118.2350062277317
 20
307.280278903696
 30
0.0
 11
118.0919303107695
 21
307.42335482070558
 31
0.0
  0
LINE
  5
4F87
  8
0
 10
217.8919297381394
 20
293.42335337894121
 30
0.0
 11
217.80728234550489
 21
293.50800077502868
 31
0.0
  0
LINE
  5
4F88
  8
0
 10
217.74885410152709
 20
307.28027789702622
 30
0.0
 11
217.8919300213839
 21
307.42335381114111
 31
0.0
  0
ENDSEC
  0
EOF
