  0
SECTION
  2
HEADER
  9
$ACADVER
  1
AC1009
  9
$INSBASE
 10
0.0
 20
0.0
 30
0.0
  9
$EXTMIN
 10
-0.0263353867155729
 20
-2.9683172842021568
 30
0.0
  9
$EXTMAX
 10
246.50144542412991
 20
513.88124426763989
 30
0.0000000000000153
  9
$LIMMIN
 10
0.0
 20
0.0
  9
$LIMMAX
 10
385.0
 20
270.0
  9
$ORTHOMODE
 70
     1
  9
$REGENMODE
 70
     1
  9
$FILLMODE
 70
     1
  9
$QTEXTMODE
 70
     0
  9
$MIRRTEXT
 70
     0
  9
$DRAGMODE
 70
     2
  9
$LTSCALE
 40
10.0
  9
$OSMODE
 70
    37
  9
$ATTMODE
 70
     1
  9
$TEXTSIZE
 40
0.2
  9
$TRACEWID
 40
0.05
  9
$TEXTSTYLE
  7
STANDARD
  9
$CLAYER
  8
0
  9
$CELTYPE
  6
BYLAYER
  9
$CECOLOR
 62
   256
  9
$DIMSCALE
 40
1.0
  9
$DIMASZ
 40
3.0
  9
$DIMEXO
 40
1.0
  9
$DIMDLI
 40
6.0
  9
$DIMRND
 40
0.0
  9
$DIMDLE
 40
0.0
  9
$DIMEXE
 40
1.0
  9
$DIMTP
 40
495.0
  9
$DIMTM
 40
0.0
  9
$DIMTXT
 40
3.0
  9
$DIMCEN
 40
0.0
  9
$DIMTSZ
 40
0.0
  9
$DIMTOL
 70
     0
  9
$DIMLIM
 70
     0
  9
$DIMTIH
 70
     0
  9
$DIMTOH
 70
     0
  9
$DIMSE1
 70
     0
  9
$DIMSE2
 70
     0
  9
$DIMTAD
 70
     1
  9
$DIMZIN
 70
     0
  9
$DIMBLK
  1

  9
$DIMASO
 70
     0
  9
$DIMSHO
 70
     0
  9
$DIMPOST
  1

  9
$DIMAPOST
  1

  9
$DIMALT
 70
     0
  9
$DIMALTD
 70
     2
  9
$DIMALTF
 40
25.399999999999999
  9
$DIMLFAC
 40
1.0
  9
$DIMTOFL
 70
     1
  9
$DIMTVP
 40
0.0
  9
$DIMTIX
 70
     1
  9
$DIMSOXD
 70
     0
  9
$DIMSAH
 70
     0
  9
$DIMBLK1
  1

  9
$DIMBLK2
  1

  9
$DIMSTYLE
  2
STANDARD
  9
$DIMCLRD
 70
     0
  9
$DIMCLRE
 70
     0
  9
$DIMCLRT
 70
     4
  9
$DIMTFAC
 40
1.0
  9
$DIMGAP
 40
1.0
  9
$LUNITS
 70
     2
  9
$LUPREC
 70
     4
  9
$SKETCHINC
 40
0.1
  9
$FILLETRAD
 40
2.5
  9
$AUNITS
 70
     0
  9
$AUPREC
 70
     0
  9
$MENU
  1
E:\r13\win\SUPPORT\ACAD
  9
$ELEVATION
 40
0.0
  9
$PELEVATION
 40
0.0
  9
$THICKNESS
 40
0.0
  9
$LIMCHECK
 70
     0
  9
$BLIPMODE
 70
     0
  9
$CHAMFERA
 40
0.0
  9
$CHAMFERB
 40
0.0
  9
$SKPOLY
 70
     0
  9
$TDCREATE
 40
2450653.5278402781
  9
$TDUPDATE
 40
2457337.6340328362
  9
$TDINDWG
 40
0.2700139005
  9
$TDUSRTIMER
 40
0.2700139005
  9
$USRTIMER
 70
     1
  9
$ANGBASE
 50
0.0
  9
$ANGDIR
 70
     0
  9
$PDMODE
 70
     0
  9
$PDSIZE
 40
0.0
  9
$PLINEWID
 40
0.0
  9
$COORDS
 70
     1
  9
$SPLFRAME
 70
     0
  9
$SPLINETYPE
 70
     6
  9
$SPLINESEGS
 70
     8
  9
$ATTDIA
 70
     0
  9
$ATTREQ
 70
     1
  9
$HANDLING
 70
     1
  9
$HANDSEED
  5
30C0
  9
$SURFTAB1
 70
     6
  9
$SURFTAB2
 70
     6
  9
$SURFTYPE
 70
     6
  9
$SURFU
 70
     6
  9
$SURFV
 70
     6
  9
$UCSNAME
  2

  9
$UCSORG
 10
0.0
 20
0.0
 30
0.0
  9
$UCSXDIR
 10
1.0
 20
0.0
 30
0.0
  9
$UCSYDIR
 10
0.0
 20
1.0
 30
0.0
  9
$PUCSNAME
  2

  9
$PUCSORG
 10
0.0
 20
0.0
 30
0.0
  9
$PUCSXDIR
 10
1.0
 20
0.0
 30
0.0
  9
$PUCSYDIR
 10
0.0
 20
1.0
 30
0.0
  9
$USERI1
 70
     3
  9
$USERI2
 70
     1
  9
$USERI3
 70
     0
  9
$USERI4
 70
     0
  9
$USERI5
 70
     0
  9
$USERR1
 40
1.0
  9
$USERR2
 40
3.0
  9
$USERR3
 40
3.0
  9
$USERR4
 40
3.0
  9
$USERR5
 40
10.0
  9
$WORLDVIEW
 70
     1
  9
$SHADEDGE
 70
     3
  9
$SHADEDIF
 70
    70
  9
$TILEMODE
 70
     1
  9
$MAXACTVP
 70
    16
  9
$PLIMCHECK
 70
     0
  9
$PEXTMIN
 10
1.0000000000000000E+020
 20
1.0000000000000000E+020
 30
1.0000000000000000E+020
  9
$PEXTMAX
 10
-1.0000000000000000E+020
 20
-1.0000000000000000E+020
 30
-1.0000000000000000E+020
  9
$PLIMMIN
 10
0.0
 20
0.0
  9
$PLIMMAX
 10
12.0
 20
9.0
  9
$UNITMODE
 70
     0
  9
$VISRETAIN
 70
     0
  9
$PLINEGEN
 70
     0
  9
$PSLTSCALE
 70
     0
  0
ENDSEC
  0
SECTION
  2
TABLES
  0
TABLE
  2
VPORT
 70
     1
  0
VPORT
  2
*ACTIVE
 70
     0
 10
0.0
 20
0.0
 11
1.0
 21
1.0
 12
123.2375550187072
 22
255.45646349171889
 13
0.0
 23
0.0
 14
5.0
 24
5.0
 15
10.0
 25
10.0
 16
0.0
 26
0.0
 36
1.0
 17
0.0
 27
0.0
 37
0.0
 40
521.17466248533026
 41
1.368715083798882
 42
50.0
 43
0.0
 44
0.0
 50
0.0
 51
0.0
 71
     0
 72
  1000
 73
     1
 74
     0
 75
     0
 76
     0
 77
     0
 78
     0
  0
ENDTAB
  0
TABLE
  2
LTYPE
 70
     3
  0
LTYPE
  2
CONTINUOUS
 70
     0
  3
Solid Line
 72
    65
 73
     0
 40
0.0
  0
LTYPE
  2
CENTER
 70
     0
  3
____ _ ____ _ ____ _ ____ _ ____ _ ____ _ ____
 72
    65
 73
     4
 40
2.0
 49
1.25
 49
-0.25
 49
0.25
 49
-0.25
  0
LTYPE
  2
PHANTOM2
 70
     0
  3
___ _ _ ___ _ _ ___ _ _ ___ _ _
 72
    65
 73
     6
 40
1.25
 49
0.625
 49
-0.125
 49
0.125
 49
-0.125
 49
0.125
 49
-0.125
  0
ENDTAB
  0
TABLE
  2
LAYER
 70
     3
  0
LAYER
  2
0
 70
     0
 62
     7
  6
CONTINUOUS
  0
LAYER
  2
1
 70
     0
 62
     1
  6
CENTER
  0
LAYER
  2
3
 70
     0
 62
     3
  6
CONTINUOUS
  0
ENDTAB
  0
TABLE
  2
STYLE
 70
     2
  0
STYLE
  2
STANDARD
 70
     0
 40
0.0
 41
1.0
 50
0.0
 71
     0
 42
0.2
  3
simplex
  4
bigfont
  0
STYLE
  2
STANDARD1
 70
     0
 40
0.0
 41
1.0
 50
0.0
 71
     0
 42
3.0
  3
txt
  4

  0
ENDTAB
  0
TABLE
  2
VIEW
 70
     0
  0
ENDTAB
  0
TABLE
  2
UCS
 70
     0
  0
ENDTAB
  0
TABLE
  2
APPID
 70
     4
  0
APPID
  2
ACAD
 70
     0
  0
APPID
  2
ACAD_MLEADERVER
 70
     0
  0
APPID
  2
ACAD_NAV_VCDISPLAY
 70
     0
  0
APPID
  2
ACAD_EXEMPT_FROM_CAD_STANDARDS
 70
     0
  0
ENDTAB
  0
TABLE
  2
DIMSTYLE
 70
     1
  0
DIMSTYLE
  2
STANDARD
 70
     0
  3

  4

  5

  6

  7

 40
1.0
 41
0.18
 42
0.0625
 43
0.38
 44
0.18
 45
0.0
 46
0.0
 47
0.0
 48
0.0
140
0.18
141
0.09
142
0.0
143
25.399999999999999
144
1.0
145
0.0
146
1.0
147
0.09
 71
     0
 72
     0
 73
     1
 74
     1
 75
     0
 76
     0
 77
     0
 78
     0
170
     0
171
     2
172
     0
173
     0
174
     0
175
     0
176
     0
177
     0
178
     0
  0
ENDTAB
  0
ENDSEC
  0
SECTION
  2
BLOCKS
  0
BLOCK
  8
0
  2
$MODEL_SPACE
 70
     0
 10
0.0
 20
0.0
 30
0.0
  3
$MODEL_SPACE
  1

  0
ENDBLK
  5
82A
  8
0
  0
BLOCK
 67
     1
  8
0
  2
$PAPER_SPACE
 70
     0
 10
0.0
 20
0.0
 30
0.0
  3
$PAPER_SPACE
  1

  0
ENDBLK
  5
828
 67
     1
  8
0
  0
ENDSEC
  0
SECTION
  2
ENTITIES
  0
CIRCLE
  5
2091
  8
0
 10
211.8325503320367
 20
395.03273589141997
 30
0.0
 40
5.2500000000001084
  0
CIRCLE
  5
2092
  8
0
 10
227.87933112839261
 20
454.92013712134252
 30
0.0
 40
5.2500000000000826
  0
CIRCLE
  5
2093
  8
0
 10
211.83255033203599
 20
482.71397675855297
 30
0.0
 40
5.2500000000000826
  0
CIRCLE
  5
2094
  8
0
 10
184.03871069482571
 20
498.76075755490939
 30
0.0
 40
5.2500000000000826
  0
CIRCLE
  5
2095
  8
0
 10
124.1513094649025
 20
482.71397675855252
 30
0.0
 40
5.2500000000000764
  0
CIRCLE
  5
2096
  8
0
 10
108.10452866854649
 20
454.92013712134121
 30
0.0
 40
5.2500000000000684
  0
CIRCLE
  5
2097
  8
0
 10
108.104528668547
 20
422.8265755286281
 30
0.0
 40
5.2500000000001368
  0
CIRCLE
  5
2098
  8
0
 10
151.94514910211441
 20
378.98595509506288
 30
0.0
 40
5.2500000000000826
  0
CIRCLE
  5
2099
  8
0
 10
184.0387106948277
 20
378.9859550950635
 30
0.0
 40
5.2499999999999982
  0
LINE
  5
2258
  8
0
 10
209.33255033203619
 20
481.27060108557907
 30
0.0
 11
211.83255033203631
 21
479.82722541260489
 31
0.0
  0
LINE
  5
2259
  8
0
 10
211.83255033203631
 20
479.82722541260489
 30
0.0
 11
214.33255033203599
 21
481.27060108557907
 31
0.0
  0
LINE
  5
225A
  8
0
 10
214.33255033203599
 20
481.27060108557907
 30
0.0
 11
214.33255033203599
 21
484.15735243152761
 31
0.0
  0
LINE
  5
225B
  8
0
 10
214.33255033203599
 20
484.15735243152761
 30
0.0
 11
211.83255033203599
 21
485.60072810450117
 31
0.0
  0
LINE
  5
225C
  8
0
 10
211.83255033203599
 20
485.60072810450117
 30
0.0
 11
209.33255033203579
 21
484.1573524315267
 31
0.0
  0
LINE
  5
225D
  8
0
 10
209.33255033203579
 20
484.1573524315267
 30
0.0
 11
209.33255033203619
 21
481.27060108557907
 31
0.0
  0
LINE
  5
225E
  8
0
 10
225.37933112839241
 20
456.36351279431642
 30
0.0
 11
225.37933112839289
 21
453.47676144836862
 31
0.0
  0
LINE
  5
225F
  8
0
 10
227.87933112839261
 20
457.80688846729078
 30
0.0
 11
225.37933112839241
 21
456.36351279431642
 31
0.0
  0
LINE
  5
2260
  8
0
 10
230.37933112839269
 20
456.36351279431722
 30
0.0
 11
227.87933112839261
 21
457.80688846729078
 31
0.0
  0
LINE
  5
2261
  8
0
 10
227.87933112839289
 20
452.03338577539461
 30
0.0
 11
230.37933112839269
 21
453.47676144836862
 31
0.0
  0
LINE
  5
2262
  8
0
 10
225.37933112839289
 20
453.47676144836862
 30
0.0
 11
227.87933112839289
 21
452.03338577539461
 31
0.0
  0
LINE
  5
2263
  8
0
 10
230.37933112839269
 20
453.47676144836862
 30
0.0
 11
230.37933112839269
 21
456.36351279431722
 31
0.0
  0
LINE
  5
2264
  8
0
 10
209.3325503320365
 20
396.47611156439388
 30
0.0
 11
209.3325503320369
 21
393.58936021844619
 31
0.0
  0
LINE
  5
2265
  8
0
 10
211.8325503320367
 20
397.91948723736829
 30
0.0
 11
209.3325503320365
 21
396.47611156439388
 31
0.0
  0
LINE
  5
2266
  8
0
 10
214.3325503320367
 20
396.47611156439473
 30
0.0
 11
211.8325503320367
 21
397.91948723736829
 31
0.0
  0
LINE
  5
2267
  8
0
 10
211.8325503320369
 20
392.145984545472
 30
0.0
 11
214.3325503320367
 21
393.58936021844619
 31
0.0
  0
LINE
  5
2268
  8
0
 10
209.3325503320369
 20
393.58936021844619
 30
0.0
 11
211.8325503320369
 21
392.145984545472
 31
0.0
  0
LINE
  5
2269
  8
0
 10
214.3325503320367
 20
393.58936021844619
 30
0.0
 11
214.3325503320367
 21
396.47611156439473
 31
0.0
  0
LINE
  5
226A
  8
0
 10
181.5387106948275
 20
380.42933076803729
 30
0.0
 11
181.5387106948279
 21
377.54257942208972
 31
0.0
  0
LINE
  5
226B
  8
0
 10
184.0387106948277
 20
381.87270644101181
 30
0.0
 11
181.5387106948275
 21
380.42933076803729
 31
0.0
  0
LINE
  5
226C
  8
0
 10
186.5387106948277
 20
380.4293307680382
 30
0.0
 11
184.0387106948277
 21
381.87270644101181
 31
0.0
  0
LINE
  5
226D
  8
0
 10
184.0387106948279
 20
376.09920374911547
 30
0.0
 11
186.5387106948277
 21
377.54257942208972
 31
0.0
  0
LINE
  5
226E
  8
0
 10
181.5387106948279
 20
377.54257942208972
 30
0.0
 11
184.0387106948279
 21
376.09920374911547
 31
0.0
  0
LINE
  5
226F
  8
0
 10
186.5387106948277
 20
377.54257942208972
 30
0.0
 11
186.5387106948277
 21
380.4293307680382
 31
0.0
  0
LINE
  5
2270
  8
0
 10
149.44514910211419
 20
380.42933076803678
 30
0.0
 11
149.4451491021147
 21
377.54257942208909
 31
0.0
  0
LINE
  5
2271
  8
0
 10
151.94514910211441
 20
381.87270644101119
 30
0.0
 11
149.44514910211419
 21
380.42933076803678
 31
0.0
  0
LINE
  5
2272
  8
0
 10
154.44514910211441
 20
380.42933076803757
 30
0.0
 11
151.94514910211441
 21
381.87270644101119
 31
0.0
  0
LINE
  5
2273
  8
0
 10
151.94514910211461
 20
376.09920374911502
 30
0.0
 11
154.44514910211441
 21
377.54257942208909
 31
0.0
  0
LINE
  5
2274
  8
0
 10
149.4451491021147
 20
377.54257942208909
 30
0.0
 11
151.94514910211461
 21
376.09920374911502
 31
0.0
  0
LINE
  5
2275
  8
0
 10
154.44514910211441
 20
377.54257942208909
 30
0.0
 11
154.44514910211441
 21
380.42933076803757
 31
0.0
  0
LINE
  5
2276
  8
0
 10
105.60452866854671
 20
424.26995120160188
 30
0.0
 11
105.6045286685472
 21
421.3831998556542
 31
0.0
  0
LINE
  5
2277
  8
0
 10
108.104528668547
 20
425.7133268745763
 30
0.0
 11
105.60452866854671
 21
424.26995120160188
 31
0.0
  0
LINE
  5
2278
  8
0
 10
110.604528668547
 20
424.26995120160268
 30
0.0
 11
108.104528668547
 21
425.7133268745763
 31
0.0
  0
LINE
  5
2279
  8
0
 10
108.1045286685472
 20
419.93982418268013
 30
0.0
 11
110.604528668547
 21
421.3831998556542
 31
0.0
  0
LINE
  5
227A
  8
0
 10
105.6045286685472
 20
421.3831998556542
 30
0.0
 11
108.1045286685472
 21
419.93982418268013
 31
0.0
  0
LINE
  5
227B
  8
0
 10
110.604528668547
 20
421.3831998556542
 30
0.0
 11
110.604528668547
 21
424.26995120160268
 31
0.0
  0
LINE
  5
227C
  8
0
 10
105.60452866854629
 20
456.363512794315
 30
0.0
 11
105.60452866854671
 21
453.47676144836743
 31
0.0
  0
LINE
  5
227D
  8
0
 10
108.10452866854649
 20
457.80688846728941
 30
0.0
 11
105.60452866854629
 21
456.363512794315
 31
0.0
  0
LINE
  5
227E
  8
0
 10
110.60452866854649
 20
456.3635127943158
 30
0.0
 11
108.10452866854649
 21
457.80688846728941
 31
0.0
  0
LINE
  5
227F
  8
0
 10
108.10452866854681
 20
452.03338577539319
 30
0.0
 11
110.60452866854649
 21
453.47676144836743
 31
0.0
  0
LINE
  5
2280
  8
0
 10
105.60452866854671
 20
453.47676144836743
 30
0.0
 11
108.10452866854681
 21
452.03338577539319
 31
0.0
  0
LINE
  5
2281
  8
0
 10
110.60452866854649
 20
453.47676144836743
 30
0.0
 11
110.60452866854649
 21
456.3635127943158
 31
0.0
  0
LINE
  5
2282
  8
0
 10
121.6513094649023
 20
484.15735243152631
 30
0.0
 11
121.6513094649027
 21
481.27060108557862
 31
0.0
  0
LINE
  5
2283
  8
0
 10
124.1513094649025
 20
485.60072810450072
 30
0.0
 11
121.6513094649023
 21
484.15735243152631
 31
0.0
  0
LINE
  5
2284
  8
0
 10
126.6513094649025
 20
484.15735243152722
 30
0.0
 11
124.1513094649025
 21
485.60072810450072
 31
0.0
  0
LINE
  5
2285
  8
0
 10
124.1513094649027
 20
479.82722541260449
 30
0.0
 11
126.6513094649025
 21
481.27060108557862
 31
0.0
  0
LINE
  5
2286
  8
0
 10
121.6513094649027
 20
481.27060108557862
 30
0.0
 11
124.1513094649027
 21
479.82722541260449
 31
0.0
  0
LINE
  5
2287
  8
0
 10
126.6513094649025
 20
481.27060108557862
 30
0.0
 11
126.6513094649025
 21
484.15735243152722
 31
0.0
  0
LINE
  5
2288
  8
0
 10
181.5387106948254
 20
500.20413322788318
 30
0.0
 11
181.53871069482591
 21
497.31738188193549
 31
0.0
  0
LINE
  5
2289
  8
0
 10
184.03871069482571
 20
501.64750890085759
 30
0.0
 11
181.5387106948254
 21
500.20413322788318
 31
0.0
  0
LINE
  5
228A
  8
0
 10
186.5387106948256
 20
500.20413322788409
 30
0.0
 11
184.03871069482571
 21
501.64750890085759
 31
0.0
  0
LINE
  5
228B
  8
0
 10
184.03871069482591
 20
495.87400620896142
 30
0.0
 11
186.5387106948256
 21
497.31738188193549
 31
0.0
  0
LINE
  5
228C
  8
0
 10
181.53871069482591
 20
497.31738188193549
 30
0.0
 11
184.03871069482591
 21
495.87400620896142
 31
0.0
  0
LINE
  5
228D
  8
0
 10
186.5387106948256
 20
497.31738188193549
 30
0.0
 11
186.5387106948256
 21
500.20413322788409
 31
0.0
  0
LINE
  5
2290
  8
3
 10
230.3378313482236
 20
286.87335632498571
 30
0.0
 11
230.33783134822369
 21
276.33185632498578
 31
0.0
  0
LINE
  5
2291
  8
3
 10
214.2910503320355
 20
286.87335632498571
 30
0.0
 11
214.2910503320357
 21
276.33185632498578
 31
0.0
  0
LINE
  5
2292
  8
3
 10
209.37405033203549
 20
286.87335632498571
 30
0.0
 11
209.37405033203549
 21
276.33185632498578
 31
0.0
  0
LINE
  5
2293
  8
3
 10
186.49721029648271
 20
286.87335632498571
 30
0.0
 11
186.49721029648299
 21
276.33185632498578
 31
0.0
  0
LINE
  5
2294
  8
3
 10
181.5802102964829
 20
286.87335632498571
 30
0.0
 11
181.5802102964831
 21
276.33185632498578
 31
0.0
  0
LINE
  5
2295
  8
3
 10
154.40364874990979
 20
286.87335632498571
 30
0.0
 11
154.40364874990971
 21
276.33185632498578
 31
0.0
  0
LINE
  5
2296
  8
3
 10
149.4866487499097
 20
286.87335632498571
 30
0.0
 11
149.48664874990979
 21
276.33185632498578
 31
0.0
  0
LINE
  5
2297
  8
3
 10
110.5630272197958
 20
286.87335632498571
 30
0.0
 11
110.5630272197959
 21
276.33792149868123
 31
0.0
  0
LINE
  5
2298
  8
3
 10
105.646027219796
 20
286.87335632498571
 30
0.0
 11
105.646027219796
 21
276.33792149868123
 31
0.0
  0
CIRCLE
  5
229E
  8
0
 10
184.03871069482699
 20
199.0607565237477
 30
0.0
 40
3.0
  0
CIRCLE
  5
229F
  8
3
 10
184.03871069482699
 20
199.0607565237477
 30
0.0
 40
2.458500000000071
  0
CIRCLE
  5
22A0
  8
3
 10
211.8325503320365
 20
183.01397572739091
 30
0.0
 40
2.458500000000071
  0
CIRCLE
  5
22A1
  8
0
 10
211.8325503320365
 20
183.01397572739091
 30
0.0
 40
3.0
  0
CIRCLE
  5
22A3
  8
3
 10
151.94514910211299
 20
199.06075652374639
 30
0.0
 40
2.458500000000071
  0
CIRCLE
  5
22A4
  8
0
 10
151.94514910211299
 20
199.06075652374639
 30
0.0
 40
3.0
  0
CIRCLE
  5
22A5
  8
3
 10
108.1045286685486
 20
155.2201360901818
 30
0.0
 40
2.458500000000071
  0
CIRCLE
  5
22A6
  8
0
 10
108.1045286685486
 20
155.2201360901818
 30
0.0
 40
3.0
  0
CIRCLE
  5
22A7
  8
3
 10
108.1045286685481
 20
123.12657449746921
 30
0.0
 40
2.458500000000071
  0
CIRCLE
  5
22A8
  8
0
 10
108.1045286685481
 20
123.12657449746921
 30
0.0
 40
3.0
  0
CIRCLE
  5
22A9
  8
3
 10
124.1513094649041
 20
95.332734860260928
 30
0.0
 40
2.458500000000071
  0
CIRCLE
  5
22AA
  8
0
 10
124.1513094649041
 20
95.332734860260928
 30
0.0
 40
3.0
  0
CIRCLE
  5
22AB
  8
3
 10
184.0387106948252
 20
79.285954063901642
 30
0.0
 40
2.458500000000071
  0
CIRCLE
  5
22AC
  8
0
 10
184.0387106948252
 20
79.285954063901642
 30
0.0
 40
3.0
  0
CIRCLE
  5
22AD
  8
3
 10
211.8325503320344
 20
95.332734860260985
 30
0.0
 40
2.458500000000071
  0
CIRCLE
  5
22AE
  8
0
 10
211.8325503320344
 20
95.332734860260985
 30
0.0
 40
3.0
  0
CIRCLE
  5
22AF
  8
3
 10
227.87933112839019
 20
123.1265744974703
 30
0.0
 40
2.458500000000071
  0
CIRCLE
  5
22B0
  8
0
 10
227.87933112839019
 20
123.1265744974703
 30
0.0
 40
3.0
  0
LINE
  5
22B9
  8
1
 10
181.90345357272989
 20
490.79186948802442
 30
0.0
 11
186.17396781692139
 21
506.7296456217943
 31
0.0
  0
LINE
  5
22BA
  8
1
 10
217.66618127682511
 20
488.54760770334212
 30
0.0
 11
205.9989193872469
 21
476.88034581376388
 31
0.0
  0
LINE
  5
22BB
  8
1
 10
219.91044306150789
 20
452.78487999924653
 30
0.0
 11
235.84821919527741
 21
457.05539424343829
 31
0.0
  0
LINE
  5
22BC
  8
1
 10
217.6661812768258
 20
389.199104946631
 30
0.0
 11
205.99891938724761
 21
400.86636683620901
 31
0.0
  0
CIRCLE
  5
22BD
  8
1
 10
167.99192989846989
 20
438.87335632498582
 30
0.0
 40
62.00000000000162
  0
LINE
  5
22BE
  8
1
 10
116.07341673543181
 20
424.96183265072409
 30
0.0
 11
100.1356406016622
 21
420.6913184065321
 31
0.0
  0
LINE
  5
22BF
  8
1
 10
100.13564060166151
 20
457.05539424343681
 30
0.0
 11
116.07341673543161
 21
452.7848799992455
 31
0.0
  0
LINE
  5
22C0
  8
1
 10
118.3176785201134
 20
488.5476077033415
 30
0.0
 11
129.9849404096916
 21
476.88034581376343
 31
0.0
  0
LINE
  5
22C1
  8
1
 10
186.17396781692341
 20
371.0170670281787
 30
0.0
 11
181.90345357273199
 21
386.9548431619483
 31
0.0
  0
LINE
  5
22C2
  8
1
 10
154.0804062242099
 20
386.95484316194791
 30
0.0
 11
149.8098919800189
 21
371.01706702817802
 31
0.0
  0
LINE
  5
22C3
  8
1
 10
182.48579642421021
 20
85.081509021636066
 30
0.0
 11
185.59162496544019
 21
73.490399106167203
 31
0.0
  0
LINE
  5
22C4
  8
1
 10
216.07519101915281
 20
91.090094173140884
 30
0.0
 11
207.5899096449144
 21
99.575375547379537
 31
0.0
  0
LINE
  5
22C5
  8
1
 10
222.0837761706556
 20
124.6794887680847
 30
0.0
 11
233.6748860861243
 21
121.5736602268543
 31
0.0
  0
LINE
  5
22C6
  8
1
 10
216.07519101915531
 20
187.25661641451049
 30
0.0
 11
207.5899096449167
 21
178.77133504027199
 31
0.0
  0
LINE
  5
22C7
  8
1
 10
185.59162496544229
 20
204.85631148148209
 30
0.0
 11
182.485796424212
 21
193.26520156601319
 31
0.0
  0
LINE
  5
22C8
  8
1
 10
153.49806337272921
 20
193.26520156601231
 30
0.0
 11
150.39223483149939
 21
204.8563114814813
 31
0.0
  0
LINE
  5
22C9
  8
1
 10
113.90008362628311
 20
153.66722181956729
 30
0.0
 11
102.3089737108145
 21
156.77305036079781
 31
0.0
  0
LINE
  5
22CA
  8
1
 10
102.30897371081331
 20
121.57366022685559
 30
0.0
 11
113.9000836262822
 21
124.6794887680856
 31
0.0
  0
LINE
  5
22CB
  8
1
 10
119.9086687777848
 20
91.090094173141665
 30
0.0
 11
128.39395015202339
 21
99.575375547380204
 31
0.0
  0
ARC
  5
22CC
  8
1
 10
167.99192989846949
 20
139.17335529382549
 30
0.0
 40
62.00000000000162
 50
99.453081195833548
 51
110.5469188041717
  0
ARC
  5
22CD
  8
1
 10
167.99192989846949
 20
139.17335529382549
 30
0.0
 40
62.00000000000162
 50
69.453081195828247
 51
80.546918804166467
  0
ARC
  5
22CE
  8
1
 10
167.99192989846949
 20
139.17335529382549
 30
0.0
 40
62.00000000000162
 50
39.453081195828602
 51
50.546918804168072
  0
ARC
  5
22CF
  8
1
 10
167.99192989846949
 20
139.17335529382549
 30
0.0
 40
62.00000000000162
 50
339.45308119583132
 51
350.54691880416908
  0
ARC
  5
22D0
  8
1
 10
167.99192989846949
 20
139.17335529382549
 30
0.0
 40
62.00000000000162
 50
309.45308119583188
 51
320.54691880417141
  0
ARC
  5
22D1
  8
1
 10
167.99192989846949
 20
139.17335529382549
 30
0.0
 40
62.00000000000162
 50
279.45308119582711
 51
290.54691880416499
  0
ARC
  5
22D2
  8
1
 10
167.99192989846949
 20
139.17335529382549
 30
0.0
 40
62.00000000000162
 50
219.45308119582859
 51
230.54691880416809
  0
ARC
  5
22D3
  8
1
 10
167.99192989846949
 20
139.17335529382549
 30
0.0
 40
62.00000000000162
 50
189.4530811958308
 51
200.54691880417019
  0
ARC
  5
22D4
  8
1
 10
167.99192989846949
 20
139.17335529382549
 30
0.0
 40
62.00000000000162
 50
159.45308119582981
 51
170.54691880416911
  0
LINE
  5
22D5
  8
1
 10
90.491926588621254
 20
307.87335632498571
 30
0.0
 11
99.491927518135299
 21
307.87335632498571
 31
0.0
  0
LINE
  5
22D6
  8
1
 10
236.49193227880369
 20
307.87335632498571
 30
0.0
 11
245.49192989847049
 21
307.87335632498571
 31
0.0
  0
LINE
  5
22D7
  8
1
 10
104.4919298984686
 20
146.42335529382621
 30
0.0
 11
104.4919298984686
 21
131.92335529382609
 31
0.0
  0
LINE
  5
22D8
  8
1
 10
231.4919298984704
 20
146.42335529382621
 30
0.0
 11
231.4919298984704
 21
131.92335529382609
 31
0.0
  0
LINE
  5
22D9
  8
1
 10
167.99192989846941
 20
513.87335632498582
 30
0.0
 11
167.99192989846941
 21
363.87335632498571
 31
0.0
  0
LINE
  5
22DF
  8
1
 10
246.49193241482831
 20
139.17335529382549
 30
0.0
 11
89.491927382110703
 21
139.17335529382549
 31
0.0
  0
LINE
  5
22E0
  8
1
 10
246.49193241482831
 20
438.87335632498582
 30
0.0
 11
89.491927382110703
 21
438.87335632498582
 31
0.0
  0
LINE
  5
22E9
  8
1
 10
167.99192989846941
 20
323.87335632498571
 30
0.0
 11
167.99192989846921
 21
254.17335529382541
 31
0.0
  0
LINE
  5
22EA
  8
1
 10
167.99192989846941
 20
214.17335529382549
 30
0.0
 11
167.99192989846941
 21
64.173355293825466
 31
0.0
  0
LINE
  5
27FC
  8
0
 10
198.7419298984685
 20
259.37335632498571
 30
0.0
 11
198.7419298984685
 21
259.47335632498567
 31
0.0
  0
LINE
  5
27FD
  8
0
 10
190.24192989846841
 20
259.47335632498601
 30
0.0
 11
190.24192989846841
 21
259.37335632498571
 31
0.0
  0
ARC
  5
27FE
  8
0
 10
198.5419298984684
 20
259.37335632498571
 30
0.0
 40
0.2000000000000455
 50
269.9999999999219
 51
0.0
  0
ARC
  5
27FF
  8
0
 10
190.44192989846829
 20
259.37335632498571
 30
0.0
 40
0.2000000000001023
 50
180.0
 51
269.99999999986971
  0
LINE
  5
2800
  8
0
 10
126.3425834978939
 20
259.37335632498571
 30
0.0
 11
126.3425834978939
 21
259.47335632498567
 31
0.0
  0
LINE
  5
2801
  8
0
 10
117.8425834978939
 20
259.47335632498567
 30
0.0
 11
117.8425834978939
 21
259.37335632498571
 31
0.0
  0
ARC
  5
2802
  8
0
 10
126.14258349789471
 20
259.37335632498571
 30
0.0
 40
0.2000000000000455
 50
270.00000000009118
 51
0.0
  0
ARC
  5
2803
  8
0
 10
118.0425834978948
 20
259.37335632498571
 30
0.0
 40
0.2000000000000739
 50
180.0
 51
270.00000000005213
  0
LINE
  5
2804
  8
0
 10
145.74192989847
 20
259.37335632498571
 30
0.0
 11
145.74192989847
 21
259.47335632498562
 31
0.0
  0
LINE
  5
2805
  8
0
 10
137.24192989847
 20
262.67335632498572
 30
0.0
 11
137.24192989847
 21
259.37335632498571
 31
0.0
  0
ARC
  5
2806
  8
0
 10
145.54192989847019
 20
259.37335632498571
 30
0.0
 40
0.2000000000001023
 50
270.00000000013029
 51
0.0
  0
ARC
  5
2807
  8
0
 10
137.44192989847011
 20
259.37335632498571
 30
0.0
 40
0.2000000000001023
 50
180.0
 51
270.0000000000847
  0
LINE
  5
2808
  8
0
 10
218.1412762990451
 20
259.37335632498571
 30
0.0
 11
218.1412762990451
 21
262.67335632498572
 31
0.0
  0
LINE
  5
2809
  8
0
 10
209.6412762990451
 20
259.47335632498613
 30
0.0
 11
209.6412762990451
 21
259.37335632498571
 31
0.0
  0
ARC
  5
280A
  8
0
 10
217.9412762990444
 20
259.37335632498571
 30
0.0
 40
0.2000000000001023
 50
269.99999999993491
 51
0.0
  0
ARC
  5
280B
  8
0
 10
209.84127629904449
 20
259.37335632498571
 30
0.0
 40
0.2000000000001023
 50
180.0
 51
269.99999999988933
  0
LINE
  5
280C
  8
0
 10
94.491929898469266
 20
300.87335632498571
 30
0.0
 11
98.293686196901035
 21
300.87335632498571
 31
0.0
  0
LINE
  5
280D
  8
0
 10
98.293747131836426
 20
314.87335632498571
 30
0.0
 11
94.491929898469266
 21
314.87335632498571
 31
0.0
  0
LINE
  5
280E
  8
0
 10
241.49192989846949
 20
314.87335632498571
 30
0.0
 11
237.69030194082069
 21
314.87335632498571
 31
0.0
  0
LINE
  5
280F
  8
0
 10
237.6901950798117
 20
300.87335632498571
 30
0.0
 11
241.49192989846949
 21
300.87335632498571
 31
0.0
  0
LINE
  5
2814
  8
0
 10
225.1919298984694
 20
263.47335632498562
 30
0.0
 11
225.1919298984694
 21
264.47335632498562
 31
0.0
  0
LINE
  5
2815
  8
0
 10
181.0387106948267
 20
286.87335632498571
 30
0.0
 11
181.0387106948267
 21
276.87335632498571
 31
0.0
  0
LINE
  5
2816
  8
0
 10
187.0387106948267
 20
276.87335632498571
 30
0.0
 11
187.0387106948267
 21
286.87335632498571
 31
0.0
  0
LINE
  5
2817
  8
0
 10
181.0387106948267
 20
276.87335632498571
 30
0.0
 11
182.0387106948267
 21
275.87335632498571
 31
0.0
  0
LINE
  5
2818
  8
0
 10
186.0387106948267
 20
275.87335632498571
 30
0.0
 11
187.0387106948267
 21
276.87335632498571
 31
0.0
  0
LINE
  5
2819
  8
0
 10
148.9451491021141
 20
276.87335632498571
 30
0.0
 11
149.9451491021143
 21
275.87335632498571
 31
0.0
  0
LINE
  5
281A
  8
0
 10
153.9451491021143
 20
275.87335632498571
 30
0.0
 11
154.9451491021143
 21
276.87335632498571
 31
0.0
  0
LINE
  5
281B
  8
0
 10
148.9451491021141
 20
286.87335632498571
 30
0.0
 11
148.9451491021141
 21
276.87335632498571
 31
0.0
  0
LINE
  5
281C
  8
0
 10
154.9451491021143
 20
276.87335632498571
 30
0.0
 11
154.9451491021143
 21
286.87335632498571
 31
0.0
  0
LINE
  5
281D
  8
0
 10
105.1045286685473
 20
276.87335632498571
 30
0.0
 11
106.1045286685473
 21
275.87335632498571
 31
0.0
  0
LINE
  5
281E
  8
0
 10
110.1045286685473
 20
275.87335632498571
 30
0.0
 11
111.1045286685476
 21
276.87335632498571
 31
0.0
  0
LINE
  5
281F
  8
0
 10
105.1045286685473
 20
286.87335632498571
 30
0.0
 11
105.1045286685473
 21
276.87335632498571
 31
0.0
  0
LINE
  5
2820
  8
0
 10
111.1045286685476
 20
276.87335632498571
 30
0.0
 11
111.1045286685476
 21
286.87335632498571
 31
0.0
  0
LINE
  5
2821
  8
0
 10
208.83255033203571
 20
286.87335632498571
 30
0.0
 11
208.83255033203571
 21
276.87335632498571
 31
0.0
  0
LINE
  5
2822
  8
0
 10
214.83255033203571
 20
276.87335632498571
 30
0.0
 11
214.83255033203571
 21
286.87335632498571
 31
0.0
  0
LINE
  5
2823
  8
0
 10
208.83255033203571
 20
276.87335632498571
 30
0.0
 11
209.83255033203571
 21
275.87335632498571
 31
0.0
  0
LINE
  5
2824
  8
0
 10
213.83255033203571
 20
275.87335632498571
 30
0.0
 11
214.83255033203571
 21
276.87335632498571
 31
0.0
  0
LINE
  5
2825
  8
0
 10
230.87933112839161
 20
276.87335632498571
 30
0.0
 11
230.87933112839161
 21
286.87335632498571
 31
0.0
  0
LINE
  5
2826
  8
0
 10
225.49192989846941
 20
276.2607575549078
 30
0.0
 11
225.87933112839161
 21
275.87335632498571
 31
0.0
  0
LINE
  5
2827
  8
0
 10
229.87933112839161
 20
275.87335632498571
 30
0.0
 11
230.87933112839161
 21
276.87335632498571
 31
0.0
  0
LINE
  5
2828
  8
0
 10
225.09192989846929
 20
262.47335632498567
 30
0.0
 11
225.09192989846929
 21
263.47335632498567
 31
0.0
  0
LINE
  5
2829
  8
0
 10
110.99192989846929
 20
264.47335632498567
 30
0.0
 11
110.99192989846929
 21
259.47335632498567
 31
0.0
  0
LINE
  5
282A
  8
0
 10
237.99192989846941
 20
287.37335632498571
 30
0.0
 11
237.99192989846941
 21
296.87335632498571
 31
0.0
  0
LINE
  5
282B
  8
0
 10
97.99192989846938
 20
296.87335632498571
 30
0.0
 11
97.99192989846938
 21
287.37335632498571
 31
0.0
  0
LINE
  5
282C
  8
0
 10
97.99192989846938
 20
287.37335632498571
 30
0.0
 11
98.491929898469394
 21
286.87335632498571
 31
0.0
  0
LINE
  5
282D
  8
0
 10
237.49192989846941
 20
286.87335632498571
 30
0.0
 11
237.99192989846941
 21
287.37335632498571
 31
0.0
  0
LINE
  5
282E
  8
0
 10
237.74192989846941
 20
315.34887780018857
 30
0.0
 11
237.74192989846941
 21
316.87335632498571
 31
0.0
  0
LINE
  5
282F
  8
0
 10
237.74192989846941
 20
297.12335632498571
 30
0.0
 11
237.74192989846941
 21
300.37441876038889
 31
0.0
  0
LINE
  5
2830
  8
0
 10
98.24192989846938
 20
300.37441876038889
 30
0.0
 11
98.24192989846938
 21
297.12335632498571
 31
0.0
  0
LINE
  5
2831
  8
0
 10
98.24192989846938
 20
316.87335632498571
 30
0.0
 11
98.24192989846938
 21
315.34887780018857
 31
0.0
  0
ARC
  5
2832
  8
0
 10
235.74192989846941
 20
316.87335632498571
 30
0.0
 40
2.000000000000056
 50
0.0
 51
90.0
  0
ARC
  5
2833
  8
0
 10
100.24192989846939
 20
316.87335632498571
 30
0.0
 40
2.0
 50
90.0
 51
180.0
  0
ARC
  5
2834
  8
0
 10
225.99192989846941
 20
286.27335632498568
 30
0.0
 40
0.800000000000011
 50
131.40962210926901
 51
179.9999999999998
  0
LINE
  5
2835
  8
0
 10
110.49192989846939
 20
268.87335632498571
 30
0.0
 11
110.74192989846939
 21
268.4403436230935
 31
0.0
  0
LINE
  5
2836
  8
0
 10
225.24192989846941
 20
268.4403436230935
 30
0.0
 11
225.49192989846941
 21
268.87335632498571
 31
0.0
  0
LINE
  5
2837
  8
0
 10
225.49192989846941
 20
268.87335632498571
 30
0.0
 11
225.49192989846941
 21
284.37335632498571
 31
0.0
  0
LINE
  5
2838
  8
0
 10
110.49192989846939
 20
276.2607575549082
 30
0.0
 11
110.49192989846939
 21
268.87335632498571
 31
0.0
  0
LINE
  5
2839
  8
0
 10
225.49192989846941
 20
284.37335632498571
 30
0.0
 11
225.1919298984694
 21
284.6733563249856
 31
0.0
  0
LINE
  5
283A
  8
0
 10
225.24192989846941
 20
264.47335632498567
 30
0.0
 11
225.24192989846941
 21
268.4403436230935
 31
0.0
  0
LINE
  5
283B
  8
0
 10
110.74192989846939
 20
268.4403436230935
 30
0.0
 11
110.74192989846939
 21
264.47335632498567
 31
0.0
  0
LINE
  5
283C
  8
0
 10
225.1919298984694
 20
284.6733563249856
 30
0.0
 11
225.1919298984694
 21
286.27335632498568
 31
0.0
  0
LINE
  5
283D
  8
0
 10
98.24192989846938
 20
297.12335632498571
 30
0.0
 11
97.99192989846938
 21
296.87335632498571
 31
0.0
  0
LINE
  5
283E
  8
0
 10
237.99192989846941
 20
296.87335632498571
 30
0.0
 11
237.74192989846941
 21
297.12335632498571
 31
0.0
  0
LINE
  5
283F
  8
0
 10
191.47474965085871
 20
259.17335632498578
 30
0.0
 11
190.44192989846761
 21
259.17335632498578
 31
0.0
  0
LINE
  5
2840
  8
0
 10
198.54192989846771
 20
259.17335632498578
 30
0.0
 11
191.47474965085871
 21
259.17335632498578
 31
0.0
  0
LINE
  5
2841
  8
0
 10
126.14258349789471
 20
259.17335632498578
 30
0.0
 11
118.04258349789529
 21
259.17335632498578
 31
0.0
  0
LINE
  5
2843
  8
0
 10
140.79136264425659
 20
262.67335632498572
 30
0.0
 11
136.5146197950551
 21
262.67335632498572
 31
0.0
  0
LINE
  5
2844
  8
0
 10
145.5419298984709
 20
259.17335632498578
 30
0.0
 11
137.44192989847099
 21
259.17335632498578
 31
0.0
  0
LINE
  5
2846
  8
0
 10
217.94127629904389
 20
259.17335632498578
 30
0.0
 11
209.84127629904381
 21
259.17335632498578
 31
0.0
  0
LINE
  5
2847
  8
0
 10
97.491929898469394
 20
300.87335632498571
 30
0.0
 11
97.491929898469394
 21
314.87335632498571
 31
0.0
  0
LINE
  5
2849
  8
0
 10
238.49192989846941
 20
314.87335632498571
 30
0.0
 11
238.49192989846941
 21
300.87335632498571
 31
0.0
  0
LINE
  5
284B
  8
0
 10
94.49192989846938
 20
300.87335632498571
 30
0.0
 11
94.49192989846938
 21
314.87335632498571
 31
0.0
  0
LINE
  5
2850
  8
0
 10
224.8843722788076
 20
263.47335632498562
 30
0.0
 11
225.1919298984694
 21
263.47335632498562
 31
0.0
  0
LINE
  5
2851
  8
0
 10
181.0387106948267
 20
276.87335632498571
 30
0.0
 11
187.0387106948267
 21
276.87335632498571
 31
0.0
  0
LINE
  5
2852
  8
0
 10
182.0387106948267
 20
275.87335632498571
 30
0.0
 11
186.0387106948267
 21
275.87335632498571
 31
0.0
  0
LINE
  5
2853
  8
0
 10
149.9451491021143
 20
275.87335632498571
 30
0.0
 11
153.9451491021143
 21
275.87335632498571
 31
0.0
  0
LINE
  5
2854
  8
0
 10
148.9451491021141
 20
276.87335632498571
 30
0.0
 11
154.9451491021143
 21
276.87335632498571
 31
0.0
  0
LINE
  5
2856
  8
0
 10
106.1045286685473
 20
275.87335632498571
 30
0.0
 11
110.1045286685474
 21
275.87335632498571
 31
0.0
  0
LINE
  5
2858
  8
0
 10
105.1045286685473
 20
276.87335632498571
 30
0.0
 11
111.1045286685476
 21
276.87335632498571
 31
0.0
  0
LINE
  5
2859
  8
0
 10
208.83255033203571
 20
276.87335632498571
 30
0.0
 11
214.83255033203571
 21
276.87335632498571
 31
0.0
  0
LINE
  5
285A
  8
0
 10
209.83255033203571
 20
275.87335632498571
 30
0.0
 11
213.83255033203571
 21
275.87335632498571
 31
0.0
  0
LINE
  5
285B
  8
0
 10
225.49192989846941
 20
276.87335632498571
 30
0.0
 11
230.87933112839161
 21
276.87335632498571
 31
0.0
  0
LINE
  5
285C
  8
0
 10
225.87933112839161
 20
275.87335632498571
 30
0.0
 11
229.87933112839161
 21
275.87335632498571
 31
0.0
  0
LINE
  5
285D
  8
0
 10
225.09192989846929
 20
262.47335632498567
 30
0.0
 11
224.8843722788076
 21
262.47335632498567
 31
0.0
  0
LINE
  5
285E
  8
0
 10
224.88437227880809
 20
264.47335632498579
 30
0.0
 11
224.88437227880789
 21
259.47335632498579
 31
0.0
  0
LINE
  5
285F
  8
0
 10
218.1412762990451
 20
259.47335632498528
 30
0.0
 11
224.88437227880789
 21
259.47335632498579
 31
0.0
  0
LINE
  5
2860
  8
0
 10
219.01223028318509
 20
262.67335632498538
 30
0.0
 11
219.01223028318509
 21
259.47335632498539
 31
0.0
  0
LINE
  5
2862
  8
0
 10
219.0122302831852
 20
262.67335632498498
 30
0.0
 11
215.51223028318529
 21
262.67335632498612
 31
0.0
  0
LINE
  5
2863
  8
0
 10
215.51223028318529
 20
259.47335632498613
 30
0.0
 11
215.51223028318529
 21
262.67335632498612
 31
0.0
  0
LINE
  5
2864
  8
0
 10
142.57679762154629
 20
259.47335632498562
 30
0.0
 11
215.51223028318529
 21
259.47335632498613
 31
0.0
  0
LINE
  5
2865
  8
0
 10
142.57679762154589
 20
262.67335632498572
 30
0.0
 11
142.57679762154629
 21
259.47335632498562
 31
0.0
  0
LINE
  5
2866
  8
0
 10
142.57679762154589
 20
262.67335632498572
 30
0.0
 11
140.79136264425659
 21
262.67335632498572
 31
0.0
  0
LINE
  5
2868
  8
0
 10
136.5146197950551
 20
259.4733563249859
 30
0.0
 11
136.5146197950551
 21
262.67335632498589
 31
0.0
  0
LINE
  5
2869
  8
0
 10
110.99192989846929
 20
259.47335632498567
 30
0.0
 11
137.24192989846989
 21
259.4733563249859
 31
0.0
  0
LINE
  5
286A
  8
0
 10
136.85518691289101
 20
259.47335632498601
 30
0.0
 11
136.85518691289101
 21
262.67335632498589
 31
0.0
  0
LINE
  5
286D
  8
0
 10
218.42235073170721
 20
262.67335632498521
 30
0.0
 11
218.42235073170741
 21
259.47335632498522
 31
0.0
  0
ARC
  5
2870
  8
0
 10
135.28966889031329
 20
298.87275586360568
 30
0.0
 40
10.43431092137307
 50
166.2404879523383
 51
191.55391136569031
  0
LINE
  5
2872
  8
0
 10
237.99192989846941
 20
287.37335632498571
 30
0.0
 11
97.991929898469266
 21
287.37335632498571
 31
0.0
  0
LINE
  5
2873
  8
0
 10
232.80224697954799
 20
296.87335632498571
 30
0.0
 11
125.0897407475788
 21
296.87335632498571
 31
0.0
  0
POLYLINE
  5
2874
  8
0
 66
     1
 10
0.0
 20
0.0
 30
0.0
 70
   128
  0
VERTEX
  5
2FF4
  8
0
 10
232.80224697954799
 20
296.87335632498571
 30
0.0
  0
VERTEX
  5
2FF5
  8
0
 10
232.9762866871277
 20
295.42992423418252
 30
0.0
  0
VERTEX
  5
2FF6
  8
0
 10
233.23273125991449
 20
294.0842343706222
 30
0.0
  0
VERTEX
  5
2FF7
  8
0
 10
233.5588889730229
 20
292.87596488902881
 30
0.0
  0
VERTEX
  5
2FF8
  8
0
 10
233.93709017995499
 20
291.83618165463929
 30
0.0
  0
VERTEX
  5
2FF9
  8
0
 10
234.35121550151069
 20
290.99344290308062
 30
0.0
  0
VERTEX
  5
2FFA
  8
0
 10
234.78067005238751
 20
290.37344143509108
 30
0.0
  0
VERTEX
  5
2FFB
  8
0
 10
235.20592844644651
 20
289.99827683001502
 30
0.0
  0
VERTEX
  5
2FFC
  8
0
 10
235.61281155620759
 20
289.87338695894528
 30
0.0
  0
VERTEX
  5
2FFD
  8
0
 10
235.9849806250366
 20
290.00427290158831
 30
0.0
  0
VERTEX
  5
2FFE
  8
0
 10
236.31712933398441
 20
290.38168951140278
 30
0.0
  0
VERTEX
  5
2FFF
  8
0
 10
236.60263217461471
 20
290.99779783979358
 30
0.0
  0
VERTEX
  5
3000
  8
0
 10
236.8403534108088
 20
291.83193162917132
 30
0.0
  0
VERTEX
  5
3001
  8
0
 10
237.0312531307961
 20
292.87155064472142
 30
0.0
  0
VERTEX
  5
3002
  8
0
 10
237.17672051522641
 20
294.07997533447542
 30
0.0
  0
VERTEX
  5
3003
  8
0
 10
237.2799116853646
 20
295.4276013840614
 30
0.0
  0
VERTEX
  5
3004
  8
0
 10
237.3445027866546
 20
296.87335632498571
 30
0.0
  0
SEQEND
  5
3005
  8
0
  0
LINE
  5
2875
  8
0
 10
237.99192989846941
 20
296.87335632498571
 30
0.0
 11
237.3445027866548
 21
296.87335632498571
 31
0.0
  0
LINE
  5
2876
  8
0
 10
112.6800671015878
 20
296.87335632498571
 30
0.0
 11
97.99192989846938
 21
296.87335632498571
 31
0.0
  0
POLYLINE
  5
2877
  8
0
 66
     1
 10
0.0
 20
0.0
 30
0.0
 70
   128
  0
VERTEX
  5
3006
  8
0
 10
112.6800671015878
 20
296.87335632498571
 30
0.0
  0
VERTEX
  5
3007
  8
0
 10
112.96574200089449
 20
295.42992423418252
 30
0.0
  0
VERTEX
  5
3008
  8
0
 10
113.4004487188881
 20
294.0842343706222
 30
0.0
  0
VERTEX
  5
3009
  8
0
 10
113.9781379519704
 20
292.87596488902881
 30
0.0
  0
VERTEX
  5
300A
  8
0
 10
114.68644842548041
 20
291.83618165463929
 30
0.0
  0
VERTEX
  5
300B
  8
0
 10
115.5167444320968
 20
290.99344290308062
 30
0.0
  0
VERTEX
  5
300C
  8
0
 10
116.4468534581399
 20
290.37344143509108
 30
0.0
  0
VERTEX
  5
300D
  8
0
 10
117.4531465451925
 20
289.99827683001502
 30
0.0
  0
VERTEX
  5
300E
  8
0
 10
118.511062372391
 20
289.87338695894528
 30
0.0
  0
VERTEX
  5
300F
  8
0
 10
119.5840888554842
 20
290.00427290158831
 30
0.0
  0
VERTEX
  5
3010
  8
0
 10
120.64789089765939
 20
290.38168951140278
 30
0.0
  0
VERTEX
  5
3011
  8
0
 10
121.66936656094779
 20
290.99779783979358
 30
0.0
  0
VERTEX
  5
3012
  8
0
 10
122.61687639843581
 20
291.83193162917132
 30
0.0
  0
VERTEX
  5
3013
  8
0
 10
123.46354162842999
 20
292.87155064472142
 30
0.0
  0
VERTEX
  5
3014
  8
0
 10
124.1746464885143
 20
294.07997533447542
 30
0.0
  0
VERTEX
  5
3015
  8
0
 10
124.7230752217588
 20
295.4276013840614
 30
0.0
  0
VERTEX
  5
3016
  8
0
 10
125.0897407475788
 20
296.87335632498571
 30
0.0
  0
SEQEND
  5
3017
  8
0
  0
LINE
  5
2879
  8
0
 10
237.49192989846941
 20
286.87335632498571
 30
0.0
 11
98.491929898469394
 21
286.87335632498571
 31
0.0
  0
LINE
  5
287A
  8
0
 10
232.5385107694467
 20
297.12335632498571
 30
0.0
 11
125.3103771141227
 21
297.12335632498571
 31
0.0
  0
LINE
  5
287B
  8
0
 10
232.5385107694467
 20
297.12335632498571
 30
0.0
 11
232.80224697954799
 21
296.87335632498571
 31
0.0
  0
LINE
  5
287C
  8
0
 10
125.0897407475788
 20
296.87335632498571
 30
0.0
 11
125.3103771141227
 21
297.12335632498571
 31
0.0
  0
LINE
  5
2880
  8
0
 10
98.386589083089362
 20
300.6001919807054
 30
0.0
 11
98.386589083089362
 21
297.45916633967983
 31
0.0
  0
LINE
  5
2881
  8
0
 10
98.386589083089362
 20
297.45916633967983
 30
0.0
 11
98.407562089064641
 21
297.45916633967983
 31
0.0
  0
LINE
  5
2882
  8
0
 10
98.407562089064641
 20
297.45916633967983
 30
0.0
 11
98.407562089064641
 21
300.6001919807054
 31
0.0
  0
LINE
  5
2883
  8
0
 10
98.407562089064641
 20
300.6001919807054
 30
0.0
 11
98.464430345206438
 21
300.6001919807054
 31
0.0
  0
LINE
  5
2884
  8
0
 10
98.464430345206438
 20
300.6001919807054
 30
0.0
 11
98.464430345206438
 21
300.95916633967983
 31
0.0
  0
LINE
  5
2885
  8
0
 10
98.464430345206438
 20
300.95916633967983
 30
0.0
 11
98.341577987634537
 21
300.95916633967983
 31
0.0
  0
LINE
  5
2886
  8
0
 10
98.341577987634537
 20
300.95916633967983
 30
0.0
 11
98.341577987634537
 21
300.6001919807054
 31
0.0
  0
LINE
  5
2887
  8
0
 10
98.341577987634537
 20
300.6001919807054
 30
0.0
 11
98.386589083089362
 21
300.6001919807054
 31
0.0
  0
LINE
  5
2888
  8
0
 10
112.8253861249388
 20
297.12335632498571
 30
0.0
 11
98.24192989846938
 21
297.12335632498571
 31
0.0
  0
LINE
  5
2889
  8
0
 10
237.74192989846941
 20
297.12335632498571
 30
0.0
 11
237.1083346375078
 21
297.12335632498571
 31
0.0
  0
POLYLINE
  5
288A
  8
0
 66
     1
 10
0.0
 20
0.0
 30
0.0
 70
   128
  0
VERTEX
  5
3018
  8
0
 10
237.1083346375078
 20
297.12335632498571
 30
0.0
  0
VERTEX
  5
3019
  8
0
 10
237.1309256886241
 20
298.6194025670398
 30
0.0
  0
VERTEX
  5
301A
  8
0
 10
237.11976046923729
 20
300.1226120306323
 30
0.0
  0
VERTEX
  5
301B
  8
0
 10
237.07422608593379
 20
301.58991759902688
 30
0.0
  0
VERTEX
  5
301C
  8
0
 10
236.99236346007891
 20
302.98099869121899
 30
0.0
  0
VERTEX
  5
301D
  8
0
 10
236.8703223255323
 20
304.259336960996
 30
0.0
  0
VERTEX
  5
301E
  8
0
 10
236.70503358136219
 20
305.38726576641841
 30
0.0
  0
VERTEX
  5
301F
  8
0
 10
236.49100584304099
 20
306.33750052508901
 30
0.0
  0
VERTEX
  5
3020
  8
0
 10
236.2282226785251
 20
307.07719962959112
 30
0.0
  0
VERTEX
  5
3021
  8
0
 10
235.91653242057529
 20
307.58181816272509
 30
0.0
  0
VERTEX
  5
3022
  8
0
 10
235.56069605173141
 20
307.84026878035138
 30
0.0
  0
VERTEX
  5
3023
  8
0
 10
235.17030942193469
 20
307.84214462448108
 30
0.0
  0
VERTEX
  5
3024
  8
0
 10
234.75487969151001
 20
307.59379497322868
 30
0.0
  0
VERTEX
  5
3025
  8
0
 10
234.3293140983408
 20
307.10078209898029
 30
0.0
  0
VERTEX
  5
3026
  8
0
 10
233.90947433699759
 20
306.38026409767781
 30
0.0
  0
VERTEX
  5
3027
  8
0
 10
233.51115490174649
 20
305.44340657133262
 30
0.0
  0
VERTEX
  5
3028
  8
0
 10
233.15523934885709
 20
304.32276719988039
 30
0.0
  0
VERTEX
  5
3029
  8
0
 10
232.8587762659611
 20
303.03952442484137
 30
0.0
  0
VERTEX
  5
302A
  8
0
 10
232.63857593690801
 20
301.63745395375571
 30
0.0
  0
VERTEX
  5
302B
  8
0
 10
232.50863696020701
 20
300.16025702186653
 30
0.0
  0
VERTEX
  5
302C
  8
0
 10
232.47377233992049
 20
298.64626396851952
 30
0.0
  0
VERTEX
  5
302D
  8
0
 10
232.5385107694467
 20
297.12335632498571
 30
0.0
  0
SEQEND
  5
302E
  8
0
  0
POLYLINE
  5
288B
  8
0
 66
     1
 10
0.0
 20
0.0
 30
0.0
 70
   128
  0
VERTEX
  5
302F
  8
0
 10
125.3103771141227
 20
297.12335632498571
 30
0.0
  0
VERTEX
  5
3030
  8
0
 10
125.4438228981726
 20
298.6194025670398
 30
0.0
  0
VERTEX
  5
3031
  8
0
 10
125.37791179172901
 20
300.1226120306323
 30
0.0
  0
VERTEX
  5
3032
  8
0
 10
125.1121632192162
 20
301.58991759902688
 30
0.0
  0
VERTEX
  5
3033
  8
0
 10
124.6598389545868
 20
302.98099869121899
 30
0.0
  0
VERTEX
  5
3034
  8
0
 10
124.03322790679179
 20
304.259336960996
 30
0.0
  0
VERTEX
  5
3035
  8
0
 10
123.2585330789955
 20
305.38726576641841
 30
0.0
  0
VERTEX
  5
3036
  8
0
 10
122.3541830612444
 20
306.33750052508901
 30
0.0
  0
VERTEX
  5
3037
  8
0
 10
121.3576684671886
 20
307.07719962959112
 30
0.0
  0
VERTEX
  5
3038
  8
0
 10
120.30152177585791
 20
307.58181816272509
 30
0.0
  0
VERTEX
  5
3039
  8
0
 10
119.21944302601651
 20
307.84026878035138
 30
0.0
  0
VERTEX
  5
303A
  8
0
 10
118.15244428807
 20
307.84214462448108
 30
0.0
  0
VERTEX
  5
303B
  8
0
 10
117.122508404394
 20
307.59379497322868
 30
0.0
  0
VERTEX
  5
303C
  8
0
 10
116.1606339786881
 20
307.10078209898029
 30
0.0
  0
VERTEX
  5
303D
  8
0
 10
115.2858825153764
 20
306.38026409767781
 30
0.0
  0
VERTEX
  5
303E
  8
0
 10
114.51486320138039
 20
305.44340657133262
 30
0.0
  0
VERTEX
  5
303F
  8
0
 10
113.86719737309269
 20
304.32276719988039
 30
0.0
  0
VERTEX
  5
3040
  8
0
 10
113.35444994979341
 20
303.03952442484137
 30
0.0
  0
VERTEX
  5
3041
  8
0
 10
112.9881033137292
 20
301.63745395375571
 30
0.0
  0
VERTEX
  5
3042
  8
0
 10
112.7770041486103
 20
300.16025702186653
 30
0.0
  0
VERTEX
  5
3043
  8
0
 10
112.72133496062651
 20
298.64626396851952
 30
0.0
  0
VERTEX
  5
3044
  8
0
 10
112.8253861249388
 20
297.12335632498571
 30
0.0
  0
SEQEND
  5
3045
  8
0
  0
ARC
  5
288C
  8
0
 10
307.23623514630623
 20
307.87330823238813
 30
0.0
 40
69.897836675215984
 50
173.86047728283449
 51
186.15874883560861
  0
POLYLINE
  5
288D
  8
0
 66
     1
 10
0.0
 20
0.0
 30
0.0
 70
   128
  0
VERTEX
  5
3046
  8
0
 10
98.646328019186726
 20
307.87335632498571
 30
0.0
  0
VERTEX
  5
3047
  8
0
 10
98.635292411230921
 20
309.1105562022189
 30
0.0
  0
VERTEX
  5
3048
  8
0
 10
98.602196117852614
 20
310.34775607945198
 30
0.0
  0
VERTEX
  5
3049
  8
0
 10
98.552553209608959
 20
311.48092267052698
 30
0.0
  0
VERTEX
  5
304A
  8
0
 10
98.489276679860964
 20
312.5430784180204
 30
0.0
  0
VERTEX
  5
304B
  8
0
 10
98.422532845206206
 20
313.4490631281281
 30
0.0
  0
VERTEX
  5
304C
  8
0
 10
98.356419531903839
 20
314.22093885789388
 30
0.0
  0
VERTEX
  5
304D
  8
0
 10
98.301714037924285
 20
314.79532762580612
 30
0.0
  0
VERTEX
  5
304E
  8
0
 10
98.261772472360235
 20
315.18651943474782
 30
0.0
  0
VERTEX
  5
304F
  8
0
 10
98.243268715038312
 20
315.3608950982466
 30
0.0
  0
VERTEX
  5
3050
  8
0
 10
98.244555744833875
 20
315.34887780018857
 30
0.0
  0
SEQEND
  5
3051
  8
0
  0
POLYLINE
  5
288E
  8
0
 66
     1
 10
0.0
 20
0.0
 30
0.0
 70
   128
  0
VERTEX
  5
3052
  8
0
 10
98.242043337041665
 20
300.37441876038889
 30
0.0
  0
VERTEX
  5
3053
  8
0
 10
98.241931019391586
 20
300.37336674956902
 30
0.0
  0
VERTEX
  5
3054
  8
0
 10
98.253095093576803
 20
300.47791313717761
 30
0.0
  0
VERTEX
  5
3055
  8
0
 10
98.286141933353974
 20
300.79632475534902
 30
0.0
  0
VERTEX
  5
3056
  8
0
 10
98.335631350947324
 20
301.30164213905613
 30
0.0
  0
VERTEX
  5
3057
  8
0
 10
98.398730477240406
 20
302.00812779721622
 30
0.0
  0
VERTEX
  5
3058
  8
0
 10
98.465457172974766
 20
302.86157923008562
 30
0.0
  0
VERTEX
  5
3059
  8
0
 10
98.531644131893245
 20
303.88351938916418
 30
0.0
  0
VERTEX
  5
305A
  8
0
 10
98.586470741642415
 20
304.99147139147323
 30
0.0
  0
VERTEX
  5
305B
  8
0
 10
98.626511705221674
 20
306.21542353860178
 30
0.0
  0
VERTEX
  5
305C
  8
0
 10
98.646328019186726
 20
307.87335632498571
 30
0.0
  0
SEQEND
  5
305D
  8
0
  0
LINE
  5
2892
  8
0
 10
235.74192989846941
 20
318.87335632498571
 30
0.0
 11
100.24192989846939
 21
318.87335632498571
 31
0.0
  0
LINE
  5
2894
  8
0
 10
225.24192989846941
 20
268.4403436230935
 30
0.0
 11
110.74192989846939
 21
268.4403436230935
 31
0.0
  0
LINE
  5
2896
  8
0
 10
225.49192989846941
 20
268.87335632498571
 30
0.0
 11
110.49192989846939
 21
268.87335632498571
 31
0.0
  0
LINE
  5
2897
  8
0
 10
148.9451491021141
 20
284.37335632498571
 30
0.0
 11
111.1045286685476
 21
284.37335632498571
 31
0.0
  0
LINE
  5
2898
  8
0
 10
225.49192989846941
 20
284.37335632498571
 30
0.0
 11
214.83255033203571
 21
284.37335632498571
 31
0.0
  0
LINE
  5
2899
  8
0
 10
208.83255033203571
 20
284.37335632498571
 30
0.0
 11
187.0387106948267
 21
284.37335632498571
 31
0.0
  0
LINE
  5
289A
  8
0
 10
181.0387106948267
 20
284.37335632498571
 30
0.0
 11
154.9451491021143
 21
284.37335632498571
 31
0.0
  0
LINE
  5
289B
  8
0
 10
148.9451491021141
 20
284.6733563249856
 30
0.0
 11
111.1045286685473
 21
284.6733563249856
 31
0.0
  0
LINE
  5
289C
  8
0
 10
225.1919298984694
 20
284.6733563249856
 30
0.0
 11
214.83255033203571
 21
284.6733563249856
 31
0.0
  0
LINE
  5
289D
  8
0
 10
208.83255033203571
 20
284.6733563249856
 30
0.0
 11
187.0387106948267
 21
284.6733563249856
 31
0.0
  0
LINE
  5
289E
  8
0
 10
181.0387106948267
 20
284.6733563249856
 30
0.0
 11
154.9451491021143
 21
284.6733563249856
 31
0.0
  0
LINE
  5
28A0
  8
0
 10
225.24192989846941
 20
264.47335632498567
 30
0.0
 11
110.74192989846939
 21
264.47335632498567
 31
0.0
  0
ARC
  5
28A1
  8
0
 10
131.4514797234408
 20
298.86955330962212
 30
0.0
 40
11.26039470720646
 50
140.93239008760511
 51
218.5709231369278
  0
LINE
  5
28A2
  8
0
 10
112.8253861249388
 20
297.12335632498571
 30
0.0
 11
112.6800671015878
 21
296.87335632498571
 31
0.0
  0
ARC
  5
28A4
  8
0
 10
133.0673157751973
 20
298.8685936467989
 30
0.0
 40
9.9221886398543546
 50
151.49015511395621
 51
207.26576327405169
  0
LINE
  5
28A6
  8
0
 10
237.3445027866548
 20
296.87335632498571
 30
0.0
 11
237.1083346375078
 21
297.12335632498571
 31
0.0
  0
LINE
  5
28A7
  8
0
 10
98.386589083089362
 20
300.6001919807054
 30
0.0
 11
98.407562089064641
 21
300.6001919807054
 31
0.0
  0
LINE
  5
28A8
  8
0
 10
191.32575309542199
 20
259.37335632498571
 30
0.0
 11
190.24192989846841
 21
259.37335632498571
 31
0.0
  0
LINE
  5
28A9
  8
0
 10
198.7419298984685
 20
259.37335632498571
 30
0.0
 11
191.32575309542199
 21
259.37335632498571
 31
0.0
  0
LINE
  5
28AA
  8
0
 10
126.34258349789479
 20
259.37335632498571
 30
0.0
 11
117.8425834978939
 21
259.37335632498571
 31
0.0
  0
LINE
  5
28AC
  8
0
 10
145.74192989847
 20
259.37335632498571
 30
0.0
 11
137.24192989847
 21
259.37335632498571
 31
0.0
  0
LINE
  5
28AD
  8
0
 10
218.1412762990451
 20
259.37335632498571
 30
0.0
 11
209.6412762990451
 21
259.37335632498571
 31
0.0
  0
LINE
  5
28AE
  8
0
 10
237.74192989846941
 20
316.87335632498571
 30
0.0
 11
98.24192989846938
 21
316.87335632498571
 31
0.0
  0
LINE
  5
28B0
  8
0
 10
148.9451491021141
 20
286.27335632498568
 30
0.0
 11
111.1045286685473
 21
286.27335632498568
 31
0.0
  0
LINE
  5
28B1
  8
0
 10
225.1919298984694
 20
286.27335632498568
 30
0.0
 11
214.83255033203571
 21
286.27335632498568
 31
0.0
  0
LINE
  5
28B2
  8
0
 10
208.83255033203571
 20
286.27335632498568
 30
0.0
 11
187.0387106948267
 21
286.27335632498568
 31
0.0
  0
LINE
  5
28B3
  8
0
 10
181.0387106948267
 20
286.27335632498568
 30
0.0
 11
154.9451491021143
 21
286.27335632498568
 31
0.0
  0
LINE
  5
28B6
  8
0
 10
241.4919266475593
 20
445.87335721757489
 30
0.0
 11
237.3897888505866
 21
445.87335521379202
 31
0.0
  0
LINE
  5
28B7
  8
0
 10
237.38978565028839
 20
431.87335647622149
 30
0.0
 11
241.4919306439692
 21
431.87335674779831
 31
0.0
  0
LINE
  5
28BC
  8
0
 10
152.31949099165041
 20
433.80751883320971
 30
0.0
 11
150.71103304228751
 21
432.1990612469163
 31
0.0
  0
LINE
  5
28BD
  8
0
 10
161.3176342616774
 20
421.59245838995389
 30
0.0
 11
162.92609263690389
 21
423.2009177904896
 31
0.0
  0
LINE
  5
28BE
  8
0
 10
180.2152933461447
 20
427.83354478086522
 30
0.0
 11
182.41248704783931
 21
427.24480850288143
 31
0.0
  0
LINE
  5
28BF
  8
0
 10
186.29477263760131
 20
441.73369557336559
 30
0.0
 11
184.0975789359066
 21
442.32243185134939
 31
0.0
  0
LINE
  5
28C0
  8
0
 10
171.4410054057638
 20
454.97900486589242
 30
0.0
 11
170.85226929215571
 21
457.1762007553254
 31
0.0
  0
LINE
  5
28C1
  8
0
 10
156.36338175987211
 20
453.29391384303801
 30
0.0
 11
156.95211841179241
 21
451.0967197377168
 31
0.0
  0
ARC
  5
28D1
  8
0
 10
152.00613303394181
 20
432.60598722642749
 30
0.0
 40
1.232381130179983
 50
48.930816305963262
 51
74.633934097141534
  0
ARC
  5
28D2
  8
0
 10
159.71687137027769
 20
430.59829779679359
 30
0.0
 40
7.5000000000001243
 50
156.94754585848409
 51
193.68763002351091
  0
ARC
  5
28D3
  8
0
 10
159.71687137027769
 20
430.59829779679359
 30
0.0
 40
7.5000000000001172
 50
256.31236997649302
 51
293.05245414151341
  0
POLYLINE
  5
28D4
  8
0
 66
     1
 10
0.0
 20
0.0
 30
0.0
 70
   128
  0
VERTEX
  5
305E
  8
0
 10
162.6536739299878
 20
423.69719703126827
 30
0.0
  0
VERTEX
  5
305F
  8
0
 10
162.6793019285779
 20
423.66665179362428
 30
0.0
  0
VERTEX
  5
3060
  8
0
 10
162.86149275101761
 20
423.36262614385629
 30
0.0
  0
VERTEX
  5
3061
  8
0
 10
162.91685375822141
 20
423.2004930989296
 30
0.0
  0
VERTEX
  5
3062
  8
0
 10
162.9128878207913
 20
423.21412283965901
 30
0.0
  0
SEQEND
  5
3063
  8
0
  0
ARC
  5
28D5
  8
0
 10
151.99716468959861
 20
432.59043954986038
 30
0.0
 40
1.250000000000701
 50
25.176328528302591
 51
49.089083160046648
  0
ARC
  5
28D6
  8
0
 10
170.3234730880757
 20
441.2048995145928
 30
0.0
 40
19.000000000000892
 50
205.17632852832989
 51
244.82367147166951
  0
ARC
  5
28D7
  8
0
 10
161.7090131233432
 20
422.87859111611641
 30
0.0
 40
1.25000000000081
 50
40.910916839927459
 51
64.82367147171226
  0
ARC
  5
28D8
  8
0
 10
181.41253175287571
 20
428.16293591911659
 30
0.0
 40
1.2323841395132
 50
168.9308972905911
 51
194.63395760294429
  0
ARC
  5
28D9
  8
0
 10
179.29587006578259
 20
435.84447468586478
 30
0.0
 40
7.5000000000000897
 50
276.94754585848648
 51
313.68763002351062
  0
ARC
  5
28DA
  8
0
 10
179.29587006578259
 20
435.84447468586478
 30
0.0
 40
7.5000000000001226
 50
16.312369976493009
 51
53.05245414151166
  0
POLYLINE
  5
28DB
  8
0
 66
     1
 10
0.0
 20
0.0
 30
0.0
 70
   128
  0
VERTEX
  5
3064
  8
0
 10
183.8039970874209
 20
441.83837092958578
 30
0.0
  0
VERTEX
  5
3065
  8
0
 10
183.81763655788981
 20
441.87583787211781
 30
0.0
  0
VERTEX
  5
3066
  8
0
 10
183.98983398554981
 20
442.18563246922179
 30
0.0
  0
VERTEX
  5
3067
  8
0
 10
184.1025651302437
 20
442.31464305620301
 30
0.0
  0
VERTEX
  5
3068
  8
0
 10
184.09274564175081
 20
442.30439375199171
 30
0.0
  0
SEQEND
  5
3069
  8
0
  0
ARC
  5
28DC
  8
0
 10
181.43047804002649
 20
428.16294171409879
 30
0.0
 40
1.2500000000006779
 50
145.17632852829999
 51
169.08908316004579
  0
ARC
  5
28DD
  8
0
 10
164.80698267144601
 20
439.72676036240199
 30
0.0
 40
19.000000000000949
 50
325.17632852833111
 51
4.8236714716678639
  0
ARC
  5
28DE
  8
0
 10
184.9852612844808
 20
441.42957339229753
 30
0.0
 40
1.250000000000828
 50
160.91091683992241
 51
184.8236714717072
  0
ARC
  5
28DF
  8
0
 10
170.55712060414189
 20
455.85115909338651
 30
0.0
 40
1.232395130777963
 50
288.93093265879691
 51
314.63373881251999
  0
ARC
  5
28E0
  8
0
 10
164.9630482593478
 20
450.17729649229881
 30
0.0
 40
7.5000000000001448
 50
36.947545858483792
 51
73.687630023506102
  0
ARC
  5
28E1
  8
0
 10
164.9630482593478
 20
450.17729649229881
 30
0.0
 40
7.5000000000001199
 50
136.3123699764958
 51
173.05245414151381
  0
POLYLINE
  5
28E2
  8
0
 66
     1
 10
0.0
 20
0.0
 30
0.0
 70
   128
  0
VERTEX
  5
306A
  8
0
 10
157.51811823627861
 20
451.08450161454988
 30
0.0
  0
VERTEX
  5
306B
  8
0
 10
157.4788514338376
 20
451.07757924895418
 30
0.0
  0
VERTEX
  5
306C
  8
0
 10
157.1244624447487
 20
451.07181001754162
 30
0.0
  0
VERTEX
  5
306D
  8
0
 10
156.95636996357879
 20
451.10493304580348
 30
0.0
  0
VERTEX
  5
306E
  8
0
 10
156.97015647391009
 20
451.10155328289522
 30
0.0
  0
SEQEND
  5
306F
  8
0
  0
ARC
  5
28E3
  8
0
 10
170.54814696578279
 20
455.86668771099789
 30
0.0
 40
1.250000000000757
 50
265.17632852830468
 51
289.08908316004721
  0
ARC
  5
28E4
  8
0
 10
168.84533393588649
 20
435.68840909796262
 30
0.0
 40
19.00000000000076
 50
85.176328528330856
 51
124.82367147166759
  0
ARC
  5
28E5
  8
0
 10
157.28151528758431
 20
452.31190446654313
 30
0.0
 40
1.2500000000007621
 50
280.9109168399242
 51
304.82367147170828
  0
CIRCLE
  5
28FA
  8
0
 10
167.99192989846949
 20
438.87335632498559
 30
0.0
 40
35.499999999999972
  0
CIRCLE
  5
28FB
  8
0
 10
167.99192989846949
 20
438.87335632498559
 30
0.0
 40
35.000000000000007
  0
CIRCLE
  5
28FC
  8
0
 10
167.99192989846949
 20
438.87335632498559
 30
0.0
 40
25.0
  0
CIRCLE
  5
28FD
  8
0
 10
167.99192989846949
 20
438.87335632498559
 30
0.0
 40
24.499999999999979
  0
CIRCLE
  5
2999
  8
0
 10
167.99192989846949
 20
438.87335632498559
 30
0.0
 40
21.668303058281261
  0
CIRCLE
  5
299E
  8
0
 10
167.99192989846949
 20
438.87335632498559
 30
0.0
 40
19.68776692079809
  0
CIRCLE
  5
29B5
  8
0
 10
167.99192989846949
 20
438.87335632498571
 30
0.0
 40
18.525000000000031
  0
LINE
  5
29B8
  8
0
 10
158.61189359065941
 20
507.98976061619658
 30
0.0
 11
158.49347517819649
 21
508.22592691630831
 31
0.0
  0
LINE
  5
29B9
  8
0
 10
141.54154523289469
 20
503.68367342673292
 30
0.0
 11
141.5570781746859
 21
503.4199359038646
 31
0.0
  0
ARC
  5
29BA
  8
0
 10
167.9919290817478
 20
438.87331951523782
 30
0.0
 40
70.000034142026763
 50
97.798644447597994
 51
112.2013401039907
  0
POLYLINE
  5
29BB
  8
0
 66
     1
 10
0.0
 20
0.0
 30
0.0
 70
   128
  0
VERTEX
  5
3070
  8
0
 10
141.5570781746859
 20
503.4199359038646
 30
0.0
  0
VERTEX
  5
3071
  8
0
 10
141.40104111161719
 20
503.3559333694235
 30
0.0
  0
VERTEX
  5
3072
  8
0
 10
141.41401027110109
 20
503.36125543614691
 30
0.0
  0
SEQEND
  5
3073
  8
0
  0
POLYLINE
  5
29BC
  8
0
 66
     1
 10
0.0
 20
0.0
 30
0.0
 70
   128
  0
VERTEX
  5
3074
  8
0
 10
158.7671622844633
 20
508.0106659585565
 30
0.0
  0
VERTEX
  5
3075
  8
0
 10
158.7806820229215
 20
508.01245816840748
 30
0.0
  0
VERTEX
  5
3076
  8
0
 10
158.61189359065941
 20
507.98976061619658
 30
0.0
  0
SEQEND
  5
3077
  8
0
  0
LINE
  5
29BD
  8
0
 10
112.8253869709593
 20
396.19180454417392
 30
0.0
 11
112.68006628733851
 21
395.97116762033443
 31
0.0
  0
LINE
  5
29BE
  8
0
 10
125.0897415183564
 20
383.56149573528279
 30
0.0
 11
125.31037802188079
 21
383.70681254446589
 31
0.0
  0
ARC
  5
29BF
  8
0
 10
167.9919649843342
 20
438.87340599982087
 30
0.0
 40
70.000058538811373
 50
217.79866241916349
 51
232.2013530292524
  0
POLYLINE
  5
29C0
  8
0
 66
     1
 10
0.0
 20
0.0
 30
0.0
 70
   128
  0
VERTEX
  5
3078
  8
0
 10
125.31037802188079
 20
383.70681254446589
 30
0.0
  0
VERTEX
  5
3079
  8
0
 10
125.4438227235481
 20
383.60367952010478
 30
0.0
  0
VERTEX
  5
307A
  8
0
 10
125.4327310209211
 20
383.61225146752611
 30
0.0
  0
SEQEND
  5
307B
  8
0
  0
POLYLINE
  5
29C1
  8
0
 66
     1
 10
0.0
 20
0.0
 30
0.0
 70
   128
  0
VERTEX
  5
307C
  8
0
 10
112.72964835621821
 20
396.31581901542881
 30
0.0
  0
VERTEX
  5
307D
  8
0
 10
112.7213341967705
 20
396.32663181153498
 30
0.0
  0
VERTEX
  5
307E
  8
0
 10
112.8253869709593
 20
396.19180454417392
 30
0.0
  0
SEQEND
  5
307F
  8
0
  0
LINE
  5
29C2
  8
0
 10
232.53850757565661
 20
412.43850519626341
 30
0.0
 11
232.80224774778509
 21
412.42297263913758
 31
0.0
  0
LINE
  5
29C3
  8
0
 10
237.3445034262451
 20
429.37490161211872
 30
0.0
 11
237.1083314586202
 21
429.49332010912639
 31
0.0
  0
ARC
  5
29C4
  8
0
 10
167.9916272912038
 20
438.87343740835843
 30
0.0
 40
70.000311502698523
 50
337.79868101048038
 51
352.20131898952269
  0
POLYLINE
  5
29C5
  8
0
 66
     1
 10
0.0
 20
0.0
 30
0.0
 70
   128
  0
VERTEX
  5
3080
  8
0
 10
237.1083314586202
 20
429.49332010912639
 30
0.0
  0
VERTEX
  5
3081
  8
0
 10
237.13092309688969
 20
429.66045296916298
 30
0.0
  0
VERTEX
  5
3082
  8
0
 10
237.12904432294371
 20
429.64656123628328
 30
0.0
  0
SEQEND
  5
3083
  8
0
  0
POLYLINE
  5
29C6
  8
0
 66
     1
 10
0.0
 20
0.0
 30
0.0
 70
   128
  0
VERTEX
  5
3084
  8
0
 10
232.47898133599151
 20
412.2935853180611
 30
0.0
  0
VERTEX
  5
3085
  8
0
 10
232.4737752748932
 20
412.28097851292671
 30
0.0
  0
VERTEX
  5
3086
  8
0
 10
232.53850757565661
 20
412.43850519626341
 30
0.0
  0
SEQEND
  5
3087
  8
0
  0
ARC
  5
29C7
  8
0
 10
167.99192989846949
 20
438.87335632498582
 30
0.0
 40
70.000000000000014
 50
5.7391704772667698
 51
97.798648589474084
  0
LINE
  5
29C8
  8
0
 10
237.6410500423257
 20
431.87335687244757
 30
0.0
 11
237.3445034262451
 21
429.37490161211872
 31
0.0
  0
ARC
  5
29C9
  8
0
 10
167.99192989846949
 20
438.87335632498582
 30
0.0
 40
70.000000000000043
 50
185.73917047726809
 51
217.7986485894738
  0
ARC
  5
29CA
  8
0
 10
167.99192989846949
 20
438.87335632498582
 30
0.0
 40
70.000000000000028
 50
112.20135141052781
 51
174.26082952273359
  0
ARC
  5
29CB
  8
0
 10
167.99192989846949
 20
438.87335632498582
 30
0.0
 40
70.000000000000071
 50
232.20135141053109
 51
337.79864858947337
  0
CIRCLE
  5
29CD
  8
0
 10
167.99192989846949
 20
438.87335632498582
 30
0.0
 40
13.524999999999959
  0
CIRCLE
  5
29CE
  8
0
 10
167.99192989846949
 20
438.87335632498582
 30
0.0
 40
2.0999999999999841
  0
LINE
  5
29CF
  8
0
 10
94.491929152969306
 20
132.1733548602646
 30
0.0
 11
98.342809754612972
 21
132.1733558412873
 31
0.0
  0
LINE
  5
29D0
  8
0
 10
98.342806554314834
 20
146.1733545788577
 30
0.0
 11
94.491929152969306
 21
146.17335642577581
 31
0.0
  0
CIRCLE
  5
29D7
  8
0
 10
104.4919298984684
 20
139.17335529382541
 30
0.0
 40
4.0000000000000959
  0
CIRCLE
  5
29D9
  8
0
 10
231.49192989847009
 20
139.17335529382521
 30
0.0
 40
4.0000000000001057
  0
LINE
  5
29DD
  8
0
 10
196.68632944293489
 20
93.993692136487354
 30
0.0
 11
194.96586527670661
 21
95.534255269328455
 31
0.0
  0
LINE
  5
29DE
  8
0
 10
194.96586527670661
 20
95.534255269328455
 30
0.0
 11
192.7714662765793
 21
94.814572947261183
 31
0.0
  0
LINE
  5
29DF
  8
0
 10
192.29753060767911
 20
92.554323411910673
 30
0.0
 11
192.7714662765793
 21
94.814572947261183
 31
0.0
  0
LINE
  5
29E0
  8
0
 10
194.0179947739077
 20
91.013760279069558
 30
0.0
 11
192.29753060767911
 21
92.554323411910673
 31
0.0
  0
LINE
  5
29E1
  8
0
 10
194.0179947739077
 20
91.013760279069558
 30
0.0
 11
196.2123937094475
 21
91.733446440534948
 31
0.0
  0
LINE
  5
29E2
  8
0
 10
196.68632944293489
 20
93.993692136487354
 30
0.0
 11
196.2123937094475
 21
91.733446440534948
 31
0.0
  0
CIRCLE
  5
29E4
  8
0
 10
194.49192989846819
 20
93.274008893250624
 30
0.0
 40
4.2500000000001492
  0
LINE
  5
29E5
  8
0
 10
122.812266741131
 20
110.4789557493599
 30
0.0
 11
124.352829873972
 21
112.19941991558829
 31
0.0
  0
LINE
  5
29E6
  8
0
 10
124.352829873972
 20
112.19941991558829
 30
0.0
 11
123.6331475519048
 21
114.3938189157157
 31
0.0
  0
LINE
  5
29E7
  8
0
 10
121.3728980165542
 20
114.8677545846156
 30
0.0
 11
123.6331475519048
 21
114.3938189157157
 31
0.0
  0
LINE
  5
29E8
  8
0
 10
119.8323348837132
 20
113.1472904183872
 30
0.0
 11
121.3728980165542
 21
114.8677545846156
 31
0.0
  0
LINE
  5
29E9
  8
0
 10
119.8323348837132
 20
113.1472904183872
 30
0.0
 11
120.55202104517861
 21
110.95289148284741
 31
0.0
  0
LINE
  5
29EA
  8
0
 10
122.812266741131
 20
110.4789557493599
 30
0.0
 11
120.55202104517861
 21
110.95289148284741
 31
0.0
  0
CIRCLE
  5
29EC
  8
0
 10
122.09258349789449
 20
112.67335529382621
 30
0.0
 40
4.2500000000001821
  0
LINE
  5
29ED
  8
0
 10
139.29753035400361
 20
184.3530184511639
 30
0.0
 11
141.01799452023189
 21
182.8124553183228
 31
0.0
  0
LINE
  5
29EE
  8
0
 10
141.01799452023189
 20
182.8124553183228
 30
0.0
 11
143.2123935203594
 21
183.53213764039009
 31
0.0
  0
LINE
  5
29EF
  8
0
 10
143.68632918925931
 20
185.7923871757406
 30
0.0
 11
143.2123935203594
 21
183.53213764039009
 31
0.0
  0
LINE
  5
29F0
  8
0
 10
141.9658650230308
 20
187.3329503085817
 30
0.0
 11
143.68632918925931
 21
185.7923871757406
 31
0.0
  0
LINE
  5
29F1
  8
0
 10
141.9658650230308
 20
187.3329503085817
 30
0.0
 11
139.77146608749101
 21
186.6132641471163
 31
0.0
  0
LINE
  5
29F2
  8
0
 10
139.29753035400361
 20
184.3530184511639
 30
0.0
 11
139.77146608749101
 21
186.6132641471163
 31
0.0
  0
CIRCLE
  5
29F4
  8
0
 10
141.49192989847
 20
185.07270169440039
 30
0.0
 40
4.2500000000001767
  0
LINE
  5
29F5
  8
0
 10
213.17159305580751
 20
167.86775483829129
 30
0.0
 11
211.63102992296649
 21
166.14729067206289
 31
0.0
  0
LINE
  5
29F6
  8
0
 10
211.63102992296649
 20
166.14729067206289
 30
0.0
 11
212.35071224503369
 21
163.9528916719355
 31
0.0
  0
LINE
  5
29F7
  8
0
 10
214.61096178038429
 20
163.47895600303559
 30
0.0
 11
212.35071224503369
 21
163.9528916719355
 31
0.0
  0
LINE
  5
29F8
  8
0
 10
216.15152491322539
 20
165.19942016926399
 30
0.0
 11
214.61096178038429
 21
163.47895600303559
 31
0.0
  0
LINE
  5
29F9
  8
0
 10
216.15152491322539
 20
165.19942016926399
 30
0.0
 11
215.4318387517599
 21
167.39381910480381
 31
0.0
  0
LINE
  5
29FA
  8
0
 10
213.17159305580751
 20
167.86775483829129
 30
0.0
 11
215.4318387517599
 21
167.39381910480381
 31
0.0
  0
CIRCLE
  5
29FC
  8
0
 10
213.89127629904419
 20
165.6733552938247
 30
0.0
 40
4.2500000000001839
  0
CIRCLE
  5
2A0D
  8
0
 10
220.99192989846961
 20
139.17335529382351
 30
0.0
 40
4.200000000000105
  0
LINE
  5
2A21
  8
0
 10
219.59773603696931
 20
138.79978234755461
 30
0.0
 11
220.61835812246659
 21
137.77916225559761
 31
0.0
  0
LINE
  5
2A22
  8
0
 10
220.61835812246659
 20
137.77916225559761
 30
0.0
 11
222.01255121733541
 21
138.15273516946081
 31
0.0
  0
LINE
  5
2A23
  8
0
 10
222.01255121733541
 20
138.15273516946081
 30
0.0
 11
222.3861222267069
 21
139.5469281752809
 31
0.0
  0
LINE
  5
2A24
  8
0
 10
222.3861222267069
 20
139.5469281752809
 30
0.0
 11
221.36550373956379
 21
140.56754923141389
 31
0.0
  0
LINE
  5
2A25
  8
0
 10
221.36550373956379
 20
140.56754923141389
 30
0.0
 11
219.9713106446948
 21
140.19397631755069
 31
0.0
  0
LINE
  5
2A26
  8
0
 10
219.9713106446948
 20
140.19397631755069
 30
0.0
 11
219.59773603696931
 21
138.79978234755461
 31
0.0
  0
LINE
  5
2B2B
  8
0
 10
117.5615089928437
 20
114.0987899995915
 30
0.0
 11
116.9716308959687
 21
113.7582237501385
 31
0.0
  0
ARC
  5
2B2C
  8
0
 10
167.99192989846941
 20
139.17335529382561
 30
0.0
 40
57.000000000001279
 50
123.5203764669869
 51
206.4796235330152
  0
LINE
  5
2B2D
  8
0
 10
136.5146189254817
 20
186.69365563613729
 30
0.0
 11
136.8551869741118
 21
186.10377802135031
 31
0.0
  0
ARC
  5
2B2E
  8
0
 10
141.49192989846961
 20
185.0727016944017
 30
0.0
 40
4.750000000000723
 50
167.46310163701881
 51
72.536898362996311
  0
LINE
  5
2B2F
  8
0
 10
142.91736460423519
 20
189.60377619945109
 30
0.0
 11
142.57679835478211
 21
190.19365429632609
 31
0.0
  0
ARC
  5
2B30
  8
0
 10
167.99192989846941
 20
139.17335529382561
 30
0.0
 40
57.000000000001371
 50
33.520376466985581
 51
116.4796235330118
  0
LINE
  5
2B31
  8
0
 10
215.51223024078101
 20
170.6506662668132
 30
0.0
 11
214.92235262599411
 21
170.3100982181831
 31
0.0
  0
ARC
  5
2B32
  8
0
 10
213.89127629904581
 20
165.6733552938249
 30
0.0
 40
4.750000000000524
 50
77.463101637020685
 51
342.53689836298719
  0
LINE
  5
2B33
  8
0
 10
218.4223508040948
 20
164.24792058805971
 30
0.0
 11
219.0122289009698
 21
164.5884868375127
 31
0.0
  0
ARC
  5
2B34
  8
0
 10
167.99192989846941
 20
139.17335529382561
 30
0.0
 40
57.000000000000959
 50
3.520376466985125
 51
26.479623533013431
  0
LINE
  5
2B35
  8
0
 10
224.88437071515611
 20
142.67335523771879
 30
0.0
 11
223.40284096617461
 21
142.67335496936349
 31
0.0
  0
ARC
  5
2B36
  8
0
 10
220.99192989847049
 20
139.1733552938249
 30
0.0
 40
4.2500000000001501
 50
55.439678220002193
 51
304.56032177999839
  0
LINE
  5
2B37
  8
0
 10
223.4028424458017
 20
135.67335605037249
 30
0.0
 11
224.88437267687141
 21
135.6733545195508
 31
0.0
  0
ARC
  5
2B38
  8
0
 10
167.99192989846941
 20
139.17335529382561
 30
0.0
 40
57.000000000001712
 50
303.52037646698699
 51
356.47962353301409
  0
LINE
  5
2B39
  8
0
 10
199.4692408714568
 20
91.653054951513951
 30
0.0
 11
199.1286728228267
 21
92.242932566300894
 31
0.0
  0
ARC
  5
2B3A
  8
0
 10
194.4919298984687
 20
93.27400889324845
 30
0.0
 40
4.7500000000006892
 50
347.463101637021
 51
252.53689836300271
  0
LINE
  5
2B3B
  8
0
 10
193.06649519270329
 20
88.742934388200112
 30
0.0
 11
193.40706144215639
 21
88.153056291325129
 31
0.0
  0
ARC
  5
2B3C
  8
0
 10
167.99192989846941
 20
139.17335529382561
 30
0.0
 40
57.000000000002288
 50
213.5203764669873
 51
296.47962353301187
  0
LINE
  5
2B3D
  8
0
 10
120.4716295561575
 20
107.6960443208381
 30
0.0
 11
121.0615071709444
 21
108.0366123694681
 31
0.0
  0
ARC
  5
2B3E
  8
0
 10
122.092583497893
 20
112.6733552938246
 30
0.0
 40
4.7500000000005711
 50
257.46310163702083
 51
162.5368983629765
  0
ARC
  5
2CAF
  8
0
 10
167.99192989846961
 20
139.17335529382561
 30
0.0
 40
57.000000000001407
 50
206.4796235330152
 51
208.502880030092
  0
ARC
  5
2CB0
  8
0
 10
167.99192989846961
 20
139.17335529382561
 30
0.0
 40
57.000000000001492
 50
211.49711996990791
 51
213.5203764669871
  0
ARC
  5
2CB1
  8
0
 10
167.99192989846961
 20
139.17335529382561
 30
0.0
 40
57.000000000000703
 50
26.479623533013431
 51
28.502880030092019
  0
ARC
  5
2CB2
  8
0
 10
167.99192989846961
 20
139.17335529382561
 30
0.0
 40
57.000000000000568
 50
31.497119969906471
 51
33.520376466985581
  0
ARC
  5
2CB3
  8
0
 10
167.99192989846961
 20
139.17335529382561
 30
0.0
 40
57.000000000002231
 50
296.47962353301182
 51
298.50288003009229
  0
ARC
  5
2CB4
  8
0
 10
167.99192989846961
 20
139.17335529382561
 30
0.0
 40
57.000000000001577
 50
301.49711996990652
 51
303.52037646698682
  0
ARC
  5
2CB5
  8
0
 10
167.99192989846961
 20
139.17335529382561
 30
0.0
 40
57.000000000001592
 50
116.4796235330118
 51
118.5028800300919
  0
ARC
  5
2CB6
  8
0
 10
167.99192989846961
 20
139.17335529382561
 30
0.0
 40
57.000000000000831
 50
121.4971199699069
 51
123.5203764669869
  0
CIRCLE
  5
2CB7
  8
0
 10
167.99192989846941
 20
139.17335529382561
 30
0.0
 40
57.249999999999979
  0
LINE
  5
2CB8
  8
0
 10
216.97247213640301
 20
137.79260832910569
 30
0.0
 11
216.9764592650267
 21
137.94210097823751
 31
0.0
  0
LINE
  5
2CB9
  8
0
 10
216.97645652909321
 20
140.4046088403185
 30
0.0
 11
216.97247170622501
 21
140.5541020256743
 31
0.0
  0
CIRCLE
  5
2CBA
  8
0
 10
167.99192989846941
 20
139.17335529382561
 30
0.0
 40
57.500000000000007
  0
CIRCLE
  5
2CBB
  8
0
 10
167.99192989846941
 20
139.17335529382549
 30
0.0
 40
58.0
  0
CIRCLE
  5
2CBD
  8
0
 10
167.99192989846941
 20
139.17335529382549
 30
0.0
 40
70.0
  0
CIRCLE
  5
2CBE
  8
0
 10
231.4919298984691
 20
139.17335529382461
 30
0.0
 40
4.2499999999999973
  0
CIRCLE
  5
2CBF
  8
0
 10
104.49192989846939
 20
139.17335529382601
 30
0.0
 40
4.2500000000000107
  0
LINE
  5
2D02
  8
0
 10
241.4919266475593
 20
445.87335721757489
 30
0.0
 11
241.49193064396931
 21
431.87335655165231
 31
0.0
  0
LINE
  5
2D03
  8
0
 10
238.49192755602971
 20
445.87335745693611
 30
0.0
 11
238.49192619735959
 21
431.87335654918712
 31
0.0
  0
LINE
  5
2D04
  8
0
 10
97.491932240909023
 20
445.87335745693611
 30
0.0
 11
97.49193359957917
 21
431.87335654918712
 31
0.0
  0
LINE
  5
2D05
  8
0
 10
94.491933149379406
 20
445.87335721757489
 30
0.0
 11
94.491929152969419
 21
431.87335655165231
 31
0.0
  0
LINE
  5
2D06
  8
0
 10
98.594074146650314
 20
431.87335647622149
 30
0.0
 11
94.491929152969519
 21
431.87335674779831
 31
0.0
  0
LINE
  5
2D07
  8
0
 10
94.491933149379406
 20
445.87335721757489
 30
0.0
 11
98.59407094635219
 21
445.87335521379202
 31
0.0
  0
LINE
  5
2D09
  8
0
 10
241.49192989846961
 20
314.87335632498571
 30
0.0
 11
241.49192989846961
 21
300.87335632498571
 31
0.0
  0
LINE
  5
2D1A
  8
0
 10
97.491928485542758
 20
132.1733548602646
 30
0.0
 11
97.4947353342111
 21
146.1733564196914
 31
0.0
  0
LINE
  5
2D1B
  8
0
 10
94.491929152969306
 20
132.17335552049201
 30
0.0
 11
94.491929152969306
 21
146.17335618641431
 31
0.0
  0
LINE
  5
2D1C
  8
0
 10
241.49193064396951
 20
132.17335552049201
 30
0.0
 11
241.49193064396951
 21
146.17335618641431
 31
0.0
  0
LINE
  5
2D1D
  8
0
 10
238.491931311396
 20
132.1733548602646
 30
0.0
 11
238.48912446272769
 21
146.1733564196914
 31
0.0
  0
LINE
  5
2D1E
  8
0
 10
237.64105324262391
 20
146.1733545788577
 30
0.0
 11
241.49193064396951
 21
146.17335642577581
 31
0.0
  0
LINE
  5
2D1F
  8
0
 10
241.49193064396951
 20
132.1733548602646
 30
0.0
 11
237.64105004232579
 21
132.1733558412873
 31
0.0
  0
CIRCLE
  5
2D24
  8
0
 10
231.4919298984704
 20
139.17335529382609
 30
0.0
 40
2.1000000000000001
  0
CIRCLE
  5
2D25
  8
0
 10
104.4919298984686
 20
139.17335529382609
 30
0.0
 40
2.1000000000000001
  0
TEXT
  5
2E18
  8
0
 62
     3
 10
0.0
 20
0.0
 30
0.0
 40
10.0
  1
APS140-E
  7
STANDARD1
  0
CIRCLE
  5
2F10
  8
0
 10
167.99192989846941
 20
438.87335632498571
 30
0.0
 40
54.500000000000071
  0
CIRCLE
  5
2F12
  8
0
 10
167.99192989846949
 20
438.87335632498582
 30
0.0
 40
55.000000000000057
  0
CIRCLE
  5
2F14
  8
0
 10
167.99192989846949
 20
438.87335632498582
 30
0.0
 40
67.750000000000085
  0
CIRCLE
  5
2F16
  8
0
 10
167.99192989846949
 20
139.17335529382549
 30
0.0
 40
59.000000000000838
  0
CIRCLE
  5
2F63
  8
0
 10
167.99192989846941
 20
438.87335632498571
 30
0.0
 40
69.750000000000071
  0
ENDSEC
  0
EOF
