  0
SECTION
  2
HEADER
  9
$ACADVER
  1
AC1009
  9
$INSBASE
 10
0.0
 20
0.0
 30
0.0
  9
$EXTMIN
 10
-0.0204638472032742
 20
-2.960436562073669
 30
0.0
  9
$EXTMAX
 10
226.31519692070529
 20
76.672377128876647
 30
0.0
  9
$LIMMIN
 10
0.0
 20
0.0
  9
$LIMMAX
 10
187.5
 20
135.0
  9
$ORTHOMODE
 70
     1
  9
$REGENMODE
 70
     1
  9
$FILLMODE
 70
     1
  9
$QTEXTMODE
 70
     0
  9
$MIRRTEXT
 70
     0
  9
$DRAGMODE
 70
     2
  9
$LTSCALE
 40
5.0
  9
$OSMODE
 70
    37
  9
$ATTMODE
 70
     1
  9
$TEXTSIZE
 40
0.2
  9
$TRACEWID
 40
0.05
  9
$TEXTSTYLE
  7
STANDARD
  9
$CLAYER
  8
0
  9
$CELTYPE
  6
BYLAYER
  9
$CECOLOR
 62
   256
  9
$DIMSCALE
 40
0.5
  9
$DIMASZ
 40
3.0
  9
$DIMEXO
 40
2.0
  9
$DIMDLI
 40
0.38
  9
$DIMRND
 40
0.0
  9
$DIMDLE
 40
0.0
  9
$DIMEXE
 40
2.0
  9
$DIMTP
 40
0.0
  9
$DIMTM
 40
0.0
  9
$DIMTXT
 40
3.2000000000000002
  9
$DIMCEN
 40
0.0
  9
$DIMTSZ
 40
0.0
  9
$DIMTOL
 70
     0
  9
$DIMLIM
 70
     0
  9
$DIMTIH
 70
     0
  9
$DIMTOH
 70
     0
  9
$DIMSE1
 70
     0
  9
$DIMSE2
 70
     0
  9
$DIMTAD
 70
     1
  9
$DIMZIN
 70
     0
  9
$DIMBLK
  1

  9
$DIMASO
 70
     0
  9
$DIMSHO
 70
     0
  9
$DIMPOST
  1

  9
$DIMAPOST
  1

  9
$DIMALT
 70
     0
  9
$DIMALTD
 70
     2
  9
$DIMALTF
 40
25.399999999999999
  9
$DIMLFAC
 40
1.0
  9
$DIMTOFL
 70
     1
  9
$DIMTVP
 40
1.6000000000000001
  9
$DIMTIX
 70
     1
  9
$DIMSOXD
 70
     0
  9
$DIMSAH
 70
     0
  9
$DIMBLK1
  1

  9
$DIMBLK2
  1

  9
$DIMSTYLE
  2
STANDARD
  9
$DIMCLRD
 70
     0
  9
$DIMCLRE
 70
     0
  9
$DIMCLRT
 70
     0
  9
$DIMTFAC
 40
1.0
  9
$DIMGAP
 40
0.09
  9
$LUNITS
 70
     2
  9
$LUPREC
 70
     1
  9
$SKETCHINC
 40
0.1
  9
$FILLETRAD
 40
0.0
  9
$AUNITS
 70
     0
  9
$AUPREC
 70
     1
  9
$MENU
  1
E:\r13\win\SUPPORT\ACAD
  9
$ELEVATION
 40
0.0
  9
$PELEVATION
 40
0.0
  9
$THICKNESS
 40
0.0
  9
$LIMCHECK
 70
     0
  9
$BLIPMODE
 70
     0
  9
$CHAMFERA
 40
0.0
  9
$CHAMFERB
 40
0.0
  9
$SKPOLY
 70
     0
  9
$TDCREATE
 40
2449839.7732986109
  9
$TDUPDATE
 40
2457728.720499699
  9
$TDINDWG
 40
0.1728416898
  9
$TDUSRTIMER
 40
2456598.4146360299
  9
$USRTIMER
 70
     1
  9
$ANGBASE
 50
0.0
  9
$ANGDIR
 70
     0
  9
$PDMODE
 70
     0
  9
$PDSIZE
 40
0.0
  9
$PLINEWID
 40
0.0
  9
$COORDS
 70
     1
  9
$SPLFRAME
 70
     0
  9
$SPLINETYPE
 70
     6
  9
$SPLINESEGS
 70
     8
  9
$ATTDIA
 70
     0
  9
$ATTREQ
 70
     1
  9
$HANDLING
 70
     1
  9
$HANDSEED
  5
7B6B
  9
$SURFTAB1
 70
     6
  9
$SURFTAB2
 70
     6
  9
$SURFTYPE
 70
     6
  9
$SURFU
 70
     6
  9
$SURFV
 70
     6
  9
$UCSNAME
  2

  9
$UCSORG
 10
0.0
 20
0.0
 30
0.0
  9
$UCSXDIR
 10
1.0
 20
0.0
 30
0.0
  9
$UCSYDIR
 10
0.0
 20
1.0
 30
0.0
  9
$PUCSNAME
  2

  9
$PUCSORG
 10
0.0
 20
0.0
 30
0.0
  9
$PUCSXDIR
 10
1.0
 20
0.0
 30
0.0
  9
$PUCSYDIR
 10
0.0
 20
1.0
 30
0.0
  9
$USERI1
 70
     0
  9
$USERI2
 70
     1
  9
$USERI3
 70
     1
  9
$USERI4
 70
     0
  9
$USERI5
 70
     0
  9
$USERR1
 40
0.0
  9
$USERR2
 40
0.0
  9
$USERR3
 40
0.0
  9
$USERR4
 40
0.0
  9
$USERR5
 40
0.0
  9
$WORLDVIEW
 70
     1
  9
$SHADEDGE
 70
     3
  9
$SHADEDIF
 70
    70
  9
$TILEMODE
 70
     1
  9
$MAXACTVP
 70
    16
  9
$PLIMCHECK
 70
     0
  9
$PEXTMIN
 10
1.0000000000000000E+020
 20
1.0000000000000000E+020
 30
1.0000000000000000E+020
  9
$PEXTMAX
 10
-1.0000000000000000E+020
 20
-1.0000000000000000E+020
 30
-1.0000000000000000E+020
  9
$PLIMMIN
 10
0.0
 20
0.0
  9
$PLIMMAX
 10
12.0
 20
9.0
  9
$UNITMODE
 70
     0
  9
$VISRETAIN
 70
     0
  9
$PLINEGEN
 70
     0
  9
$PSLTSCALE
 70
     0
  0
ENDSEC
  0
SECTION
  2
TABLES
  0
TABLE
  2
VPORT
 70
     1
  0
VPORT
  2
*ACTIVE
 70
     0
 10
0.0
 20
0.0
 11
1.0
 21
1.0
 12
172.54273504273499
 22
95.0
 13
0.0
 23
0.0
 14
5.0
 24
5.0
 15
5.0
 25
5.0
 16
0.0
 26
0.0
 36
1.0
 17
0.0
 27
0.0
 37
0.0
 40
190.0
 41
1.816239316239316
 42
50.0
 43
0.0
 44
0.0
 50
0.0
 51
0.0
 71
     0
 72
   500
 73
     1
 74
     0
 75
     0
 76
     0
 77
     0
 78
     2
  0
ENDTAB
  0
TABLE
  2
LTYPE
 70
     3
  0
LTYPE
  2
CONTINUOUS
 70
     0
  3
Solid Line
 72
    65
 73
     0
 40
0.0
  0
LTYPE
  2
CENTER
 70
     0
  3
____ _ ____ _ ____ _ ____ _ ____ _ ____ _ ____
 72
    65
 73
     4
 40
2.0
 49
1.25
 49
-0.25
 49
0.25
 49
-0.25
  0
LTYPE
  2
PHANTOM2
 70
     0
  3
___ _ _ ___ _ _ ___ _ _ ___ _ _
 72
    65
 73
     6
 40
1.25
 49
0.625
 49
-0.125
 49
0.125
 49
-0.125
 49
0.125
 49
-0.125
  0
ENDTAB
  0
TABLE
  2
LAYER
 70
     4
  0
LAYER
  2
0
 70
     0
 62
     7
  6
CONTINUOUS
  0
LAYER
  2
1
 70
     0
 62
     1
  6
CENTER
  0
LAYER
  2
3
 70
     0
 62
     3
  6
CONTINUOUS
  0
LAYER
  2
DEFPOINTS
 70
     0
 62
     7
  6
CONTINUOUS
  0
ENDTAB
  0
TABLE
  2
STYLE
 70
     2
  0
STYLE
  2
STANDARD
 70
     0
 40
0.0
 41
1.0
 50
0.0
 71
     0
 42
0.2
  3
TXT
  4
BIGFONT
  0
STYLE
  2
STANDARD1
 70
     0
 40
0.0
 41
1.0
 50
0.0
 71
     0
 42
3.0
  3
txt
  4

  0
ENDTAB
  0
TABLE
  2
VIEW
 70
     1
  0
VIEW
  2
ALL
 70
     0
 40
270.0
 10
220.99159663865549
 20
135.0
 41
0.0
 11
0.0
 21
0.0
 31
1.0
 12
0.0
 22
0.0
 32
0.0
 42
50.0
 43
0.0
 44
0.0
 50
0.0
 71
     0
  0
ENDTAB
  0
TABLE
  2
UCS
 70
     0
  0
ENDTAB
  0
TABLE
  2
APPID
 70
     4
  0
APPID
  2
ACAD
 70
     0
  0
APPID
  2
ACAD_MLEADERVER
 70
     0
  0
APPID
  2
ACAD_NAV_VCDISPLAY
 70
     0
  0
APPID
  2
ACAD_EXEMPT_FROM_CAD_STANDARDS
 70
     0
  0
ENDTAB
  0
TABLE
  2
DIMSTYLE
 70
     1
  0
DIMSTYLE
  2
STANDARD
 70
     0
  3

  4

  5

  6

  7

 40
1.0
 41
0.18
 42
0.0625
 43
0.38
 44
0.18
 45
0.0
 46
0.0
 47
0.0
 48
0.0
140
0.18
141
0.09
142
0.0
143
25.399999999999999
144
1.0
145
0.0
146
1.0
147
0.09
 71
     0
 72
     0
 73
     1
 74
     1
 75
     0
 76
     0
 77
     0
 78
     0
170
     0
171
     2
172
     0
173
     0
174
     0
175
     0
176
     0
177
     0
178
     0
  0
ENDTAB
  0
ENDSEC
  0
SECTION
  2
BLOCKS
  0
BLOCK
  8
0
  2
$MODEL_SPACE
 70
     0
 10
0.0
 20
0.0
 30
0.0
  3
$MODEL_SPACE
  1

  0
ENDBLK
  5
1D4
  8
0
  0
BLOCK
 67
     1
  8
0
  2
$PAPER_SPACE
 70
     0
 10
0.0
 20
0.0
 30
0.0
  3
$PAPER_SPACE
  1

  0
ENDBLK
  5
1D2
 67
     1
  8
0
  0
ENDSEC
  0
SECTION
  2
ENTITIES
  0
LINE
  5
6737
  8
0
 10
110.5884037920808
 20
64.222376893438295
 30
0.0
 11
110.5884037920808
 21
39.822377364315003
 31
0.0
  0
LINE
  5
6738
  8
0
 10
106.9151988727575
 20
64.522377315141171
 30
0.0
 11
106.9151988727575
 21
39.522376942612141
 31
0.0
  0
LINE
  5
6739
  8
0
 10
110.4151987479603
 20
64.522377315141171
 30
0.0
 11
110.4151987479603
 21
39.522376942612141
 31
0.0
  0
LINE
  5
673C
  8
0
 10
146.4151978967314
 20
63.19394997058054
 30
0.0
 11
146.4151978967314
 21
40.85080428717275
 31
0.0
  0
LINE
  5
685A
  8
0
 10
111.91519876099881
 20
32.37237712887665
 30
0.0
 11
111.91519876099881
 21
71.672377128876633
 31
0.0
  0
LINE
  5
685B
  8
0
 10
120.9151983735686
 20
70.75751024035354
 30
0.0
 11
120.9151983735686
 21
33.287244017399772
 31
0.0
  0
LINE
  5
685C
  8
0
 10
113.6940411766594
 20
71.672377128876633
 30
0.0
 11
113.6940411766594
 21
32.37237712887665
 31
0.0
  0
LINE
  5
685D
  8
0
 10
110.5884037920808
 20
39.822377364315003
 30
0.0
 11
111.91519876099881
 21
39.822377364315003
 31
0.0
  0
LINE
  5
685E
  8
0
 10
111.91519876099881
 20
64.222376893438295
 30
0.0
 11
110.5884037920808
 21
64.222376893438295
 31
0.0
  0
LINE
  5
685F
  8
0
 10
110.5884037920808
 20
64.222376893438295
 30
0.0
 11
110.4151987479603
 21
64.522377315141171
 31
0.0
  0
LINE
  5
6860
  8
0
 10
110.4151987479603
 20
39.522376942612141
 30
0.0
 11
110.5884037920808
 21
39.822377364315003
 31
0.0
  0
LINE
  5
6861
  8
0
 10
106.9151988727575
 20
39.522376942612141
 30
0.0
 11
110.4151987479603
 21
39.522376942612141
 31
0.0
  0
LINE
  5
6862
  8
0
 10
110.4151987479603
 20
64.522377315141171
 30
0.0
 11
106.9151988727575
 21
64.522377315141171
 31
0.0
  0
ARC
  5
6863
  8
0
 10
144.41519876099881
 20
40.850804253622861
 30
0.0
 40
2.0000000000000049
 50
315.00000000000023
 51
0.0
  0
ARC
  5
6864
  8
0
 10
144.41519876099881
 20
63.193950004130429
 30
0.0
 40
2.0000000000000049
 50
0.0
 51
44.999999999999837
  0
LINE
  5
6865
  8
0
 10
126.0645451498752
 20
38.022376696742981
 30
0.0
 11
134.1991607574349
 21
38.022376696742981
 31
0.0
  0
LINE
  5
6866
  8
0
 10
134.1991607574349
 20
66.02237756101033
 30
0.0
 11
126.0645451498752
 21
66.02237756101033
 31
0.0
  0
ARC
  5
6867
  8
0
 10
126.0645448110504
 20
37.022377128876663
 30
0.0
 40
1.000000000000002
 50
90.0
 51
135.00000000000031
  0
ARC
  5
6868
  8
0
 10
126.0645448110504
 20
67.022377128876641
 30
0.0
 40
1.000000000000022
 50
224.9999999999994
 51
269.99999999999352
  0
ARC
  5
6869
  8
0
 10
134.19916046705549
 20
37.022377128876649
 30
0.0
 40
1.0
 50
15.000000000000769
 51
90.000000000006509
  0
ARC
  5
686A
  8
0
 10
134.19916046705549
 20
67.022377128876641
 30
0.0
 40
1.0000000000000071
 50
269.99999999999352
 51
344.99999999999892
  0
LINE
  5
686B
  8
0
 10
145.82941089845951
 20
64.608163300134137
 30
0.0
 11
141.5839154747849
 21
68.853661517776445
 31
0.0
  0
LINE
  5
686C
  8
0
 10
141.5839154747849
 20
35.191092739976852
 30
0.0
 11
145.82941089845951
 21
39.43659095761916
 31
0.0
  0
LINE
  5
686D
  8
0
 10
135.1650856909875
 20
37.281195732928722
 30
0.0
 11
135.93153064228349
 21
34.420782799996353
 31
0.0
  0
LINE
  5
686E
  8
0
 10
135.93153064228349
 20
69.623971457756952
 30
0.0
 11
135.1650856909875
 21
66.763558524824575
 31
0.0
  0
ARC
  5
686F
  8
0
 10
138.75548773624291
 20
38.019520353613082
 30
0.0
 40
4.0
 50
274.99999999999977
 51
314.99999999999989
  0
ARC
  5
6870
  8
0
 10
138.75548773624291
 20
66.025233904140237
 30
0.0
 40
4.0
 50
45.0
 51
85.000000000000185
  0
LINE
  5
6871
  8
0
 10
139.10411079503351
 20
70.010012115515664
 30
0.0
 11
136.77399759270011
 21
70.213871176518396
 31
0.0
  0
LINE
  5
6872
  8
0
 10
136.77399759270011
 20
33.830883081234902
 30
0.0
 11
139.10411079503351
 21
34.034742142237633
 31
0.0
  0
ARC
  5
6873
  8
0
 10
136.7042722116683
 20
34.627838768625672
 30
0.0
 40
0.8000000000000301
 50
194.99999999999741
 51
275.0000000000004
  0
ARC
  5
6874
  8
0
 10
136.7042722116683
 20
69.416915489127632
 30
0.0
 40
0.8000000000000284
 50
85.000000000007716
 51
165.0000000000019
  0
LINE
  5
6875
  8
0
 10
125.3574384850984
 20
66.315270128823713
 30
0.0
 11
120.9151983735686
 21
70.75751024035354
 31
0.0
  0
LINE
  5
6876
  8
0
 10
120.9151983735686
 20
33.287244017399772
 30
0.0
 11
125.3574384850984
 21
37.729484128929577
 31
0.0
  0
LINE
  5
6877
  8
0
 10
113.6940411766594
 20
71.672377128876647
 30
0.0
 11
111.91519876099881
 21
71.672377128876647
 31
0.0
  0
LINE
  5
6878
  8
0
 10
111.91519876099881
 20
32.37237712887665
 30
0.0
 11
113.6940411766594
 21
32.37237712887665
 31
0.0
  0
LINE
  5
6879
  8
0
 10
120.9151983735686
 20
70.75751024035354
 30
0.0
 11
113.6940411766594
 21
71.672377128876647
 31
0.0
  0
LINE
  5
687A
  8
0
 10
113.6940411766594
 20
32.37237712887665
 30
0.0
 11
120.9151983735686
 21
33.287244017399772
 31
0.0
  0
CIRCLE
  5
7260
  8
0
 10
37.165198872757507
 20
52.022377128876677
 30
0.0
 40
15.13397459621555
  0
CIRCLE
  5
7261
  8
0
 10
37.165198872757507
 20
52.022377128876677
 30
0.0
 40
16.0
  0
CIRCLE
  5
7262
  8
0
 10
37.165198872757507
 20
52.022377128876677
 30
0.0
 40
19.64999999999997
  0
CIRCLE
  5
7264
  8
0
 10
37.165198872757507
 20
52.022377128876677
 30
0.0
 40
12.5
  0
CIRCLE
  5
7265
  8
0
 10
37.165198872757507
 20
52.022377128876677
 30
0.0
 40
5.0000000000000071
  0
CIRCLE
  5
7266
  8
3
 10
37.165198872757507
 20
52.022377128876677
 30
0.0
 40
4.1880000000000797
  0
LINE
  5
7267
  8
1
 10
12.515198872757541
 20
52.022377128876677
 30
0.0
 11
61.81519887275747
 21
52.022377128876677
 31
0.0
  0
LINE
  5
7268
  8
1
 10
37.165198872757507
 20
76.672377128876647
 30
0.0
 11
37.165198872757507
 21
27.37237712887671
 31
0.0
  0
LINE
  5
7269
  8
1
 10
86.915197896731442
 20
52.022377128876649
 30
0.0
 11
151.9151978967314
 21
52.022377128876649
 31
0.0
  0
LINE
  5
7289
  8
0
 10
126.0645451498752
 20
66.02237756101033
 30
0.0
 11
126.0645451498752
 21
38.022376696742981
 31
0.0
  0
LINE
  5
728A
  8
0
 10
139.10411079503351
 20
70.010012115515593
 30
0.0
 11
139.10411079503351
 21
34.034742142237583
 31
0.0
  0
LINE
  5
728B
  8
0
 10
135.93153064228349
 20
69.623971457756909
 30
0.0
 11
135.93153064228349
 21
34.420782799996289
 31
0.0
  0
LINE
  5
728C
  8
0
 10
134.19916089081681
 20
66.022377561010273
 30
0.0
 11
134.19916089081681
 21
38.022376696742931
 31
0.0
  0
TEXT
  5
75F8
  8
0
 62
     3
 10
0.0
 20
0.0
 30
0.0
 40
10.0
  1
APS140-M12A
  7
STANDARD1
  0
LINE
  5
7730
  8
0
 10
93.415197896731371
 20
47.02237712887667
 30
0.0
 11
93.415197896731485
 21
57.02237712887667
 31
0.0
  0
LINE
  5
7734
  8
0
 10
91.91519789673147
 20
55.522377128876677
 30
0.0
 11
93.415197896731485
 21
57.022377128876691
 31
0.0
  0
LINE
  5
7735
  8
0
 10
93.415197896731385
 20
47.022377128876677
 30
0.0
 11
91.915197896731399
 21
48.522377128876677
 31
0.0
  0
LINE
  5
7736
  8
0
 10
106.9151988727575
 20
47.022377128876677
 30
0.0
 11
93.415197896731385
 21
47.022377128876677
 31
0.0
  0
LINE
  5
7737
  8
3
 10
106.9151988727575
 20
47.834377128876582
 30
0.0
 11
92.603197896731487
 21
47.834377128876582
 31
0.0
  0
LINE
  5
7738
  8
3
 10
106.9151988727575
 20
56.210377128876758
 30
0.0
 11
92.603197896731558
 21
56.210377128876758
 31
0.0
  0
LINE
  5
7739
  8
0
 10
106.9151988727575
 20
57.022377128876691
 30
0.0
 11
93.415197896731485
 21
57.022377128876691
 31
0.0
  0
LINE
  5
773A
  8
0
 10
91.915197896731399
 20
48.522377128876677
 30
0.0
 11
91.91519789673147
 21
55.522377128876677
 31
0.0
  0
LINE
  5
773B
  8
0
 10
146.4151978967314
 20
59.84917204811984
 30
0.0
 11
146.9151978967314
 21
58.983146644335363
 31
0.0
  0
LINE
  5
773C
  8
0
 10
146.4151978967314
 20
44.195582209633521
 30
0.0
 11
146.9151978967314
 21
45.061607613417927
 31
0.0
  0
LINE
  5
773E
  8
0
 10
146.9151978967314
 20
58.983146644335363
 30
0.0
 11
146.9151978967314
 21
45.061607613417927
 31
0.0
  0
CIRCLE
  5
795F
  8
0
 10
37.165198872757507
 20
52.022377128876677
 30
0.0
 40
5.1250000000000062
  0
CIRCLE
  5
7960
  8
3
 10
37.165198872757507
 20
52.022377128876677
 30
0.0
 40
6.0000000521540917
  0
CIRCLE
  5
7966
  8
0
 10
37.165198872757507
 20
52.022377128876677
 30
0.0
 40
6.499999999999992
  0
CIRCLE
  5
79FF
  8
0
 10
201.66519692070531
 20
52.022377128876649
 30
0.0
 40
18.1914941187244
  0
CIRCLE
  5
7A00
  8
0
 10
201.66519692070531
 20
52.022377128876649
 30
0.0
 40
18.735132487678499
  0
CIRCLE
  5
7A01
  8
0
 10
201.66519692070531
 20
52.022377128876649
 30
0.0
 40
19.64999999999997
  0
CIRCLE
  5
7A02
  8
0
 10
201.66519692070531
 20
52.022377128876649
 30
0.0
 40
11.17157284170389
  0
LINE
  5
7A05
  8
1
 10
226.31519692070529
 20
52.022377128876649
 30
0.0
 11
177.01519692070531
 21
52.022377128876649
 31
0.0
  0
LINE
  5
7A06
  8
1
 10
201.66519692070531
 20
76.672377128876605
 30
0.0
 11
201.66519692070531
 21
27.372377128876678
 31
0.0
  0
LINE
  5
7A7B
  8
0
 10
197.6651969207058
 20
49.712976052118499
 30
0.0
 11
201.6651969207058
 21
47.403574975359888
 31
0.0
  0
LINE
  5
7A7C
  8
0
 10
201.6651969207058
 20
47.403574975359888
 30
0.0
 11
205.66519692070531
 21
49.712976052118499
 31
0.0
  0
LINE
  5
7A7D
  8
0
 10
205.66519692070531
 20
49.712976052118499
 30
0.0
 11
205.66519692070531
 21
54.331778205636162
 31
0.0
  0
LINE
  5
7A7E
  8
0
 10
205.66519692070531
 20
54.331778205636162
 30
0.0
 11
201.66519692070531
 21
56.64117928239385
 31
0.0
  0
LINE
  5
7A7F
  8
0
 10
201.66519692070531
 20
56.64117928239385
 30
0.0
 11
197.66519692070489
 21
54.331778205634791
 31
0.0
  0
LINE
  5
7A80
  8
0
 10
197.66519692070489
 20
54.331778205634791
 30
0.0
 11
197.6651969207058
 21
49.712976052118499
 31
0.0
  0
CIRCLE
  5
7A81
  8
0
 10
201.66519692070531
 20
52.022377128876649
 30
0.0
 40
8.0
  0
CIRCLE
  5
7ADA
  8
0
 10
201.66519692070531
 20
52.022377128876649
 30
0.0
 40
8.25
  0
ENDSEC
  0
EOF
